  0
SECTION
  2
HEADER
  9
$ACADVER
  1
AC1015
  9
$ACADMAINTVER
 70
     6
  9
$DWGCODEPAGE
  3
ANSI_1252
  9
$INSBASE
 10
0.0
 20
0.0
 30
0.0
  9
$EXTMIN
 10
0.0
 20
0.0
 30
0.0
  9
$EXTMAX
 10
1189.0
 20
841.0
 30
0.0
  9
$LIMMIN
 10
0.0
 20
0.0
  9
$LIMMAX
 10
1189.0
 20
841.0
  9
$ORTHOMODE
 70
     0
  9
$REGENMODE
 70
     1
  9
$FILLMODE
 70
     1
  9
$QTEXTMODE
 70
     0
  9
$MIRRTEXT
 70
     1
  9
$LTSCALE
 40
1.0
  9
$ATTMODE
 70
     1
  9
$TEXTSIZE
 40
3.5
  9
$TRACEWID
 40
1.0
  9
$TEXTSTYLE
  7
Standard
  9
$CLAYER
  8
0
  9
$CELTYPE
  6
ByLayer
  9
$CECOLOR
 62
   256
  9
$CELTSCALE
 40
1.0
  9
$DISPSILH
 70
     0
  9
$DIMSCALE
 40
1.0
  9
$DIMASZ
 40
3.302
  9
$DIMEXO
 40
1.0
  9
$DIMDLI
 40
3.75
  9
$DIMRND
 40
0.0
  9
$DIMDLE
 40
0.0
  9
$DIMEXE
 40
1.0
  9
$DIMTP
 40
0.0
  9
$DIMTM
 40
0.0
  9
$DIMTXT
 40
3.5
  9
$DIMCEN
 40
2.5
  9
$DIMTSZ
 40
0.0
  9
$DIMTOL
 70
     0
  9
$DIMLIM
 70
     0
  9
$DIMTIH
 70
     1
  9
$DIMTOH
 70
     1
  9
$DIMSE1
 70
     0
  9
$DIMSE2
 70
     0
  9
$DIMTAD
 70
     1
  9
$DIMZIN
 70
     1
  9
$DIMBLK
  1

  9
$DIMASO
 70
     1
  9
$DIMSHO
 70
     1
  9
$DIMPOST
  1

  9
$DIMAPOST
  1

  9
$DIMALT
 70
     0
  9
$DIMALTD
 70
     3
  9
$DIMALTF
 40
0.0393700787
  9
$DIMLFAC
 40
2.0
  9
$DIMTOFL
 70
     1
  9
$DIMTVP
 40
0.0
  9
$DIMTIX
 70
     0
  9
$DIMSOXD
 70
     0
  9
$DIMSAH
 70
     0
  9
$DIMBLK1
  1

  9
$DIMBLK2
  1

  9
$DIMSTYLE
  2
ISO-25
  9
$DIMCLRD
 70
     0
  9
$DIMCLRE
 70
     0
  9
$DIMCLRT
 70
     0
  9
$DIMTFAC
 40
1.0
  9
$DIMGAP
 40
1.524
  9
$DIMJUST
 70
     0
  9
$DIMSD1
 70
     0
  9
$DIMSD2
 70
     0
  9
$DIMTOLJ
 70
     0
  9
$DIMTZIN
 70
     1
  9
$DIMALTZ
 70
     0
  9
$DIMALTTZ
 70
     0
  9
$DIMUPT
 70
     0
  9
$DIMDEC
 70
     2
  9
$DIMTDEC
 70
     2
  9
$DIMALTU
 70
     2
  9
$DIMALTTD
 70
     3
  9
$DIMTXSTY
  7
Standard
  9
$DIMAUNIT
 70
     0
  9
$DIMADEC
 70
     2
  9
$DIMALTRND
 40
0.0
  9
$DIMAZIN
 70
     0
  9
$DIMDSEP
 70
    44
  9
$DIMATFIT
 70
     3
  9
$DIMFRAC
 70
     0
  9
$DIMLDRBLK
  1

  9
$DIMLUNIT
 70
     2
  9
$DIMLWD
 70
    -2
  9
$DIMLWE
 70
    -2
  9
$DIMTMOVE
 70
     0
  9
$LUNITS
 70
     2
  9
$LUPREC
 70
     2
  9
$SKETCHINC
 40
1.0
  9
$FILLETRAD
 40
10.0
  9
$AUNITS
 70
     0
  9
$AUPREC
 70
     2
  9
$MENU
  1
.
  9
$ELEVATION
 40
0.0
  9
$PELEVATION
 40
0.0
  9
$THICKNESS
 40
0.0
  9
$LIMCHECK
 70
     0
  9
$CHAMFERA
 40
0.0
  9
$CHAMFERB
 40
0.0
  9
$CHAMFERC
 40
0.0
  9
$CHAMFERD
 40
0.0
  9
$SKPOLY
 70
     0
  9
$TDCREATE
 40
2460383.582785139
  9
$TDUCREATE
 40
2460383.353618472
  9
$TDUPDATE
 40
2460383.58278566
  9
$TDUUPDATE
 40
2460383.353618993
  9
$TDINDWG
 40
0.0000000116
  9
$TDUSRTIMER
 40
0.0000000116
  9
$USRTIMER
 70
     1
  9
$ANGBASE
 50
0.0
  9
$ANGDIR
 70
     0
  9
$PDMODE
 70
     0
  9
$PDSIZE
 40
-1.0
  9
$PLINEWID
 40
0.0
  9
$SPLFRAME
 70
     0
  9
$SPLINETYPE
 70
     6
  9
$SPLINESEGS
 70
     8
  9
$HANDSEED
  5
2DB
  9
$SURFTAB1
 70
     6
  9
$SURFTAB2
 70
     6
  9
$SURFTYPE
 70
     6
  9
$SURFU
 70
     6
  9
$SURFV
 70
     6
  9
$UCSBASE
  2

  9
$UCSNAME
  2

  9
$UCSORG
 10
0.0
 20
0.0
 30
0.0
  9
$UCSXDIR
 10
1.0
 20
0.0
 30
0.0
  9
$UCSYDIR
 10
0.0
 20
1.0
 30
0.0
  9
$UCSORTHOREF
  2

  9
$UCSORTHOVIEW
 70
     0
  9
$UCSORGTOP
 10
0.0
 20
0.0
 30
0.0
  9
$UCSORGBOTTOM
 10
0.0
 20
0.0
 30
0.0
  9
$UCSORGLEFT
 10
0.0
 20
0.0
 30
0.0
  9
$UCSORGRIGHT
 10
0.0
 20
0.0
 30
0.0
  9
$UCSORGFRONT
 10
0.0
 20
0.0
 30
0.0
  9
$UCSORGBACK
 10
0.0
 20
0.0
 30
0.0
  9
$PUCSBASE
  2

  9
$PUCSNAME
  2

  9
$PUCSORG
 10
0.0
 20
0.0
 30
0.0
  9
$PUCSXDIR
 10
1.0
 20
0.0
 30
0.0
  9
$PUCSYDIR
 10
0.0
 20
1.0
 30
0.0
  9
$PUCSORTHOREF
  2

  9
$PUCSORTHOVIEW
 70
     0
  9
$PUCSORGTOP
 10
0.0
 20
0.0
 30
0.0
  9
$PUCSORGBOTTOM
 10
0.0
 20
0.0
 30
0.0
  9
$PUCSORGLEFT
 10
0.0
 20
0.0
 30
0.0
  9
$PUCSORGRIGHT
 10
0.0
 20
0.0
 30
0.0
  9
$PUCSORGFRONT
 10
0.0
 20
0.0
 30
0.0
  9
$PUCSORGBACK
 10
0.0
 20
0.0
 30
0.0
  9
$USERI1
 70
     0
  9
$USERI2
 70
     0
  9
$USERI3
 70
     0
  9
$USERI4
 70
     0
  9
$USERI5
 70
     0
  9
$USERR1
 40
0.0
  9
$USERR2
 40
0.0
  9
$USERR3
 40
0.0
  9
$USERR4
 40
0.0
  9
$USERR5
 40
0.0
  9
$WORLDVIEW
 70
     1
  9
$SHADEDGE
 70
     3
  9
$SHADEDIF
 70
    70
  9
$TILEMODE
 70
     1
  9
$MAXACTVP
 70
    64
  9
$PINSBASE
 10
0.0
 20
0.0
 30
0.0
  9
$PLIMCHECK
 70
     0
  9
$PEXTMIN
 10
1.0000000000E+20
 20
1.0000000000E+20
 30
1.0000000000E+20
  9
$PEXTMAX
 10
-1.0000000000E+20
 20
-1.0000000000E+20
 30
-1.0000000000E+20
  9
$PLIMMIN
 10
0.0
 20
0.0
  9
$PLIMMAX
 10
420.0
 20
297.0
  9
$UNITMODE
 70
     0
  9
$VISRETAIN
 70
     1
  9
$PLINEGEN
 70
     0
  9
$PSLTSCALE
 70
     1
  9
$TREEDEPTH
 70
  3020
  9
$CMLSTYLE
  2
Standard
  9
$CMLJUST
 70
     0
  9
$CMLSCALE
 40
20.0
  9
$PROXYGRAPHICS
 70
     1
  9
$MEASUREMENT
 70
     1
  9
$CELWEIGHT
370
    -1
  9
$ENDCAPS
280
     0
  9
$JOINSTYLE
280
     0
  9
$LWDISPLAY
290
     1
  9
$INSUNITS
 70
     4
  9
$HYPERLINKBASE
  1

  9
$STYLESHEET
  1

  9
$XEDIT
290
     1
  9
$CEPSNTYPE
380
     0
  9
$PSTYLEMODE
290
     1
  9
$FINGERPRINTGUID
  2
{5c0b61c8-f8ee-4f02-bbaa-9a49792956e6}
  9
$VERSIONGUID
  2
{FAEB1C32-E019-11D5-929B-00C0DF256EC4}
  9
$EXTNAMES
290
     1
  9
$PSVPSCALE
 40
0.0
  9
$OLESTARTUP
290
     0
  0
ENDSEC
  0
SECTION
  2
CLASSES
  0
CLASS
  1
ACDBDICTIONARYWDFLT
  2
AcDbDictionaryWithDefault
  3
ObjectDBX Classes
 90
        0
280
     0
281
     0
  0
CLASS
  1
VISUALSTYLE
  2
AcDbVisualStyle
  3
ObjectDBX Classes
 90
     4095
280
     0
281
     0
  0
CLASS
  1
MATERIAL
  2
AcDbMaterial
  3
ObjectDBX Classes
 90
     1153
280
     0
281
     0
  0
CLASS
  1
SCALE
  2
AcDbScale
  3
ObjectDBX Classes
 90
     1153
280
     0
281
     0
  0
CLASS
  1
TABLESTYLE
  2
AcDbTableStyle
  3
ObjectDBX Classes
 90
     4095
280
     0
281
     0
  0
CLASS
  1
MLEADERSTYLE
  2
AcDbMLeaderStyle
  3
ACDB_MLEADERSTYLE_CLASS
 90
     4095
280
     0
281
     0
  0
CLASS
  1
SUN
  2
AcDbSun
  3
SCENEOE
 90
     1153
280
     0
281
     0
  0
CLASS
  1
ACDBPLACEHOLDER
  2
AcDbPlaceHolder
  3
ObjectDBX Classes
 90
        0
280
     0
281
     0
  0
CLASS
  1
LAYOUT
  2
AcDbLayout
  3
ObjectDBX Classes
 90
        0
280
     0
281
     0
  0
ENDSEC
  0
SECTION
  2
TABLES
  0
TABLE
  2
VPORT
  5
8
330
0
100
AcDbSymbolTable
 70
     1
  0
VPORT
  5
29
330
8
100
AcDbSymbolTableRecord
100
AcDbViewportTableRecord
  2
*Active
 70
     0
 10
0.0
 20
0.0
 11
1.0
 21
1.0
 12
594.5
 22
420.5
 13
0.0
 23
0.0
 14
10.0
 24
10.0
 15
10.0
 25
10.0
 16
0.0
 26
0.0
 36
1.0
 17
0.0
 27
0.0
 37
0.0
 40
841.0
 41
1.4137931034
 42
50.0
 43
0.0
 44
0.0
 50
0.0
 51
0.0
 71
     0
 72
  2000
 73
     1
 74
     3
 75
     0
 76
     0
 77
     0
 78
     0
281
     0
 65
     1
110
0.0
120
0.0
130
0.0
111
1.0
121
0.0
131
0.0
112
0.0
122
1.0
132
0.0
 79
     0
146
0.0
  0
ENDTAB
  0
TABLE
  2
LTYPE
  5
5
330
0
100
AcDbSymbolTable
 70
     6
  0
LTYPE
  5
14
330
5
100
AcDbSymbolTableRecord
100
AcDbLinetypeTableRecord
  2
ByBlock
 70
     0
  3

 72
    65
 73
     0
 40
0.0
  0
LTYPE
  5
15
330
5
100
AcDbSymbolTableRecord
100
AcDbLinetypeTableRecord
  2
ByLayer
 70
     0
  3

 72
    65
 73
     0
 40
0.0
  0
LTYPE
  5
16
330
5
100
AcDbSymbolTableRecord
100
AcDbLinetypeTableRecord
  2
Continuous
 70
     0
  3
Solid line
 72
    65
 73
     0
 40
0.0
  0
LTYPE
  5
6E
330
5
100
AcDbSymbolTableRecord
100
AcDbLinetypeTableRecord
  2
HIDDEN
 70
     0
  3
Hidden __ __ __ __ __ __ __ __ __ __ __ __ __ __
 72
    65
 73
     2
 40
1.905
 49
1.27
 74
     0
 49
-0.635
 74
     0
  0
LTYPE
  5
6F
330
5
100
AcDbSymbolTableRecord
100
AcDbLinetypeTableRecord
  2
PHANTOM
 70
     0
  3
Phantom ______  __  __  ______  __  __  ______
 72
    65
 73
     6
 40
12.7
 49
6.35
 74
     0
 49
-1.27
 74
     0
 49
1.27
 74
     0
 49
-1.27
 74
     0
 49
1.27
 74
     0
 49
-1.27
 74
     0
  0
LTYPE
  5
70
330
5
100
AcDbSymbolTableRecord
100
AcDbLinetypeTableRecord
  2
CENTER
 70
     0
  3
Center ____ _ ____ _ ____ _ ____ _ ____ _ ____
 72
    65
 73
     4
 40
10.16
 49
6.35
 74
     0
 49
-1.27
 74
     0
 49
1.27
 74
     0
 49
-1.27
 74
     0
  0
LTYPE
  5
71
330
5
100
AcDbSymbolTableRecord
100
AcDbLinetypeTableRecord
  2
CENTERX2
 70
     0
  3
Center (2x) ________  __  ________  __  _____
 72
    65
 73
     4
 40
20.32
 49
12.7
 74
     0
 49
-2.54
 74
     0
 49
2.54
 74
     0
 49
-2.54
 74
     0
  0
LTYPE
  5
72
330
5
100
AcDbSymbolTableRecord
100
AcDbLinetypeTableRecord
  2
DOT2
 70
     0
  3
Dot (.5x) ........................................
 72
    65
 73
     2
 40
0.635
 49
0.0
 74
     0
 49
-0.635
 74
     0
  0
ENDTAB
  0
TABLE
  2
LAYER
  5
2
330
0
100
AcDbSymbolTable
 70
     1
  0
LAYER
  5
10
330
2
100
AcDbSymbolTableRecord
100
AcDbLayerTableRecord
  2
0
 70
     0
 62
     7
  6
Continuous
370
    -3
390
F
  0
ENDTAB
  0
TABLE
  2
STYLE
  5
3
330
0
100
AcDbSymbolTable
 70
     1
  0
STYLE
  5
11
330
3
100
AcDbSymbolTableRecord
100
AcDbTextStyleTableRecord
  2
Standard
 70
     0
 40
0.0
 41
1.0
 50
0.0
 71
     0
 42
3.5
  3
txt
  4

  0
ENDTAB
  0
TABLE
  2
VIEW
  5
6
330
0
100
AcDbSymbolTable
 70
     0
  0
ENDTAB
  0
TABLE
  2
UCS
  5
7
330
0
100
AcDbSymbolTable
 70
     0
  0
ENDTAB
  0
TABLE
  2
APPID
  5
9
330
0
100
AcDbSymbolTable
 70
     1
  0
APPID
  5
12
330
9
100
AcDbSymbolTableRecord
100
AcDbRegAppTableRecord
  2
ACAD
 70
     0
  0
ENDTAB
  0
TABLE
  2
DIMSTYLE
  5
A
330
0
100
AcDbSymbolTable
 70
     1
100
AcDbDimStyleTable
  0
DIMSTYLE
105
27
330
A
100
AcDbSymbolTableRecord
100
AcDbDimStyleTableRecord
  2
ISO-25
 70
     0
 41
2.5
 42
0.625
 43
3.75
 44
1.25
 73
     0
 74
     0
 77
     1
 78
     8
140
2.5
141
2.5
143
0.0393700787
147
0.625
171
     3
172
     1
178
     0
271
     2
272
     2
274
     3
278
    44
283
     0
284
     8
340
11
  0
ENDTAB
  0
TABLE
  2
BLOCK_RECORD
  5
1
330
0
100
AcDbSymbolTable
 70
     1
  0
BLOCK_RECORD
  5
1F
330
1
100
AcDbSymbolTableRecord
100
AcDbBlockTableRecord
  2
*Model_Space
340
22
  0
BLOCK_RECORD
  5
1B
330
1
100
AcDbSymbolTableRecord
100
AcDbBlockTableRecord
  2
*Paper_Space
340
1E
  0
BLOCK_RECORD
  5
23
330
1
100
AcDbSymbolTableRecord
100
AcDbBlockTableRecord
  2
*Paper_Space0
340
26
  0
ENDTAB
  0
ENDSEC
  0
SECTION
  2
BLOCKS
  0
BLOCK
  5
20
330
1F
100
AcDbEntity
  8
0
100
AcDbBlockBegin
  2
*Model_Space
 70
     0
 10
0.0
 20
0.0
 30
0.0
  3
*Model_Space
  1

  0
ENDBLK
  5
21
330
1F
100
AcDbEntity
  8
0
100
AcDbBlockEnd
  0
BLOCK
  5
1C
330
1B
100
AcDbEntity
 67
     1
  8
0
100
AcDbBlockBegin
  2
*Paper_Space
 70
     0
 10
0.0
 20
0.0
 30
0.0
  3
*Paper_Space
  1

  0
ENDBLK
  5
1D
330
1B
100
AcDbEntity
 67
     1
  8
0
100
AcDbBlockEnd
  0
BLOCK
  5
24
330
23
100
AcDbEntity
  8
0
100
AcDbBlockBegin
  2
*Paper_Space0
 70
     0
 10
0.0
 20
0.0
 30
0.0
  3
*Paper_Space0
  1

  0
ENDBLK
  5
25
330
23
100
AcDbEntity
  8
0
100
AcDbBlockEnd
  0
ENDSEC
  0
SECTION
  2
ENTITIES
  0
LINE
  5
73
330
1F
100
AcDbEntity
  8
0
  6
Continuous
 62
     7
370
    25
100
AcDbLine
 10
593.345937548
 20
447.5227886166
 30
0.0
 11
593.345937548
 21
400.195776705
 31
0.0
  0
LINE
  5
74
330
1F
100
AcDbEntity
  8
0
  6
Continuous
 62
     7
370
    25
100
AcDbLine
 10
609.145937548
 20
400.195776705
 30
0.0
 11
609.145937548
 21
447.5227886166
 31
0.0
  0
LINE
  5
75
330
1F
100
AcDbEntity
  8
0
  6
Continuous
 62
     7
370
    25
100
AcDbLine
 10
609.145937548
 20
447.5227886166
 30
0.0
 11
609.145937548
 21
631.5227886166
 31
0.0
  0
LINE
  5
76
330
1F
100
AcDbEntity
  8
0
  6
Continuous
 62
     7
370
    25
100
AcDbLine
 10
593.345937548
 20
631.5227886166
 30
0.0
 11
593.345937548
 21
447.5227886166
 31
0.0
  0
LINE
  5
77
330
1F
100
AcDbEntity
  8
0
  6
Continuous
 62
     7
370
    25
100
AcDbLine
 10
593.345937548
 20
654.195776705
 30
0.0
 11
593.345937548
 21
631.5227886166
 31
0.0
  0
LINE
  5
78
330
1F
100
AcDbEntity
  8
0
  6
Continuous
 62
     7
370
    25
100
AcDbLine
 10
609.145937548
 20
631.5227886166
 30
0.0
 11
609.145937548
 21
654.195776705
 31
0.0
  0
SPLINE
  5
79
330
1F
100
AcDbEntity
  8
0
  6
Continuous
 62
     7
370
    25
100
AcDbSpline
210
0.0
220
0.0
230
1.0
 70
     8
 71
     3
 72
    17
 73
    13
 74
     0
 42
0.00000001
 43
0.00000001
 40
0.0
 40
0.0
 40
0.0
 40
0.0
 40
0.1727939157605292
 40
0.4670908646424644
 40
0.583603646444573
 40
0.6237329378319886
 40
0.6617158152047128
 40
0.7176264960718008
 40
0.7837734229449179
 40
0.864011767563451
 40
0.9541263261861292
 40
1.0
 40
1.0
 40
1.0
 40
1.0
 10
759.2634792666248
 20
651.1344609434639
 30
0.0
 10
759.3472728694945
 20
651.1404381135227
 30
0.0
 10
759.5737809976523
 20
651.1565954042388
 30
0.0
 10
759.7523853676805
 20
651.1733695471434
 30
0.0
 10
759.834353350634
 20
651.1832868374116
 30
0.0
 10
759.8961842794894
 20
651.1958192273703
 30
0.0
 10
759.9648118655793
 20
651.2164403881316
 30
0.0
 10
760.0579315206774
 20
651.2625368298028
 30
0.0
 10
760.1601717616977
 20
651.3486504699756
 30
0.0
 10
760.244870390127
 20
651.4802873164888
 30
0.0
 10
760.2880624288772
 20
651.6220757825124
 30
0.0
 10
760.2730047896391
 20
651.7108136317811
 30
0.0
 10
760.2679253116693
 20
651.7407480686022
 30
0.0
  0
SPLINE
  5
7A
330
1F
100
AcDbEntity
  8
0
  6
Continuous
 62
     7
370
    25
100
AcDbSpline
210
0.0
220
0.0
230
1.0
 70
     8
 71
     3
 72
    11
 73
     7
 74
     0
 42
0.00000001
 43
0.00000001
 40
0.0
 40
0.0
 40
0.0
 40
0.0
 40
0.2581119974948881
 40
0.6584080223626041
 40
0.9910011741690712
 40
1.0
 40
1.0
 40
1.0
 40
1.0
 10
760.2678754199347
 20
657.2437706299439
 30
0.0
 10
760.2668688663872
 20
657.2764396944256
 30
0.0
 10
760.26430128744
 20
657.359773961513
 30
0.0
 10
760.2023199836385
 20
657.4707533597751
 30
0.0
 10
760.1461477067928
 20
657.5470681742087
 30
0.0
 10
760.1120040435402
 20
657.5717752420824
 30
0.0
 10
760.1111045701949
 20
657.5724261197819
 30
0.0
  0
LINE
  5
7B
330
1F
100
AcDbEntity
  8
0
  6
Continuous
 62
     7
370
    25
100
AcDbLine
 10
755.7801585758
 20
650.8922934151
 30
0.0
 11
759.2634792666
 21
651.1344609435
 31
0.0
  0
LINE
  5
7C
330
1F
100
AcDbEntity
  8
0
  6
Continuous
 62
     7
370
    25
100
AcDbLine
 10
759.2634792666
 20
657.7479350442
 30
0.0
 11
755.7801585758
 21
657.9901025725
 31
0.0
  0
ARC
  5
7D
330
1F
100
AcDbEntity
  8
0
  6
Continuous
 62
     7
370
    25
100
AcDbCircle
 10
710.9549527532
 20
651.469303518
 30
0.0
 40
8.999995138923122
100
AcDbArc
 50
257.1419190681
 51
270.0
  0
ARC
  5
7E
330
1F
100
AcDbEntity
  8
0
  6
Continuous
 62
     7
370
    25
100
AcDbCircle
 10
710.9549527532
 20
651.469303518
 30
0.0
 40
8.999995138923055
100
AcDbArc
 50
270.0
 51
305.1719294169
  0
SPLINE
  5
7F
330
1F
100
AcDbEntity
  8
0
  6
Continuous
 62
     7
370
    25
100
AcDbSpline
210
0.0
220
0.0
230
1.0
 70
     8
 71
     3
 72
    11
 73
     7
 74
     0
 42
0.00000001
 43
0.00000001
 40
0.0
 40
0.0
 40
0.0
 40
0.0
 40
0.2581119974948801
 40
0.6584080223625953
 40
0.9910011741690068
 40
1.0
 40
1.0
 40
1.0
 40
1.0
 10
442.2239996759684
 20
651.3932040688467
 30
0.0
 10
442.2250062295161
 20
651.3605350043651
 30
0.0
 10
442.2275738084632
 20
651.2772007372777
 30
0.0
 10
442.2895551122647
 20
651.1662213390157
 30
0.0
 10
442.3457273891106
 20
651.0899065245819
 30
0.0
 10
442.3798710523631
 20
651.0651994567083
 30
0.0
 10
442.3807705257083
 20
651.0645485790088
 30
0.0
  0
SPLINE
  5
80
330
1F
100
AcDbEntity
  8
0
  6
Continuous
 62
     7
370
    25
100
AcDbSpline
210
0.0
220
0.0
230
1.0
 70
     8
 71
     3
 72
    17
 73
    13
 74
     0
 42
0.00000001
 43
0.00000001
 40
0.0
 40
0.0
 40
0.0
 40
0.0
 40
0.1727939157605296
 40
0.4670908646424595
 40
0.5836036464445749
 40
0.6237329378319906
 40
0.6617158152047107
 40
0.7176264960718011
 40
0.7837734229449181
 40
0.8640117675634507
 40
0.9541263261861291
 40
1.0
 40
1.0
 40
1.0
 40
1.0
 10
443.2283958292784
 20
657.5025137553268
 30
0.0
 10
443.1446022264086
 20
657.496536585268
 30
0.0
 10
442.918094098251
 20
657.4803792945519
 30
0.0
 10
442.7394897282227
 20
657.4636051516474
 30
0.0
 10
442.6575217452692
 20
657.453687861379
 30
0.0
 10
442.5956908164139
 20
657.4411554714203
 30
0.0
 10
442.5270632303238
 20
657.4205343106591
 30
0.0
 10
442.433943575226
 20
657.3744378689879
 30
0.0
 10
442.3317033342055
 20
657.2883242288151
 30
0.0
 10
442.2470047057764
 20
657.1566873823019
 30
0.0
 10
442.2038126670262
 20
657.0148989162783
 30
0.0
 10
442.2188703062642
 20
656.9261610670096
 30
0.0
 10
442.2239497842339
 20
656.8962266301884
 30
0.0
  0
LINE
  5
81
330
1F
100
AcDbEntity
  8
0
  6
Continuous
 62
     7
370
    25
100
AcDbLine
 10
446.7117165202
 20
657.7446812837
 30
0.0
 11
443.2283958293
 21
657.5025137553
 31
0.0
  0
LINE
  5
82
330
1F
100
AcDbEntity
  8
0
  6
Continuous
 62
     7
370
    25
100
AcDbLine
 10
443.2283958293
 20
650.8890396546
 30
0.0
 11
446.7117165202
 21
650.6468721263
 31
0.0
  0
ARC
  5
83
330
1F
100
AcDbEntity
  8
0
  6
Continuous
 62
     7
370
    25
100
AcDbCircle
 10
499.645937548
 20
654.195776705
 30
0.0
 40
9.14119630351394
100
AcDbArc
 50
295.4997205711
 51
0.0
  0
ARC
  5
84
330
1F
100
AcDbEntity
  8
0
  6
Continuous
 62
     7
370
    25
100
AcDbCircle
 10
499.645937548
 20
654.195776705
 30
0.0
 40
9.14119630351397
100
AcDbArc
 50
0.0
 51
64.5115974032
  0
SPLINE
  5
85
330
1F
100
AcDbEntity
  8
0
  6
Continuous
 62
     7
370
    25
100
AcDbSpline
210
0.0
220
0.0
230
1.0
 70
     8
 71
     3
 72
    15
 73
    11
 74
     0
 42
0.00000001
 43
0.00000001
 40
0.0
 40
0.0
 40
0.0
 40
0.0
 40
0.00170256711823
 40
0.2171150250186569
 40
0.4151430355881564
 40
0.5935770542054747
 40
0.7492748243866812
 40
0.8781833950931193
 40
0.9757489496639637
 40
1.0
 40
1.0
 40
1.0
 40
1.0
 10
515.6761251297204
 20
666.1943212124793
 30
0.0
 10
515.6732428884926
 20
666.1940933201123
 30
0.0
 10
515.3056932808419
 20
666.1650319947623
 30
0.0
 10
514.5979447026159
 20
666.2483615024728
 30
0.0
 10
513.6101317226901
 20
666.4303703135046
 30
0.0
 10
512.7492583409876
 20
666.7148526779982
 30
0.0
 10
512.0303341436496
 20
667.0365178920052
 30
0.0
 10
511.4656064209164
 20
667.3562725553892
 30
0.0
 10
511.1074226904097
 20
667.5895920371496
 30
0.0
 10
510.9426374073875
 20
667.7121373068217
 30
0.0
 10
510.9098322229361
 20
667.7365334185465
 30
0.0
  0
SPLINE
  5
86
330
1F
100
AcDbEntity
  8
0
  6
Continuous
 62
     7
370
    25
100
AcDbSpline
210
0.0
220
0.0
230
1.0
 70
     8
 71
     3
 72
    13
 73
     9
 74
     0
 42
0.00000001
 43
0.00000001
 40
0.0
 40
0.0
 40
0.0
 40
0.0
 40
0.0261530118914495
 40
0.1605900029765602
 40
0.3442765421513507
 40
0.5353554359883136
 40
0.8124066603086347
 40
1.0
 40
1.0
 40
1.0
 40
1.0
 10
691.5844898830396
 20
667.7385877068348
 30
0.0
 10
691.549297950675
 20
667.7123794914203
 30
0.0
 10
691.3332053435731
 20
667.5514505166276
 30
0.0
 10
690.8383807503936
 20
667.2384135026621
 30
0.0
 10
690.0715688766467
 20
666.8438843899027
 30
0.0
 10
689.0338005305091
 20
666.4671650677365
 30
0.0
 10
687.9421990393786
 20
666.2187304737962
 30
0.0
 10
687.1547411125456
 20
666.2187413582272
 30
0.0
 10
686.8368166735171
 20
666.2187457526547
 30
0.0
  0
SPLINE
  5
87
330
1F
100
AcDbEntity
  8
0
  6
Continuous
 62
     7
370
    25
100
AcDbSpline
210
0.0
220
0.0
230
1.0
 70
     8
 71
     3
 72
    14
 73
    10
 74
     0
 42
0.00000001
 43
0.00000001
 40
0.0
 40
0.0
 40
0.0
 40
0.0
 40
0.032962269405593
 40
0.1212297812219178
 40
0.2643879424175511
 40
0.4634447303580524
 40
0.7058362010604424
 40
0.9957745089116925
 40
1.0
 40
1.0
 40
1.0
 40
1.0
 10
510.9085149952585
 20
640.6550757941061
 30
0.0
 10
510.9508957855853
 20
640.6861408289632
 30
0.0
 10
511.1067653307343
 20
640.800392894955
 30
0.0
 10
511.4851870720352
 20
641.0485145272065
 30
0.0
 10
512.1146976831063
 20
641.4012106147403
 30
0.0
 10
513.0251462296688
 20
641.7920361977751
 30
0.0
 10
514.2179424061078
 20
642.0959278538476
 30
0.0
 10
515.1260502586481
 20
642.2337360784092
 30
0.0
 10
515.620187307886
 20
642.1958674224163
 30
0.0
 10
515.6272852978681
 20
642.1953234613001
 30
0.0
  0
SPLINE
  5
88
330
1F
100
AcDbEntity
  8
0
  6
Continuous
 62
     7
370
    25
100
AcDbSpline
210
0.0
220
0.0
230
1.0
 70
     8
 71
     3
 72
    15
 73
    11
 74
     0
 42
0.00000001
 43
0.00000001
 40
0.0
 40
0.0
 40
0.0
 40
0.0
 40
0.0739724339500343
 40
0.2842282847550555
 40
0.4761748229990784
 40
0.6472149368330415
 40
0.7937758002588852
 40
0.9112349300485256
 40
0.9921817607072756
 40
1.0
 40
1.0
 40
1.0
 40
1.0
 10
686.8649877019299
 20
642.1788855094833
 30
0.0
 10
686.9896099521134
 20
642.1839647646883
 30
0.0
 10
687.468452765855
 20
642.2034810617417
 30
0.0
 10
688.2681428460091
 20
642.0886832126982
 30
0.0
 10
689.2085959419815
 20
641.8652435554964
 30
0.0
 10
690.0141939193172
 20
641.564872569946
 30
0.0
 10
690.6757607928104
 20
641.2408618373423
 30
0.0
 10
691.168241706092
 20
640.9459837567489
 30
0.0
 10
691.4659908992318
 20
640.7430332061984
 30
0.0
 10
691.5747423347244
 20
640.6623516117212
 30
0.0
 10
691.5843209307484
 20
640.6552453478217
 30
0.0
  0
LINE
  5
89
330
1F
100
AcDbEntity
  8
0
  6
Continuous
 62
     7
370
    25
100
AcDbLine
 10
590.6629323037
 20
666.195776705
 30
0.0
 11
515.6775253435
 21
666.195776705
 31
0.0
  0
LINE
  5
8A
330
1F
100
AcDbEntity
  8
0
  6
Continuous
 62
     7
370
    25
100
AcDbLine
 10
686.837087598
 20
666.195776705
 30
0.0
 11
609.5922345737
 21
666.195776705
 31
0.0
  0
LINE
  5
8B
330
1F
100
AcDbEntity
  8
0
  6
Continuous
 62
     7
370
    25
100
AcDbLine
 10
611.8289427922
 20
642.195776705
 30
0.0
 11
686.8659500636
 21
642.195776705
 31
0.0
  0
LINE
  5
8C
330
1F
100
AcDbEntity
  8
0
  6
Continuous
 62
     7
370
    25
100
AcDbLine
 10
515.6259250323
 20
642.195776705
 30
0.0
 11
592.8996405222
 21
642.195776705
 31
0.0
  0
ARC
  5
8D
330
1F
100
AcDbEntity
  8
0
  6
Continuous
 62
     7
370
    25
100
AcDbCircle
 10
601.245937548
 20
400.195776705
 30
0.0
 40
7.900000000000034
100
AcDbArc
 50
270.0
 51
0.0
  0
ARC
  5
8E
330
1F
100
AcDbEntity
  8
0
  6
Continuous
 62
     7
370
    25
100
AcDbCircle
 10
601.245937548
 20
400.195776705
 30
0.0
 40
7.900000000000034
100
AcDbArc
 50
180.0
 51
270.0
  0
ARC
  5
8F
330
1F
100
AcDbEntity
  8
0
  6
Continuous
 62
     7
370
    25
100
AcDbCircle
 10
601.245937548
 20
400.195776705
 30
0.0
 40
10.82499999999993
100
AcDbArc
 50
136.8689719021
 51
180.0
  0
ARC
  5
90
330
1F
100
AcDbEntity
  8
0
  6
Continuous
 62
     7
370
    25
100
AcDbCircle
 10
601.245937548
 20
400.195776705
 30
0.0
 40
10.82499999999999
100
AcDbArc
 50
180.0
 51
43.1310280979
  0
ARC
  5
91
330
1F
100
AcDbEntity
  8
0
  6
Continuous
 62
     7
370
    25
100
AcDbCircle
 10
601.245937548
 20
654.195776705
 30
0.0
 40
7.900000000000091
100
AcDbArc
 50
0.0
 51
90.0
  0
ARC
  5
92
330
1F
100
AcDbEntity
  8
0
  6
Continuous
 62
     7
370
    25
100
AcDbCircle
 10
601.245937548
 20
654.195776705
 30
0.0
 40
7.899999999999977
100
AcDbArc
 50
90.0
 51
180.0
  0
SPLINE
  5
93
330
1F
100
AcDbEntity
  8
0
  6
Continuous
 62
     7
370
    25
100
AcDbSpline
210
0.0
220
0.0
230
1.0
 70
     8
 71
     3
 72
    10
 73
     6
 74
     0
 42
0.00000001
 43
0.00000001
 40
0.0
 40
0.0
 40
0.0
 40
0.0
 40
0.4482370048069516
 40
0.9076021902651977
 40
1.0
 40
1.0
 40
1.0
 40
1.0
 10
602.4531794983525
 20
661.9923363736231
 30
0.0
 10
603.2972720353738
 20
661.7817670689477
 30
0.0
 10
605.0064130192088
 20
661.3554007491738
 30
0.0
 10
606.5718535380455
 20
660.1238490357041
 30
0.0
 10
607.2597171021102
 20
659.3156650277805
 30
0.0
 10
607.3749062091538
 20
659.1803271511099
 30
0.0
  0
ARC
  5
94
330
1F
100
AcDbEntity
  8
0
  6
Continuous
 62
     7
370
    25
100
AcDbCircle
 10
601.245937548
 20
654.195776705
 30
0.0
 40
9.600000000000023
100
AcDbArc
 50
0.0
 51
214.6221618397
  0
ARC
  5
95
330
1F
100
AcDbEntity
  8
0
  6
Continuous
 62
     7
370
    25
100
AcDbCircle
 10
601.245937548
 20
654.195776705
 30
0.0
 40
9.600000000000104
100
AcDbArc
 50
325.3778381603
 51
0.0
  0
ARC
  5
96
330
1F
100
AcDbEntity
  8
0
  6
Continuous
 62
     7
370
    25
100
AcDbCircle
 10
601.245937548
 20
654.195776705
 30
0.0
 40
10.50000000000006
100
AcDbArc
 50
0.0
 51
221.2029536038
  0
ARC
  5
97
330
1F
100
AcDbEntity
  8
0
  6
Continuous
 62
     7
370
    25
100
AcDbCircle
 10
601.245937548
 20
654.195776705
 30
0.0
 40
10.50000000000014
100
AcDbArc
 50
318.7970463962
 51
0.0
  0
ARC
  5
98
330
1F
100
AcDbEntity
  8
0
  6
Continuous
 62
     7
370
    25
100
AcDbCircle
 10
601.245937548
 20
400.195776705
 30
0.0
 40
11.55000000000002
100
AcDbArc
 50
133.1556534408
 51
274.9657006069
  0
ARC
  5
99
330
1F
100
AcDbEntity
  8
0
  6
Continuous
 62
     7
370
    25
100
AcDbCircle
 10
601.245937548
 20
400.195776705
 30
0.0
 40
11.55000000000002
100
AcDbArc
 50
274.9657006069
 51
46.8443465592
  0
ARC
  5
9A
330
1F
100
AcDbEntity
  8
0
  6
Continuous
 62
     7
370
    25
100
AcDbCircle
 10
601.245937548
 20
654.195776705
 30
0.0
 40
14.22500000000011
100
AcDbArc
 50
303.7355336397
 51
223.2235523034
  0
LWPOLYLINE
  5
9B
330
1F
100
AcDbEntity
  8
0
  6
Continuous
 62
     7
370
    25
100
AcDbPolyline
 90
        3
 70
   128
 43
0.0
 10
593.345937548
 20
642.3661264566
 10
592.5319558011
 20
642.9522386891
 10
590.8803625217
 20
644.4538323726
  0
LINE
  5
9C
330
1F
100
AcDbEntity
  8
0
  6
Continuous
 62
     7
370
    25
100
AcDbLine
 10
609.120717462
 20
666.3324327925
 30
0.0
 11
608.9886852809
 21
666.1289440358
 31
0.0
  0
SPLINE
  5
9D
330
1F
100
AcDbEntity
  8
0
  6
Continuous
 62
     7
370
    25
100
AcDbSpline
210
0.0
220
0.0
230
1.0
 70
     8
 71
     3
 72
    11
 73
     7
 74
     0
 42
0.00000001
 43
0.00000001
 40
0.0
 40
0.0
 40
0.0
 40
0.0
 40
0.1446702591042557
 40
0.3907520209323692
 40
0.5962314811354859
 40
0.9999999999999999
 40
0.9999999999999999
 40
0.9999999999999999
 40
0.9999999999999999
 10
613.847267176122
 20
661.3033129365913
 30
0.0
 10
613.6481492796069
 20
661.5708108965869
 30
0.0
 10
613.1103350740553
 20
662.2933185433603
 30
0.0
 10
612.2207571201033
 20
663.3431126554254
 30
0.0
 10
610.8779498340183
 20
664.789758506314
 30
0.0
 10
609.8211158400849
 20
665.7175530616395
 30
0.0
 10
609.1207174619578
 20
666.3324327925294
 30
0.0
  0
LINE
  5
9E
330
1F
100
AcDbEntity
  8
0
  6
Continuous
 62
     7
370
    25
100
AcDbLine
 10
613.6359874891
 20
661.1841447159
 30
0.0
 11
613.8472671761
 21
661.3033129366
 31
0.0
  0
LINE
  5
9F
330
1F
100
AcDbEntity
  8
0
  6
Continuous
 62
     7
370
    25
100
AcDbLine
 10
586.7978951021
 20
654.9472081159
 30
0.0
 11
587.0401376254
 21
654.9346092714
 31
0.0
  0
SPLINE
  5
A0
330
1F
100
AcDbEntity
  8
0
  6
Continuous
 62
     7
370
    25
100
AcDbSpline
210
0.0
220
0.0
230
1.0
 70
     8
 71
     3
 72
    11
 73
     7
 74
     0
 42
0.00000001
 43
0.00000001
 40
0.0
 40
0.0
 40
0.0
 40
0.0
 40
0.144670259104256
 40
0.3907520209323621
 40
0.5962314811354645
 40
1.0
 40
1.0
 40
1.0
 40
1.0
 10
588.7899657989735
 20
661.5550801686328
 30
0.0
 10
588.6578647184144
 20
661.2488900319049
 30
0.0
 10
588.3010618446559
 20
660.4218754439943
 30
0.0
 10
587.8367024518403
 20
659.1265812811928
 30
0.0
 10
587.2552740377338
 20
657.2403531336121
 30
0.0
 10
586.9801973802957
 20
655.86121076962
 30
0.0
 10
586.7978951021364
 20
654.9472081159477
 30
0.0
  0
LINE
  5
A1
330
1F
100
AcDbEntity
  8
0
  6
Continuous
 62
     7
370
    25
100
AcDbLine
 10
588.789965799
 20
661.5550801686
 30
0.0
 11
588.9988083489
 21
661.4316907027
 31
0.0
  0
LINE
  5
A2
330
1F
100
AcDbEntity
  8
0
  6
Continuous
 62
     7
370
    25
100
AcDbLine
 10
594.6726750161
 20
667.0838642035
 30
0.0
 11
594.7828853583
 21
666.8677766022
 31
0.0
  0
SPLINE
  5
A3
330
1F
100
AcDbEntity
  8
0
  6
Continuous
 62
     7
370
    25
100
AcDbSpline
210
0.0
220
0.0
230
1.0
 70
     8
 71
     3
 72
    11
 73
     7
 74
     0
 42
0.00000001
 43
0.00000001
 40
0.0
 40
0.0
 40
0.0
 40
0.0
 40
0.1446702591042559
 40
0.390752020932366
 40
0.5962314811354593
 40
1.0
 40
1.0
 40
1.0
 40
1.0
 10
601.3912954271439
 20
668.6626164002432
 30
0.0
 10
601.0600764500698
 20
668.6239242235108
 30
0.0
 10
600.1654593707595
 20
668.5194172823738
 30
0.0
 10
598.811522023992
 20
668.2739172316373
 30
0.0
 10
596.8872863238006
 20
667.8343349349451
 30
0.0
 10
595.5553756724291
 20
667.3829871262786
 30
0.0
 10
594.6726750161428
 20
667.0838642034961
 30
0.0
  0
LINE
  5
A4
330
1F
100
AcDbEntity
  8
0
  6
Continuous
 62
     7
370
    25
100
AcDbLine
 10
601.3912954271
 20
668.6626164002
 30
0.0
 11
601.3888582901
 21
668.4200587136
 31
0.0
  0
SPLINE
  5
A5
330
1F
100
AcDbEntity
  8
0
  6
Continuous
 62
     7
370
    25
100
AcDbSpline
210
0.0
220
0.0
230
1.0
 70
     8
 71
     3
 72
    11
 73
     7
 74
     0
 42
0.00000001
 43
0.00000001
 40
0.0
 40
0.0
 40
0.0
 40
0.0
 40
0.1446702591042542
 40
0.3907520209323655
 40
0.596231481135479
 40
1.0
 40
1.0
 40
1.0
 40
1.0
 10
588.6446079197812
 20
647.0882404733705
 30
0.0
 10
588.8437258162963
 20
646.8207425133751
 30
0.0
 10
589.381540021848
 20
646.0982348666016
 30
0.0
 10
590.2711179757999
 20
645.0484407545365
 30
0.0
 10
591.6139252618849
 20
643.6017949036478
 30
0.0
 10
592.6707592558183
 20
642.6740003483225
 30
0.0
 10
593.3711576339455
 20
642.0591206174324
 30
0.0
  0
LINE
  5
A6
330
1F
100
AcDbEntity
  8
0
  6
Continuous
 62
     7
370
    25
100
AcDbLine
 10
588.6446079198
 20
647.0882404734
 30
0.0
 11
588.8558876068
 21
647.2074086941
 31
0.0
  0
LINE
  5
A7
330
1F
100
AcDbEntity
  8
0
  6
Continuous
 62
     7
370
    25
100
AcDbLine
 10
615.4517374705
 20
653.4569441386
 30
0.0
 11
615.6939799938
 21
653.444345294
 31
0.0
  0
SPLINE
  5
A8
330
1F
100
AcDbEntity
  8
0
  6
Continuous
 62
     7
370
    25
100
AcDbSpline
210
0.0
220
0.0
230
1.0
 70
     8
 71
     3
 72
    11
 73
     7
 74
     0
 42
0.00000001
 43
0.00000001
 40
0.0
 40
0.0
 40
0.0
 40
0.0
 40
0.1446702591042545
 40
0.3907520209323574
 40
0.596231481135475
 40
0.9999999999999999
 40
0.9999999999999999
 40
0.9999999999999999
 40
0.9999999999999999
 10
613.7019092969297
 20
646.8364732413291
 30
0.0
 10
613.8340103774888
 20
647.142663378057
 30
0.0
 10
614.1908132512474
 20
647.9696779659675
 30
0.0
 10
614.655172644063
 20
649.2649721287692
 30
0.0
 10
615.2366010581694
 20
651.1512002763499
 30
0.0
 10
615.5116777156074
 20
652.5303426403419
 30
0.0
 10
615.6939799937668
 20
653.4443452940144
 30
0.0
  0
LINE
  5
A9
330
1F
100
AcDbEntity
  8
0
  6
Continuous
 62
     7
370
    25
100
AcDbLine
 10
613.493066747
 20
646.9598627072
 30
0.0
 11
613.7019092969
 21
646.8364732413
 31
0.0
  0
SPLINE
  5
AA
330
1F
100
AcDbEntity
  8
0
  6
Continuous
 62
     7
370
    25
100
AcDbSpline
210
0.0
220
0.0
230
1.0
 70
     8
 71
     3
 72
     9
 73
     5
 74
     0
 42
0.00000001
 43
0.00000001
 40
0.0
 40
0.0
 40
0.0
 40
0.0
 40
0.586384789828358
 40
1.0
 40
1.0
 40
1.0
 40
1.0
 10
612.975938719453
 20
645.2945016549347
 30
0.0
 10
613.1235152658855
 20
645.5936396966233
 30
0.0
 10
613.3751871185535
 20
646.1037791935502
 30
0.0
 10
613.606312375289
 20
646.6220914206024
 30
0.0
 10
613.7019092969297
 20
646.8364732413291
 30
0.0
  0
ARC
  5
AB
330
1F
100
AcDbEntity
  8
0
  6
Continuous
 62
     7
370
    25
100
AcDbCircle
 10
601.245937548
 20
654.195776705
 30
0.0
 40
14.72500000000004
100
AcDbArc
 50
303.6400367407
 51
322.8070678661
  0
SPLINE
  5
AC
330
1F
100
AcDbEntity
  8
0
  6
Continuous
 62
     7
370
    25
100
AcDbSpline
210
0.0
220
0.0
230
1.0
 70
     8
 71
     3
 72
     9
 73
     5
 74
     0
 42
0.00000001
 43
0.00000001
 40
0.0
 40
0.0
 40
0.0
 40
0.0
 40
0.5862283062032674
 40
0.9999999999999999
 40
0.9999999999999999
 40
0.9999999999999999
 40
0.9999999999999999
 10
586.7978951021364
 20
654.9472081159477
 30
0.0
 10
586.7436424648805
 20
654.6188822609317
 30
0.0
 10
586.6510972283543
 20
654.0588174337279
 30
0.0
 10
586.5800436131566
 20
653.4944405731935
 30
0.0
 10
586.550643638446
 20
653.2609174036704
 30
0.0
  0
SPLINE
  5
AD
330
1F
100
AcDbEntity
  8
0
  6
Continuous
 62
     7
370
    25
100
AcDbSpline
210
0.0
220
0.0
230
1.0
 70
     8
 71
     3
 72
     9
 73
     5
 74
     0
 42
0.00000001
 43
0.00000001
 40
0.0
 40
0.0
 40
0.0
 40
0.0
 40
0.5863847898283641
 40
1.0
 40
1.0
 40
1.0
 40
1.0
 10
587.6722066427883
 20
648.4879352290627
 30
0.0
 10
587.8574795129126
 20
648.2105611700051
 30
0.0
 10
588.173437350391
 20
647.7375372037135
 30
0.0
 10
588.5067462777425
 20
647.2782207463983
 30
0.0
 10
588.6446079197812
 20
647.0882404733705
 30
0.0
  0
ARC
  5
AE
330
1F
100
AcDbEntity
  8
0
  6
Continuous
 62
     7
370
    25
100
AcDbCircle
 10
601.245937548
 20
654.195776705
 30
0.0
 40
14.72499999999998
100
AcDbArc
 50
183.6400367407
 51
202.8070678661
  0
SPLINE
  5
AF
330
1F
100
AcDbEntity
  8
0
  6
Continuous
 62
     7
370
    25
100
AcDbSpline
210
0.0
220
0.0
230
1.0
 70
     8
 71
     3
 72
     9
 73
     5
 74
     0
 42
0.00000001
 43
0.00000001
 40
0.0
 40
0.0
 40
0.0
 40
0.0
 40
0.586228306203287
 40
1.0
 40
1.0
 40
1.0
 40
1.0
 10
615.6939799937668
 20
653.4443452940144
 30
0.0
 10
615.7482326310227
 20
653.7726711490302
 30
0.0
 10
615.840777867549
 20
654.3327359762341
 30
0.0
 10
615.9118314827465
 20
654.8971128367685
 30
0.0
 10
615.9412314574573
 20
655.1306360062915
 30
0.0
  0
SPLINE
  5
B0
330
1F
100
AcDbEntity
  8
0
  6
Continuous
 62
     7
370
    25
100
AcDbSpline
210
0.0
220
0.0
230
1.0
 70
     8
 71
     3
 72
     9
 73
     5
 74
     0
 42
0.00000001
 43
0.00000001
 40
0.0
 40
0.0
 40
0.0
 40
0.0
 40
0.5863847898283613
 40
1.0
 40
1.0
 40
1.0
 40
1.0
 10
614.819668453115
 20
659.9036181808992
 30
0.0
 10
614.6343955829906
 20
660.1809922399568
 30
0.0
 10
614.3184377455121
 20
660.6540162062485
 30
0.0
 10
613.9851288181605
 20
661.1133326635636
 30
0.0
 10
613.847267176122
 20
661.3033129365913
 30
0.0
  0
ARC
  5
B1
330
1F
100
AcDbEntity
  8
0
  6
Continuous
 62
     7
370
    25
100
AcDbCircle
 10
601.245937548
 20
654.195776705
 30
0.0
 40
14.7250000000001
100
AcDbArc
 50
3.6400367407
 51
22.8070678661
  0
SPLINE
  5
B2
330
1F
100
AcDbEntity
  8
0
  6
Continuous
 62
     7
370
    25
100
AcDbSpline
210
0.0
220
0.0
230
1.0
 70
     8
 71
     3
 72
     9
 73
     5
 74
     0
 42
0.00000001
 43
0.00000001
 40
0.0
 40
0.0
 40
0.0
 40
0.0
 40
0.58622830620327
 40
1.0
 40
1.0
 40
1.0
 40
1.0
 10
594.6726750161428
 20
667.0838642034961
 30
0.0
 10
594.3612101663518
 20
666.9666854380741
 30
0.0
 10
593.8299071799638
 20
666.7667995503031
 30
0.0
 10
593.3056156738343
 20
666.5461453558277
 30
0.0
 10
593.0886786892997
 20
666.4548448960363
 30
0.0
  0
SPLINE
  5
B3
330
1F
100
AcDbEntity
  8
0
  6
Continuous
 62
     7
370
    25
100
AcDbSpline
210
0.0
220
0.0
230
1.0
 70
     8
 71
     3
 72
     9
 73
     5
 74
     0
 42
0.00000001
 43
0.00000001
 40
0.0
 40
0.0
 40
0.0
 40
0.0
 40
0.5863847898283645
 40
1.0
 40
1.0
 40
1.0
 40
1.0
 10
589.5159363764502
 20
663.0970517550272
 30
0.0
 10
589.3683598300177
 20
662.7979137133386
 30
0.0
 10
589.1166879773497
 20
662.2877742164117
 30
0.0
 10
588.8855627206141
 20
661.7694619893596
 30
0.0
 10
588.7899657989735
 20
661.5550801686328
 30
0.0
  0
ARC
  5
B4
330
1F
100
AcDbEntity
  8
0
  6
Continuous
 62
     7
370
    25
100
AcDbCircle
 10
601.245937548
 20
654.195776705
 30
0.0
 40
14.72499999999999
100
AcDbArc
 50
123.6400367407
 51
142.8070678661
  0
SPLINE
  5
B5
330
1F
100
AcDbEntity
  8
0
  6
Continuous
 62
     7
370
    25
100
AcDbSpline
210
0.0
220
0.0
230
1.0
 70
     8
 71
     3
 72
     9
 73
     5
 74
     0
 42
0.00000001
 43
0.00000001
 40
0.0
 40
0.0
 40
0.0
 40
0.0
 40
0.5862283062032709
 40
1.0
 40
1.0
 40
1.0
 40
1.0
 10
609.1207174619578
 20
666.3324327925294
 30
0.0
 10
608.8635052494229
 20
666.5435798821234
 30
0.0
 10
608.4247474995612
 20
666.9037588215563
 30
0.0
 10
607.9715096086292
 20
667.2474814876152
 30
0.0
 10
607.7839725988053
 20
667.3897041973469
 30
0.0
  0
SPLINE
  5
B6
330
1F
100
AcDbEntity
  8
0
  6
Continuous
 62
     7
370
    25
100
AcDbSpline
210
0.0
220
0.0
230
1.0
 70
     8
 71
     3
 72
     9
 73
     5
 74
     0
 42
0.00000001
 43
0.00000001
 40
0.0
 40
0.0
 40
0.0
 40
0.0
 40
0.5863847898283634
 40
1.0
 40
1.0
 40
1.0
 40
1.0
 10
603.0896672816136
 20
668.8048932309455
 30
0.0
 10
602.7568178650566
 20
668.7831292483145
 30
0.0
 10
602.1891881749102
 20
668.7460137176791
 30
0.0
 10
601.6247539908231
 20
668.6870179479423
 30
0.0
 10
601.3912954271439
 20
668.6626164002432
 30
0.0
  0
ARC
  5
B7
330
1F
100
AcDbEntity
  8
0
  6
Continuous
 62
     7
370
    25
100
AcDbCircle
 10
601.245937548
 20
654.195776705
 30
0.0
 40
14.72500000000003
100
AcDbArc
 50
63.6400367407
 51
82.8070678661
  0
SPLINE
  5
B8
330
1F
100
AcDbEntity
  8
0
  6
Continuous
 62
     7
370
    25
100
AcDbSpline
210
0.0
220
0.0
230
1.0
 70
    24
 71
     3
 72
    12
 73
     8
 74
     0
 42
0.00000001
 43
0.00000001
 40
0.0
 40
0.0
 40
0.0
 40
0.0
 40
0.3013828945620945
 40
0.4108442493795588
 40
0.6247185195336505
 40
0.6986171054378635
 40
0.9999999999999999
 40
0.9999999999999999
 40
0.9999999999999999
 40
0.9999999999999999
 10
593.1469346868249
 20
641.9326520012116
 30
0.0
 10
592.6818312349835
 20
642.427529056606
 30
0.0
 10
592.0478036176124
 20
643.1021439601959
 30
0.0
 10
591.0790876690777
 20
644.1328722728465
 30
0.0
 10
590.4619628641289
 20
644.7895023302559
 30
0.0
 10
589.5487126376079
 20
645.7612142819727
 30
0.0
 10
588.9695799799315
 20
646.3774201243051
 30
0.0
 10
588.5044872807417
 20
646.8722857387165
 30
0.0
  0
ARC
  5
B9
330
1F
100
AcDbEntity
  8
0
  6
Continuous
 62
     7
370
    25
100
AcDbCircle
 10
588.8826530898
 20
646.7803511284
 30
0.0
 40
0.3891803587971115
100
AcDbArc
 50
127.7094634934
 51
166.3360839425
  0
SPLINE
  5
BA
330
1F
100
AcDbEntity
  8
0
  6
Continuous
 62
     7
370
    25
100
AcDbSpline
210
0.0
220
0.0
230
1.0
 70
    24
 71
     3
 72
    12
 73
     8
 74
     0
 42
0.00000001
 43
0.00000001
 40
0.0
 40
0.0
 40
0.0
 40
0.0
 40
0.3013828945620993
 40
0.4108442493795574
 40
0.6247185195336497
 40
0.6986171054378605
 40
1.0
 40
1.0
 40
1.0
 40
1.0
 10
615.9156165017557
 20
653.313396833807
 30
0.0
 10
615.7195921259548
 20
652.6631669014274
 30
0.0
 10
615.45237229036
 20
651.7767754262882
 30
0.0
 10
615.0440933614719
 20
650.4224786494807
 30
0.0
 10
614.7839974533415
 20
649.5597178623848
 30
0.0
 10
614.3990953312542
 20
648.2829639903473
 30
0.0
 10
614.1550117466722
 20
647.4733174754721
 30
0.0
 10
613.9589919027273
 20
646.8231025756535
 30
0.0
  0
ARC
  5
BB
330
1F
100
AcDbEntity
  8
0
  6
Continuous
 62
     7
370
    25
100
AcDbCircle
 10
613.8495267062
 20
647.1965710782
 30
0.0
 40
0.3891803587964469
100
AcDbArc
 50
247.7094634933
 51
286.3360839426
  0
ARC
  5
BC
330
1F
100
AcDbEntity
  8
0
  6
Continuous
 62
     7
370
    25
100
AcDbCircle
 10
615.6179723396
 20
653.0626593129
 30
0.0
 40
0.3891803587980792
100
AcDbArc
 50
40.1110206644
 51
78.7376411134
  0
ARC
  5
BD
330
1F
100
AcDbEntity
  8
0
  6
Continuous
 62
     7
370
    25
100
AcDbCircle
 10
586.8739027564
 20
655.3288940971
 30
0.0
 40
0.3891803588366401
100
AcDbArc
 50
220.1110206664
 51
258.7376411114
  0
SPLINE
  5
BE
330
1F
100
AcDbEntity
  8
0
  6
Continuous
 62
     7
370
    25
100
AcDbSpline
210
0.0
220
0.0
230
1.0
 70
    24
 71
     3
 72
    12
 73
     8
 74
     0
 42
0.00000001
 43
0.00000001
 40
0.0
 40
0.0
 40
0.0
 40
0.0
 40
0.3013828945621505
 40
0.4108442493795785
 40
0.6247185195336594
 40
0.6986171054378614
 40
1.0
 40
1.0
 40
1.0
 40
1.0
 10
586.5762585941475
 20
655.0781565761549
 30
0.0
 10
586.7722829699484
 20
655.7283865085348
 30
0.0
 10
587.0395028055434
 20
656.614777983674
 30
0.0
 10
587.4477817344314
 20
657.9690747604815
 30
0.0
 10
587.7078776425618
 20
658.8318355475773
 30
0.0
 10
588.0927797646489
 20
660.1085894196146
 30
0.0
 10
588.336863349231
 20
660.9182359344899
 30
0.0
 10
588.532883193176
 20
661.5684508343085
 30
0.0
  0
ARC
  5
BF
330
1F
100
AcDbEntity
  8
0
  6
Continuous
 62
     7
370
    25
100
AcDbCircle
 10
588.6423483897
 20
661.1949823317
 30
0.0
 40
0.3891803587950606
100
AcDbArc
 50
67.7094634933
 51
106.3360839426
  0
ARC
  5
C0
330
1F
100
AcDbEntity
  8
0
  6
Continuous
 62
     7
370
    25
100
AcDbCircle
 10
595.0412285992
 20
667.2088826346
 30
0.0
 40
0.3891803588373213
100
AcDbArc
 50
160.1110206664
 51
198.7376411114
  0
SPLINE
  5
C1
330
1F
100
AcDbEntity
  8
0
  6
Continuous
 62
     7
370
    25
100
AcDbSpline
210
0.0
220
0.0
230
1.0
 70
    24
 71
     3
 72
    12
 73
     8
 74
     0
 42
0.00000001
 43
0.00000001
 40
0.0
 40
0.0
 40
0.0
 40
0.0
 40
0.3013828945621499
 40
0.4108442493795587
 40
0.6247185195336379
 40
0.6986171054378637
 40
1.0
 40
1.0
 40
1.0
 40
1.0
 10
594.6752614552743
 20
667.3412812799243
 30
0.0
 10
595.3363892829167
 20
667.4966341569095
 30
0.0
 10
596.2376367358826
 20
667.7084107284587
 30
0.0
 10
597.6146316133053
 20
668.0319791926157
 30
0.0
 10
598.4918523263844
 20
668.2381099223021
 30
0.0
 10
599.7900046749927
 20
668.5431518426229
 30
0.0
 10
600.6132209172512
 20
668.7365925151657
 30
0.0
 10
601.2743334603857
 20
668.8919418005729
 30
0.0
  0
ARC
  5
C2
330
1F
100
AcDbEntity
  8
0
  6
Continuous
 62
     7
370
    25
100
AcDbCircle
 10
601.0056328479
 20
668.6104079083
 30
0.0
 40
0.3891803587970868
100
AcDbArc
 50
7.7094634934
 51
46.3360839425
  0
SPLINE
  5
C3
330
1F
100
AcDbEntity
  8
0
  6
Continuous
 62
     7
370
    25
100
AcDbSpline
210
0.0
220
0.0
230
1.0
 70
    24
 71
     3
 72
    12
 73
     8
 74
     0
 42
0.00000001
 43
0.00000001
 40
0.0
 40
0.0
 40
0.0
 40
0.0
 40
0.3013828945621527
 40
0.4108442493795539
 40
0.6247185195336458
 40
0.6986171054378585
 40
1.0
 40
1.0
 40
1.0
 40
1.0
 10
609.3449404090784
 20
666.4589014087503
 30
0.0
 10
609.8100438609198
 20
665.9640243533557
 30
0.0
 10
610.4440714782909
 20
665.2894094497659
 30
0.0
 10
611.4127874268256
 20
664.2586811371153
 30
0.0
 10
612.0299122317742
 20
663.602051079706
 30
0.0
 10
612.9431624582953
 20
662.6303391279893
 30
0.0
 10
613.5222951159718
 20
662.0141332856568
 30
0.0
 10
613.9873878151614
 20
661.5192676712454
 30
0.0
  0
ARC
  5
C4
330
1F
100
AcDbEntity
  8
0
  6
Continuous
 62
     7
370
    25
100
AcDbCircle
 10
613.6092220062
 20
661.6112022815
 30
0.0
 40
0.3891803587957661
100
AcDbArc
 50
307.7094634934
 51
346.3360839426
  0
ARC
  5
C5
330
1F
100
AcDbEntity
  8
0
  6
Continuous
 62
     7
370
    25
100
AcDbCircle
 10
609.4132633908
 20
666.0757652426
 30
0.0
 40
0.389180358798874
100
AcDbArc
 50
100.1110206644
 51
138.7376411134
  0
LINE
  5
C6
330
1F
100
AcDbEntity
  8
0
  6
Continuous
 62
     7
370
    25
100
AcDbLine
 10
613.9589919027
 20
646.8231025757
 30
0.0
 11
613.4546578332
 21
645.1501825291
 31
0.0
  0
LINE
  5
C7
330
1F
100
AcDbEntity
  8
0
  6
Continuous
 62
     7
370
    25
100
AcDbLine
 10
613.4546578332
 20
645.1501825291
 30
0.0
 11
612.9759387195
 21
645.2945016549
 31
0.0
  0
LINE
  5
C8
330
1F
100
AcDbEntity
  8
0
  6
Continuous
 62
     7
370
    25
100
AcDbLine
 10
588.5044872807
 20
646.8722857387
 30
0.0
 11
587.3078630566
 21
648.1455118782
 31
0.0
  0
LINE
  5
C9
330
1F
100
AcDbEntity
  8
0
  6
Continuous
 62
     7
370
    25
100
AcDbLine
 10
587.6722066428
 20
648.4879352291
 30
0.0
 11
587.3078630566
 21
648.1455118782
 31
0.0
  0
LINE
  5
CA
330
1F
100
AcDbEntity
  8
0
  6
Continuous
 62
     7
370
    25
100
AcDbLine
 10
588.5328831932
 20
661.5684508343
 30
0.0
 11
589.0372172627
 21
663.2413708809
 31
0.0
  0
LINE
  5
CB
330
1F
100
AcDbEntity
  8
0
  6
Continuous
 62
     7
370
    25
100
AcDbLine
 10
589.0372172627
 20
663.2413708809
 30
0.0
 11
589.5159363765
 21
663.097051755
 31
0.0
  0
LINE
  5
CC
330
1F
100
AcDbEntity
  8
0
  6
Continuous
 62
     7
370
    25
100
AcDbLine
 10
613.9873878152
 20
661.5192676712
 30
0.0
 11
615.1840120393
 21
660.2460415318
 31
0.0
  0
LINE
  5
CD
330
1F
100
AcDbEntity
  8
0
  6
Continuous
 62
     7
370
    25
100
AcDbLine
 10
615.1840120393
 20
660.2460415318
 30
0.0
 11
614.8196684531
 21
659.9036181809
 31
0.0
  0
LINE
  5
CE
330
1F
100
AcDbEntity
  8
0
  6
Continuous
 62
     7
370
    25
100
AcDbLine
 10
601.2743334604
 20
668.8919418006
 30
0.0
 11
602.975291754
 21
669.2916357077
 31
0.0
  0
LINE
  5
CF
330
1F
100
AcDbEntity
  8
0
  6
Continuous
 62
     7
370
    25
100
AcDbLine
 10
602.975291754
 20
669.2916357077
 30
0.0
 11
603.0896672816
 21
668.8048932309
 31
0.0
  0
LINE
  5
D0
330
1F
100
AcDbEntity
  8
0
  6
Continuous
 62
     7
370
    25
100
AcDbLine
 10
609.5175719342
 20
641.4499660372
 30
0.0
 11
609.145937548
 21
641.3626387932
 31
0.0
  0
LINE
  5
D1
330
1F
100
AcDbEntity
  8
0
  6
Continuous
 62
     7
370
    25
100
AcDbLine
 10
609.5175719342
 20
641.4499660372
 30
0.0
 11
609.4031964066
 21
641.9367085139
 31
0.0
  0
LINE
  5
D2
330
1F
100
AcDbEntity
  8
0
  6
Continuous
 62
     7
370
    25
100
AcDbLine
 10
586.5506436384
 20
653.2609174037
 30
0.0
 11
586.0719245247
 21
653.4052365296
 31
0.0
  0
LINE
  5
D3
330
1F
100
AcDbEntity
  8
0
  6
Continuous
 62
     7
370
    25
100
AcDbLine
 10
586.0719245247
 20
653.4052365296
 30
0.0
 11
586.5762585941
 21
655.0781565762
 31
0.0
  0
LINE
  5
D4
330
1F
100
AcDbEntity
  8
0
  6
Continuous
 62
     7
370
    25
100
AcDbLine
 10
616.4199505712
 20
654.9863168804
 30
0.0
 11
615.9156165018
 21
653.3133968338
 31
0.0
  0
LINE
  5
D5
330
1F
100
AcDbEntity
  8
0
  6
Continuous
 62
     7
370
    25
100
AcDbLine
 10
615.9412314575
 20
655.1306360063
 30
0.0
 11
616.4199505712
 21
654.9863168804
 31
0.0
  0
LINE
  5
D6
330
1F
100
AcDbEntity
  8
0
  6
Continuous
 62
     7
370
    25
100
AcDbLine
 10
593.0886786893
 20
666.454844896
 30
0.0
 11
592.9743031617
 21
666.9415873728
 31
0.0
  0
LINE
  5
D7
330
1F
100
AcDbEntity
  8
0
  6
Continuous
 62
     7
370
    25
100
AcDbLine
 10
592.9743031617
 20
666.9415873728
 30
0.0
 11
594.6752614553
 21
667.3412812799
 31
0.0
  0
LINE
  5
D8
330
1F
100
AcDbEntity
  8
0
  6
Continuous
 62
     7
370
    25
100
AcDbLine
 10
608.148316185
 20
667.7321275482
 30
0.0
 11
609.3449404091
 21
666.4589014088
 31
0.0
  0
LINE
  5
D9
330
1F
100
AcDbEntity
  8
0
  6
Continuous
 62
     7
370
    25
100
AcDbLine
 10
607.7839725988
 20
667.3897041973
 30
0.0
 11
608.148316185
 21
667.7321275482
 31
0.0
  0
LINE
  5
DA
330
1F
100
AcDbEntity
  8
0
  6
Continuous
 62
     7
370
    25
100
AcDbLine
 10
611.3875645113
 20
641.8893798912
 30
0.0
 11
611.2731889836
 21
642.376122368
 31
0.0
  0
LINE
  5
DB
330
1F
100
AcDbEntity
  8
0
  6
Continuous
 62
     7
370
    25
100
AcDbLine
 10
611.5966487074
 20
641.9948431958
 30
0.0
 11
611.2731889836
 21
642.376122368
 31
0.0
  0
ARC
  5
DC
330
1F
100
AcDbEntity
  8
0
  6
Continuous
 62
     7
370
    25
100
AcDbCircle
 10
611.2731889836
 20
642.376122368
 30
0.0
 40
0.4999999999999092
100
AcDbArc
 50
283.2235523034
 51
310.309742062
  0
LINE
  5
DD
330
1F
100
AcDbEntity
  8
0
  6
Continuous
 62
     7
370
    25
100
AcDbLine
 10
611.3875645113
 20
641.8893798912
 30
0.0
 11
609.5175719342
 21
641.4499660372
 31
0.0
  0
LINE
  5
DE
330
1F
100
AcDbEntity
  8
0
  6
Continuous
 62
     7
370
    25
100
AcDbLine
 10
609.4031964066
 20
641.9367085139
 30
0.0
 11
611.2731889836
 21
642.376122368
 31
0.0
  0
ARC
  5
DF
330
1F
100
AcDbEntity
  8
0
  6
Continuous
 62
     7
370
    25
100
AcDbCircle
 10
601.245937548
 20
654.195776705
 30
0.0
 40
15.99999999999999
100
AcDbArc
 50
310.309742062
 51
316.1373625449
  0
ARC
  5
E0
330
1F
100
AcDbEntity
  8
0
  6
Continuous
 62
     7
370
    25
100
AcDbCircle
 10
601.245937548
 20
654.195776705
 30
0.0
 40
15.50000000000011
100
AcDbArc
 50
310.309742062
 51
316.1373625449
  0
LINE
  5
E1
330
1F
100
AcDbEntity
  8
0
  6
Continuous
 62
     7
370
    25
100
AcDbLine
 10
612.781987554
 20
643.1088677463
 30
0.0
 11
612.4214859913
 21
643.4553336513
 31
0.0
  0
LINE
  5
E2
330
1F
100
AcDbEntity
  8
0
  6
Continuous
 62
     7
370
    25
100
AcDbLine
 10
612.4214859913
 20
643.4553336513
 30
0.0
 11
612.9759387195
 21
645.2945016549
 31
0.0
  0
LINE
  5
E3
330
1F
100
AcDbEntity
  8
0
  6
Continuous
 62
     7
370
    25
100
AcDbLine
 10
613.4546578332
 20
645.1501825291
 30
0.0
 11
612.9002051051
 21
643.3110145254
 31
0.0
  0
LINE
  5
E4
330
1F
100
AcDbEntity
  8
0
  6
Continuous
 62
     7
370
    25
100
AcDbLine
 10
612.9002051051
 20
643.3110145254
 30
0.0
 11
612.4214859913
 21
643.4553336513
 31
0.0
  0
ARC
  5
E5
330
1F
100
AcDbEntity
  8
0
  6
Continuous
 62
     7
370
    25
100
AcDbCircle
 10
612.4214859913
 20
643.4553336513
 30
0.0
 40
0.5000000000000656
100
AcDbArc
 50
316.1373625449
 51
343.2235523034
  0
LINE
  5
E6
330
1F
100
AcDbEntity
  8
0
  6
Continuous
 62
     7
370
    25
100
AcDbLine
 10
586.3566667939
 20
649.8876893786
 30
0.0
 11
587.6722066428
 21
648.4879352291
 31
0.0
  0
LINE
  5
E7
330
1F
100
AcDbEntity
  8
0
  6
Continuous
 62
     7
370
    25
100
AcDbLine
 10
587.3078630566
 20
648.1455118782
 30
0.0
 11
585.9923232077
 21
649.5452660277
 31
0.0
  0
LINE
  5
E8
330
1F
100
AcDbEntity
  8
0
  6
Continuous
 62
     7
370
    25
100
AcDbLine
 10
586.3566667939
 20
649.8876893786
 30
0.0
 11
585.9923232077
 21
649.5452660277
 31
0.0
  0
ARC
  5
E9
330
1F
100
AcDbEntity
  8
0
  6
Continuous
 62
     7
370
    25
100
AcDbCircle
 10
586.3566667939
 20
649.8876893786
 30
0.0
 40
0.4999999999999656
100
AcDbArc
 50
196.1373625448
 51
223.2235523034
  0
LINE
  5
EA
330
1F
100
AcDbEntity
  8
0
  6
Continuous
 62
     7
370
    25
100
AcDbLine
 10
586.3566667939
 20
649.8876893786
 30
0.0
 11
585.8763677373
 21
649.7487188197
 31
0.0
  0
ARC
  5
EB
330
1F
100
AcDbEntity
  8
0
  6
Continuous
 62
     7
370
    25
100
AcDbCircle
 10
601.245937548
 20
654.195776705
 30
0.0
 40
15.50000000000005
100
AcDbArc
 50
190.309742062
 51
196.1373625449
  0
ARC
  5
EC
330
1F
100
AcDbEntity
  8
0
  6
Continuous
 62
     7
370
    25
100
AcDbCircle
 10
601.245937548
 20
654.195776705
 30
0.0
 40
16.00000000000001
100
AcDbArc
 50
190.309742062
 51
196.1373625449
  0
LINE
  5
ED
330
1F
100
AcDbEntity
  8
0
  6
Continuous
 62
     7
370
    25
100
AcDbLine
 10
585.9961909103
 20
651.4217494
 30
0.0
 11
585.5042635994
 21
651.3322646483
 31
0.0
  0
LINE
  5
EE
330
1F
100
AcDbEntity
  8
0
  6
Continuous
 62
     7
370
    25
100
AcDbLine
 10
586.5506436384
 20
653.2609174037
 30
0.0
 11
585.9961909103
 21
651.4217494
 31
0.0
  0
ARC
  5
EF
330
1F
100
AcDbEntity
  8
0
  6
Continuous
 62
     7
370
    25
100
AcDbCircle
 10
585.9961909103
 20
651.4217494
 30
0.0
 40
0.5000000000000048
100
AcDbArc
 50
163.2235523034
 51
190.309742062
  0
LINE
  5
F0
330
1F
100
AcDbEntity
  8
0
  6
Continuous
 62
     7
370
    25
100
AcDbLine
 10
585.9961909103
 20
651.4217494
 30
0.0
 11
585.5174717966
 21
651.5660685259
 31
0.0
  0
LINE
  5
F1
330
1F
100
AcDbEntity
  8
0
  6
Continuous
 62
     7
370
    25
100
AcDbLine
 10
585.5174717966
 20
651.5660685259
 30
0.0
 11
586.0719245247
 21
653.4052365296
 31
0.0
  0
LINE
  5
F2
330
1F
100
AcDbEntity
  8
0
  6
Continuous
 62
     7
370
    25
100
AcDbLine
 10
615.9412314575
 20
655.1306360063
 30
0.0
 11
616.4956841856
 21
656.9698040099
 31
0.0
  0
LINE
  5
F3
330
1F
100
AcDbEntity
  8
0
  6
Continuous
 62
     7
370
    25
100
AcDbLine
 10
616.4956841856
 20
656.9698040099
 30
0.0
 11
616.9744032994
 21
656.825484884
 31
0.0
  0
LINE
  5
F4
330
1F
100
AcDbEntity
  8
0
  6
Continuous
 62
     7
370
    25
100
AcDbLine
 10
616.9744032994
 20
656.825484884
 30
0.0
 11
616.4199505712
 21
654.9863168804
 31
0.0
  0
LINE
  5
F5
330
1F
100
AcDbEntity
  8
0
  6
Continuous
 62
     7
370
    25
100
AcDbLine
 10
615.1840120393
 20
660.2460415318
 30
0.0
 11
616.4995518882
 21
658.8462873822
 31
0.0
  0
LINE
  5
F6
330
1F
100
AcDbEntity
  8
0
  6
Continuous
 62
     7
370
    25
100
AcDbLine
 10
616.4995518882
 20
658.8462873822
 30
0.0
 11
616.135208302
 21
658.5038640313
 31
0.0
  0
LINE
  5
F7
330
1F
100
AcDbEntity
  8
0
  6
Continuous
 62
     7
370
    25
100
AcDbLine
 10
616.135208302
 20
658.5038640313
 30
0.0
 11
614.8196684531
 21
659.9036181809
 31
0.0
  0
ARC
  5
F8
330
1F
100
AcDbEntity
  8
0
  6
Continuous
 62
     7
370
    25
100
AcDbCircle
 10
601.245937548
 20
654.195776705
 30
0.0
 40
16.00000000000007
100
AcDbArc
 50
10.309742062
 51
16.1373625449
  0
LINE
  5
F9
330
1F
100
AcDbEntity
  8
0
  6
Continuous
 62
     7
370
    25
100
AcDbLine
 10
616.9876114965
 20
657.0592887617
 30
0.0
 11
616.4956841856
 21
656.9698040099
 31
0.0
  0
ARC
  5
FA
330
1F
100
AcDbEntity
  8
0
  6
Continuous
 62
     7
370
    25
100
AcDbCircle
 10
601.245937548
 20
654.195776705
 30
0.0
 40
15.50000000000007
100
AcDbArc
 50
10.309742062
 51
16.1373625448
  0
LINE
  5
FB
330
1F
100
AcDbEntity
  8
0
  6
Continuous
 62
     7
370
    25
100
AcDbLine
 10
616.6155073586
 20
658.6428345903
 30
0.0
 11
616.135208302
 21
658.5038640313
 31
0.0
  0
ARC
  5
FC
330
1F
100
AcDbEntity
  8
0
  6
Continuous
 62
     7
370
    25
100
AcDbCircle
 10
616.4956841856
 20
656.9698040099
 30
0.0
 40
0.5000000000000048
100
AcDbArc
 50
343.2235523034
 51
10.309742062
  0
ARC
  5
FD
330
1F
100
AcDbEntity
  8
0
  6
Continuous
 62
     7
370
    25
100
AcDbCircle
 10
616.135208302
 20
658.5038640313
 30
0.0
 40
0.5000000000000013
100
AcDbArc
 50
16.1373625449
 51
43.2235523034
  0
LINE
  5
FE
330
1F
100
AcDbEntity
  8
0
  6
Continuous
 62
     7
370
    25
100
AcDbLine
 10
593.0886786893
 20
666.454844896
 30
0.0
 11
591.2186861123
 21
666.015431042
 31
0.0
  0
LINE
  5
FF
330
1F
100
AcDbEntity
  8
0
  6
Continuous
 62
     7
370
    25
100
AcDbLine
 10
591.2186861123
 20
666.015431042
 30
0.0
 11
591.1043105846
 21
666.5021735187
 31
0.0
  0
LINE
  5
100
330
1F
100
AcDbEntity
  8
0
  6
Continuous
 62
     7
370
    25
100
AcDbLine
 10
591.1043105846
 20
666.5021735187
 30
0.0
 11
592.9743031617
 21
666.9415873728
 31
0.0
  0
LINE
  5
101
330
1F
100
AcDbEntity
  8
0
  6
Continuous
 62
     7
370
    25
100
AcDbLine
 10
589.0372172627
 20
663.2413708809
 30
0.0
 11
589.5916699908
 21
665.0805388845
 31
0.0
  0
LINE
  5
102
330
1F
100
AcDbEntity
  8
0
  6
Continuous
 62
     7
370
    25
100
AcDbLine
 10
589.5916699908
 20
665.0805388845
 30
0.0
 11
590.0703891046
 21
664.9362197587
 31
0.0
  0
LINE
  5
103
330
1F
100
AcDbEntity
  8
0
  6
Continuous
 62
     7
370
    25
100
AcDbLine
 10
590.0703891046
 20
664.9362197587
 30
0.0
 11
589.5159363765
 21
663.097051755
 31
0.0
  0
ARC
  5
104
330
1F
100
AcDbEntity
  8
0
  6
Continuous
 62
     7
370
    25
100
AcDbCircle
 10
601.245937548
 20
654.195776705
 30
0.0
 40
15.50000000000002
100
AcDbArc
 50
130.309742062
 51
136.1373625449
  0
ARC
  5
105
330
1F
100
AcDbEntity
  8
0
  6
Continuous
 62
     7
370
    25
100
AcDbCircle
 10
590.0703891046
 20
664.9362197587
 30
0.0
 40
0.5000000000000656
100
AcDbArc
 50
136.1373625448
 51
163.2235523034
  0
LINE
  5
106
330
1F
100
AcDbEntity
  8
0
  6
Continuous
 62
     7
370
    25
100
AcDbLine
 10
590.0703891046
 20
664.9362197587
 30
0.0
 11
589.7098875419
 21
665.2826856636
 31
0.0
  0
ARC
  5
107
330
1F
100
AcDbEntity
  8
0
  6
Continuous
 62
     7
370
    25
100
AcDbCircle
 10
591.2186861123
 20
666.015431042
 30
0.0
 40
0.4999999999999111
100
AcDbArc
 50
103.2235523034
 51
130.309742062
  0
LINE
  5
108
330
1F
100
AcDbEntity
  8
0
  6
Continuous
 62
     7
370
    25
100
AcDbLine
 10
591.2186861123
 20
666.015431042
 30
0.0
 11
590.8952263885
 21
666.3967102141
 31
0.0
  0
ARC
  5
109
330
1F
100
AcDbEntity
  8
0
  6
Continuous
 62
     7
370
    25
100
AcDbCircle
 10
601.245937548
 20
654.195776705
 30
0.0
 40
15.99999999999993
100
AcDbArc
 50
130.309742062
 51
136.1373625449
  0
LINE
  5
10A
330
1F
100
AcDbEntity
  8
0
  6
Continuous
 62
     7
370
    25
100
AcDbLine
 10
607.7839725988
 20
667.3897041973
 30
0.0
 11
606.4684327499
 21
668.7894583469
 31
0.0
  0
LINE
  5
10B
330
1F
100
AcDbEntity
  8
0
  6
Continuous
 62
     7
370
    25
100
AcDbLine
 10
604.9596598586
 20
669.244307085
 30
0.0
 11
603.0896672816
 21
668.8048932309
 31
0.0
  0
ARC
  5
10C
330
1F
100
AcDbEntity
  8
0
  6
Continuous
 62
     7
370
    25
100
AcDbCircle
 10
601.245937548
 20
654.195776705
 30
0.0
 40
15.50000000000005
100
AcDbArc
 50
70.309742062
 51
76.1373625449
  0
LINE
  5
10D
330
1F
100
AcDbEntity
  8
0
  6
Continuous
 62
     7
370
    25
100
AcDbLine
 10
602.975291754
 20
669.2916357077
 30
0.0
 11
604.845284331
 21
669.7310495618
 31
0.0
  0
LINE
  5
10E
330
1F
100
AcDbEntity
  8
0
  6
Continuous
 62
     7
370
    25
100
AcDbLine
 10
604.845284331
 20
669.7310495618
 30
0.0
 11
604.9596598586
 21
669.244307085
 31
0.0
  0
ARC
  5
10F
330
1F
100
AcDbEntity
  8
0
  6
Continuous
 62
     7
370
    25
100
AcDbCircle
 10
601.245937548
 20
654.195776705
 30
0.0
 40
16.00000000000008
100
AcDbArc
 50
70.309742062
 51
76.1373625448
  0
LINE
  5
110
330
1F
100
AcDbEntity
  8
0
  6
Continuous
 62
     7
370
    25
100
AcDbLine
 10
606.636900337
 20
669.2602222708
 30
0.0
 11
606.4684327499
 21
668.7894583469
 31
0.0
  0
LINE
  5
111
330
1F
100
AcDbEntity
  8
0
  6
Continuous
 62
     7
370
    25
100
AcDbLine
 10
604.9596598586
 20
669.244307085
 30
0.0
 11
605.0794573525
 21
669.7297435489
 31
0.0
  0
LINE
  5
112
330
1F
100
AcDbEntity
  8
0
  6
Continuous
 62
     7
370
    25
100
AcDbLine
 10
606.4684327499
 20
668.7894583469
 30
0.0
 11
606.832776336
 21
669.1318816978
 31
0.0
  0
LINE
  5
113
330
1F
100
AcDbEntity
  8
0
  6
Continuous
 62
     7
370
    25
100
AcDbLine
 10
606.832776336
 20
669.1318816978
 30
0.0
 11
608.148316185
 21
667.7321275482
 31
0.0
  0
ARC
  5
114
330
1F
100
AcDbEntity
  8
0
  6
Continuous
 62
     7
370
    25
100
AcDbCircle
 10
606.4684327499
 20
668.7894583469
 30
0.0
 40
0.5000000000000627
100
AcDbArc
 50
43.2235523034
 51
70.309742062
  0
ARC
  5
115
330
1F
100
AcDbEntity
  8
0
  6
Continuous
 62
     7
370
    25
100
AcDbCircle
 10
604.9596598586
 20
669.244307085
 30
0.0
 40
0.500000000000021
100
AcDbArc
 50
76.1373625448
 51
103.2235523034
  0
ARC
  5
116
330
1F
100
AcDbEntity
  8
0
  6
Continuous
 62
     7
370
    25
100
AcDbCircle
 10
601.245937548
 20
654.195776705
 30
0.0
 40
8.250000000000124
100
AcDbArc
 50
343.2508741362
 51
196.7491258638
  0
ARC
  5
117
330
1F
100
AcDbEntity
  8
0
  6
Continuous
 62
     7
370
    25
100
AcDbCircle
 10
601.245937548
 20
654.195776705
 30
0.0
 40
9.575000000000092
100
AcDbArc
 50
325.5951096848
 51
214.4048903152
  0
ARC
  5
118
330
1F
100
AcDbEntity
  8
0
  6
Continuous
 62
     7
370
    25
100
AcDbCircle
 10
601.245937548
 20
654.195776705
 30
0.0
 40
8.05000000000012
100
AcDbArc
 50
348.9219835539
 51
191.0780164461
  0
CIRCLE
  5
119
330
1F
100
AcDbEntity
  8
0
  6
Continuous
 62
     7
370
    25
100
AcDbCircle
 10
702.845937548
 20
654.195776705
 30
0.0
 40
5.32891433662769
  0
CIRCLE
  5
11A
330
1F
100
AcDbEntity
  8
0
  6
Continuous
 62
     7
370
    25
100
AcDbCircle
 10
702.845937548
 20
654.195776705
 30
0.0
 40
5.074569253689219
  0
CIRCLE
  5
11B
330
1F
100
AcDbEntity
  8
0
  6
Continuous
 62
     7
370
    25
100
AcDbCircle
 10
702.845937548
 20
654.195776705
 30
0.0
 40
4.452105871057256
  0
CIRCLE
  5
11C
330
1F
100
AcDbEntity
  8
0
  6
Continuous
 62
     7
370
    25
100
AcDbCircle
 10
702.845937548
 20
654.195776705
 30
0.0
 40
5.925127771161328
  0
CIRCLE
  5
11D
330
1F
100
AcDbEntity
  8
0
  6
Continuous
 62
     7
370
    25
100
AcDbCircle
 10
702.845937548
 20
654.195776705
 30
0.0
 40
7.149999999999977
  0
LINE
  5
11E
330
1F
100
AcDbEntity
  8
0
  6
Continuous
 62
     7
370
    25
100
AcDbLine
 10
500.8092951573
 20
651.7944022917
 30
0.0
 11
499.6393645888
 21
651.5274519878
 31
0.0
  0
LINE
  5
11F
330
1F
100
AcDbEntity
  8
0
  6
Continuous
 62
     7
370
    25
100
AcDbLine
 10
500.5312219241
 20
653.0130799673
 30
0.0
 11
500.8092951573
 21
651.7944022917
 31
0.0
  0
SPLINE
  5
120
330
1F
100
AcDbEntity
  8
0
  6
Continuous
 62
     7
370
    25
100
AcDbSpline
210
0.0
220
0.0
230
1.0
 70
     8
 71
     3
 72
    12
 73
     8
 74
     0
 42
0.00000001
 43
0.00000001
 40
0.0
 40
0.0
 40
0.0
 40
0.0
 40
0.2133534395476119
 40
0.4267919313634478
 40
0.6383539739091497
 40
0.849095035192757
 40
0.9999999999999999
 40
0.9999999999999999
 40
0.9999999999999999
 40
0.9999999999999999
 10
501.0955845895295
 20
653.9111305125871
 30
0.0
 10
501.0159852386005
 20
653.8846580501247
 30
0.0
 10
500.8567548048644
 20
653.8317025720868
 30
0.0
 10
500.6668683875974
 20
653.6576994369559
 30
0.0
 10
500.5437070008755
 20
653.4373865435008
 30
0.0
 10
500.500300744066
 20
653.2110837603177
 30
0.0
 10
500.5221181282598
 20
653.0713761289467
 30
0.0
 10
500.5312219241165
 20
653.0130799673015
 30
0.0
  0
LINE
  5
121
330
1F
100
AcDbEntity
  8
0
  6
Continuous
 62
     7
370
    25
100
AcDbLine
 10
502.3142622651
 20
654.1892037458
 30
0.0
 11
501.0955845895
 21
653.9111305126
 31
0.0
  0
LINE
  5
122
330
1F
100
AcDbEntity
  8
0
  6
Continuous
 62
     7
370
    25
100
AcDbLine
 10
502.0473119612
 20
655.3591343144
 30
0.0
 11
502.3142622651
 21
654.1892037458
 31
0.0
  0
LINE
  5
123
330
1F
100
AcDbEntity
  8
0
  6
Continuous
 62
     7
370
    25
100
AcDbLine
 10
500.8286342856
 20
655.0810610811
 30
0.0
 11
502.0473119612
 21
655.3591343144
 31
0.0
  0
SPLINE
  5
124
330
1F
100
AcDbEntity
  8
0
  6
Continuous
 62
     7
370
    25
100
AcDbSpline
210
0.0
220
0.0
230
1.0
 70
     8
 71
     3
 72
    12
 73
     8
 74
     0
 42
0.00000001
 43
0.00000001
 40
0.0
 40
0.0
 40
0.0
 40
0.0
 40
0.2133534395476159
 40
0.4267919313634425
 40
0.6383539739091564
 40
0.849095035192758
 40
1.0
 40
1.0
 40
1.0
 40
1.0
 10
499.9305837403456
 20
655.6454237465591
 30
0.0
 10
499.9570562028081
 20
655.5658243956301
 30
0.0
 10
500.010011680846
 20
655.4065939618939
 30
0.0
 10
500.1840148159769
 20
655.2167075446271
 30
0.0
 10
500.4043277094319
 20
655.093546157905
 30
0.0
 10
500.6306304926151
 20
655.0501399010955
 30
0.0
 10
500.7703381239861
 20
655.0719572852893
 30
0.0
 10
500.8286342856314
 20
655.081061081146
 30
0.0
  0
LINE
  5
125
330
1F
100
AcDbEntity
  8
0
  6
Continuous
 62
     7
370
    25
100
AcDbLine
 10
499.6525105071
 20
656.8641014221
 30
0.0
 11
499.9305837403
 21
655.6454237466
 31
0.0
  0
LINE
  5
126
330
1F
100
AcDbEntity
  8
0
  6
Continuous
 62
     7
370
    25
100
AcDbLine
 10
498.4825799386
 20
656.5971511182
 30
0.0
 11
499.6525105071
 21
656.8641014221
 31
0.0
  0
LINE
  5
127
330
1F
100
AcDbEntity
  8
0
  6
Continuous
 62
     7
370
    25
100
AcDbLine
 10
498.7606531718
 20
655.3784734427
 30
0.0
 11
498.4825799386
 21
656.5971511182
 31
0.0
  0
LINE
  5
128
330
1F
100
AcDbEntity
  8
0
  6
Continuous
 62
     7
370
    25
100
AcDbLine
 10
496.9776128308
 20
654.2023496641
 30
0.0
 11
498.1962905064
 21
654.4804228974
 31
0.0
  0
LINE
  5
129
330
1F
100
AcDbEntity
  8
0
  6
Continuous
 62
     7
370
    25
100
AcDbLine
 10
497.2445631347
 20
653.0324190956
 30
0.0
 11
496.9776128308
 21
654.2023496641
 31
0.0
  0
LINE
  5
12A
330
1F
100
AcDbEntity
  8
0
  6
Continuous
 62
     7
370
    25
100
AcDbLine
 10
498.4632408103
 20
653.3104923288
 30
0.0
 11
497.2445631347
 21
653.0324190956
 31
0.0
  0
SPLINE
  5
12B
330
1F
100
AcDbEntity
  8
0
  6
Continuous
 62
     7
370
    25
100
AcDbSpline
210
0.0
220
0.0
230
1.0
 70
     8
 71
     3
 72
    12
 73
     8
 74
     0
 42
0.00000001
 43
0.00000001
 40
0.0
 40
0.0
 40
0.0
 40
0.0
 40
0.2133534395476155
 40
0.4267919313634422
 40
0.6383539739091563
 40
0.8490950351927579
 40
0.9999999999999999
 40
0.9999999999999999
 40
0.9999999999999999
 40
0.9999999999999999
 10
499.3612913555576
 20
652.7461296634033
 30
0.0
 10
499.3348188930952
 20
652.8257290143322
 30
0.0
 10
499.2818634150572
 20
652.9849594480684
 30
0.0
 10
499.1078602799265
 20
653.1748458653353
 30
0.0
 10
498.8875473864713
 20
653.2980072520573
 30
0.0
 10
498.6612446032881
 20
653.3414135088668
 30
0.0
 10
498.5215369719171
 20
653.319596124673
 30
0.0
 10
498.4632408102719
 20
653.3104923288162
 30
0.0
  0
LINE
  5
12C
330
1F
100
AcDbEntity
  8
0
  6
Continuous
 62
     7
370
    25
100
AcDbLine
 10
499.6393645888
 20
651.5274519878
 30
0.0
 11
499.3612913556
 21
652.7461296634
 31
0.0
  0
CIRCLE
  5
12D
330
1F
100
AcDbEntity
  8
0
  6
Continuous
 62
     7
370
    25
100
AcDbCircle
 10
499.645937548
 20
654.195776705
 30
0.0
 40
4.197433366238919
  0
SPLINE
  5
12E
330
1F
100
AcDbEntity
  8
0
  6
Continuous
 62
     7
370
    25
100
AcDbSpline
210
0.0
220
0.0
230
1.0
 70
     8
 71
     3
 72
    12
 73
     8
 74
     0
 42
0.00000001
 43
0.00000001
 40
0.0
 40
0.0
 40
0.0
 40
0.0
 40
0.213353439547612
 40
0.426791931363448
 40
0.63835397390915
 40
0.8490950351927569
 40
1.0
 40
1.0
 40
1.0
 40
1.0
 10
498.1962905063737
 20
654.4804228973752
 30
0.0
 10
498.2758898573027
 20
654.5068953598376
 30
0.0
 10
498.4351202910389
 20
654.5598508378756
 30
0.0
 10
498.6250067083058
 20
654.7338539730063
 30
0.0
 10
498.7481680950278
 20
654.9541668664615
 30
0.0
 10
498.7915743518373
 20
655.1804696496447
 30
0.0
 10
498.7697569676435
 20
655.3201772810156
 30
0.0
 10
498.7606531717867
 20
655.3784734426608
 30
0.0
  0
LINE
  5
12F
330
1F
100
AcDbEntity
  8
0
  6
Continuous
 62
     7
370
    25
100
AcDbLine
 10
702.8393645888
 20
656.8641014221
 30
0.0
 11
704.0092951573
 21
656.5971511182
 31
0.0
  0
LINE
  5
130
330
1F
100
AcDbEntity
  8
0
  6
Continuous
 62
     7
370
    25
100
AcDbLine
 10
702.5612913556
 20
655.6454237466
 30
0.0
 11
702.8393645888
 21
656.8641014221
 31
0.0
  0
SPLINE
  5
131
330
1F
100
AcDbEntity
  8
0
  6
Continuous
 62
     7
370
    25
100
AcDbSpline
210
0.0
220
0.0
230
1.0
 70
     8
 71
     3
 72
    12
 73
     8
 74
     0
 42
0.00000001
 43
0.00000001
 40
0.0
 40
0.0
 40
0.0
 40
0.0
 40
0.2133534395476135
 40
0.4267919313634461
 40
0.638353973909149
 40
0.8490950351927548
 40
0.9999999999999999
 40
0.9999999999999999
 40
0.9999999999999999
 40
0.9999999999999999
 10
701.6632408102719
 20
655.081061081146
 30
0.0
 10
701.7464446844259
 20
655.0703857234049
 30
0.0
 10
701.912885601537
 20
655.0490307522452
 30
0.0
 10
702.159454967204
 20
655.123445068156
 30
0.0
 10
702.3659911697504
 20
655.268528820656
 30
0.0
 10
702.503264283338
 20
655.4536048728419
 30
0.0
 10
702.5442070586844
 20
655.5889485452587
 30
0.0
 10
702.5612913555576
 20
655.6454237465591
 30
0.0
  0
LINE
  5
132
330
1F
100
AcDbEntity
  8
0
  6
Continuous
 62
     7
370
    25
100
AcDbLine
 10
700.4445631347
 20
655.3591343144
 30
0.0
 11
701.6632408103
 21
655.0810610811
 31
0.0
  0
LINE
  5
133
330
1F
100
AcDbEntity
  8
0
  6
Continuous
 62
     7
370
    25
100
AcDbLine
 10
700.1776128308
 20
654.1892037458
 30
0.0
 11
700.4445631347
 21
655.3591343144
 31
0.0
  0
LINE
  5
134
330
1F
100
AcDbEntity
  8
0
  6
Continuous
 62
     7
370
    25
100
AcDbLine
 10
701.3962905064
 20
653.9111305126
 30
0.0
 11
700.1776128308
 21
654.1892037458
 31
0.0
  0
SPLINE
  5
135
330
1F
100
AcDbEntity
  8
0
  6
Continuous
 62
     7
370
    25
100
AcDbSpline
210
0.0
220
0.0
230
1.0
 70
     8
 71
     3
 72
    12
 73
     8
 74
     0
 42
0.00000001
 43
0.00000001
 40
0.0
 40
0.0
 40
0.0
 40
0.0
 40
0.2133534395476132
 40
0.4267919313634478
 40
0.638353973909154
 40
0.8490950351927532
 40
1.0
 40
1.0
 40
1.0
 40
1.0
 10
701.9606531717868
 20
653.0130799673015
 30
0.0
 10
701.9713285295279
 20
653.0962838414555
 30
0.0
 10
701.9926835006877
 20
653.2627247585666
 30
0.0
 10
701.9182691847768
 20
653.5092941242335
 30
0.0
 10
701.7731854322767
 20
653.7158303267801
 30
0.0
 10
701.5881093800909
 20
653.8531034403675
 30
0.0
 10
701.4527657076741
 20
653.8940462157138
 30
0.0
 10
701.3962905063737
 20
653.9111305125871
 30
0.0
  0
LINE
  5
136
330
1F
100
AcDbEntity
  8
0
  6
Continuous
 62
     7
370
    25
100
AcDbLine
 10
701.6825799386
 20
651.7944022917
 30
0.0
 11
701.9606531718
 21
653.0130799673
 31
0.0
  0
LINE
  5
137
330
1F
100
AcDbEntity
  8
0
  6
Continuous
 62
     7
370
    25
100
AcDbLine
 10
702.8525105071
 20
651.5274519878
 30
0.0
 11
701.6825799386
 21
651.7944022917
 31
0.0
  0
LINE
  5
138
330
1F
100
AcDbEntity
  8
0
  6
Continuous
 62
     7
370
    25
100
AcDbLine
 10
703.1305837403
 20
652.7461296634
 30
0.0
 11
702.8525105071
 21
651.5274519878
 31
0.0
  0
SPLINE
  5
139
330
1F
100
AcDbEntity
  8
0
  6
Continuous
 62
     7
370
    25
100
AcDbSpline
210
0.0
220
0.0
230
1.0
 70
     8
 71
     3
 72
    12
 73
     8
 74
     0
 42
0.00000001
 43
0.00000001
 40
0.0
 40
0.0
 40
0.0
 40
0.0
 40
0.2133534395476136
 40
0.4267919313634463
 40
0.6383539739091494
 40
0.8490950351927551
 40
1.0
 40
1.0
 40
1.0
 40
1.0
 10
704.0286342856315
 20
653.3104923288162
 30
0.0
 10
703.9454304114774
 20
653.3211676865575
 30
0.0
 10
703.7789894943662
 20
653.342522657717
 30
0.0
 10
703.5324201286994
 20
653.2681083418064
 30
0.0
 10
703.3258839261529
 20
653.1230245893063
 30
0.0
 10
703.1886108125653
 20
652.9379485371205
 30
0.0
 10
703.147668037219
 20
652.8026048647037
 30
0.0
 10
703.1305837403456
 20
652.7461296634033
 30
0.0
  0
LINE
  5
13A
330
1F
100
AcDbEntity
  8
0
  6
Continuous
 62
     7
370
    25
100
AcDbLine
 10
705.2473119612
 20
653.0324190956
 30
0.0
 11
704.0286342856
 21
653.3104923288
 31
0.0
  0
LINE
  5
13B
330
1F
100
AcDbEntity
  8
0
  6
Continuous
 62
     7
370
    25
100
AcDbLine
 10
705.5142622651
 20
654.2023496641
 30
0.0
 11
705.2473119612
 21
653.0324190956
 31
0.0
  0
LINE
  5
13C
330
1F
100
AcDbEntity
  8
0
  6
Continuous
 62
     7
370
    25
100
AcDbLine
 10
704.2955845895
 20
654.4804228974
 30
0.0
 11
705.5142622651
 21
654.2023496641
 31
0.0
  0
LINE
  5
13D
330
1F
100
AcDbEntity
  8
0
  6
Continuous
 62
     7
370
    25
100
AcDbLine
 10
704.0092951573
 20
656.5971511182
 30
0.0
 11
703.7312219241
 21
655.3784734427
 31
0.0
  0
CIRCLE
  5
13E
330
1F
100
AcDbEntity
  8
0
  6
Continuous
 62
     7
370
    25
100
AcDbCircle
 10
702.845937548
 20
654.195776705
 30
0.0
 40
4.197433366238919
  0
SPLINE
  5
13F
330
1F
100
AcDbEntity
  8
0
  6
Continuous
 62
     7
370
    25
100
AcDbSpline
210
0.0
220
0.0
230
1.0
 70
     8
 71
     3
 72
    12
 73
     8
 74
     0
 42
0.00000001
 43
0.00000001
 40
0.0
 40
0.0
 40
0.0
 40
0.0
 40
0.2133534395476131
 40
0.4267919313634476
 40
0.6383539739091537
 40
0.8490950351927532
 40
1.0
 40
1.0
 40
1.0
 40
1.0
 10
703.7312219241165
 20
655.3784734426608
 30
0.0
 10
703.7205465663754
 20
655.2952695685068
 30
0.0
 10
703.6991915952158
 20
655.1288286513958
 30
0.0
 10
703.7736059111264
 20
654.8822592857289
 30
0.0
 10
703.9186896636264
 20
654.6757230831823
 30
0.0
 10
704.1037657158123
 20
654.5384499695949
 30
0.0
 10
704.2391093882292
 20
654.4975071942484
 30
0.0
 10
704.2955845895295
 20
654.4804228973752
 30
0.0
  0
SPLINE
  5
140
330
1F
100
AcDbEntity
  8
0
  6
Continuous
 62
     7
370
    25
100
AcDbSpline
210
0.0
220
0.0
230
1.0
 70
     8
 71
     3
 72
    11
 73
     7
 74
     0
 42
0.00000001
 43
0.00000001
 40
0.0
 40
0.0
 40
0.0
 40
0.0
 40
0.2200386424382255
 40
0.6637869905998169
 40
0.8890365590789576
 40
1.0
 40
1.0
 40
1.0
 40
1.0
 10
709.5235276925436
 20
660.2160950119321
 30
0.0
 10
709.727749155545
 20
659.9510764006733
 30
0.0
 10
710.3438207184286
 20
659.1515990703685
 30
0.0
 10
710.8673700694458
 20
657.8884297998408
 30
0.0
 10
711.1189992692068
 20
656.7218599865165
 30
0.0
 10
711.0982920744846
 20
656.2105801878573
 30
0.0
 10
711.0914578904586
 20
656.0418378603849
 30
0.0
  0
SPLINE
  5
141
330
1F
100
AcDbEntity
  8
0
  6
Continuous
 62
     7
370
    25
100
AcDbSpline
210
0.0
220
0.0
230
1.0
 70
     8
 71
     3
 72
     9
 73
     5
 74
     0
 42
0.00000001
 43
0.00000001
 40
0.0
 40
0.0
 40
0.0
 40
0.0
 40
0.9209630919903056
 40
1.0
 40
1.0
 40
1.0
 40
1.0
 10
711.1635700557908
 20
659.8957717362986
 30
0.0
 10
710.6491485179181
 20
659.9525987952172
 30
0.0
 10
710.0905794044032
 20
660.0143027434132
 30
0.0
 10
709.5650628927339
 20
660.2013142043012
 30
0.0
 10
709.5235276925436
 20
660.2160950119321
 30
0.0
  0
SPLINE
  5
142
330
1F
100
AcDbEntity
  8
0
  6
Continuous
 62
     7
370
    25
100
AcDbSpline
210
0.0
220
0.0
230
1.0
 70
     8
 71
     3
 72
    10
 73
     6
 74
     0
 42
0.00000001
 43
0.00000001
 40
0.0
 40
0.0
 40
0.0
 40
0.0
 40
0.2596150688488836
 40
0.629760644481066
 40
0.9999999999999999
 40
0.9999999999999999
 40
0.9999999999999999
 40
0.9999999999999999
 10
758.338731009728
 20
657.3042141673095
 30
0.0
 10
754.260910791005
 20
657.6039683044079
 30
0.0
 10
744.3691479576397
 20
658.3310961995721
 30
0.0
 10
728.6395752749665
 20
659.1569430694623
 30
0.0
 10
716.9893970137019
 20
659.6494747187279
 30
0.0
 10
711.1635700557908
 20
659.8957717362986
 30
0.0
  0
SPLINE
  5
143
330
1F
100
AcDbEntity
  8
0
  6
Continuous
 62
     7
370
    25
100
AcDbSpline
210
0.0
220
0.0
230
1.0
 70
     8
 71
     3
 72
    11
 73
     7
 74
     0
 42
0.00000001
 43
0.00000001
 40
0.0
 40
0.0
 40
0.0
 40
0.0
 40
0.061464119541392
 40
0.4999988937835377
 40
0.9375097801832794
 40
1.0
 40
1.0
 40
1.0
 40
1.0
 10
758.3387310097278
 20
651.5781818203076
 30
0.0
 10
758.3504002059302
 20
651.6946387927596
 30
0.0
 10
758.4453268921997
 20
652.641994060091
 30
0.0
 10
758.529029719466
 20
654.4392382585391
 30
0.0
 10
758.4454597959456
 20
656.23843628278
 30
0.0
 10
758.3505880909004
 20
657.1858111072131
 30
0.0
 10
758.338731009728
 20
657.3042141673095
 30
0.0
  0
SPLINE
  5
144
330
1F
100
AcDbEntity
  8
0
  6
Continuous
 62
     7
370
    25
100
AcDbSpline
210
0.0
220
0.0
230
1.0
 70
     8
 71
     3
 72
    10
 73
     6
 74
     0
 42
0.00000001
 43
0.00000001
 40
0.0
 40
0.0
 40
0.0
 40
0.0
 40
0.2594618540778875
 40
0.6296073956705976
 40
1.0
 40
1.0
 40
1.0
 40
1.0
 10
711.1635700557908
 20
648.9866242513204
 30
0.0
 10
715.2464382938864
 20
649.154008560846
 30
0.0
 10
725.1538832529509
 20
649.5601815590737
 30
0.0
 10
740.8851798144202
 20
650.3469649168043
 30
0.0
 10
752.5195867646318
 20
651.1676849146456
 30
0.0
 10
758.3387310097278
 20
651.5781818203076
 30
0.0
  0
SPLINE
  5
145
330
1F
100
AcDbEntity
  8
0
  6
Continuous
 62
     7
370
    25
100
AcDbSpline
210
0.0
220
0.0
230
1.0
 70
     8
 71
     3
 72
     9
 73
     5
 74
     0
 42
0.00000001
 43
0.00000001
 40
0.0
 40
0.0
 40
0.0
 40
0.0
 40
0.0790369080192139
 40
1.0
 40
1.0
 40
1.0
 40
1.0
 10
709.5235276925443
 20
648.6663009756871
 30
0.0
 10
709.5650628927397
 20
648.6810817833199
 30
0.0
 10
710.0905794044089
 20
648.8680932442077
 30
0.0
 10
710.6491485179234
 20
648.929797192403
 30
0.0
 10
711.1635700557908
 20
648.9866242513204
 30
0.0
  0
SPLINE
  5
146
330
1F
100
AcDbEntity
  8
0
  6
Continuous
 62
     7
370
    25
100
AcDbSpline
210
0.0
220
0.0
230
1.0
 70
     8
 71
     3
 72
    11
 73
     7
 74
     0
 42
0.00000001
 43
0.00000001
 40
0.0
 40
0.0
 40
0.0
 40
0.0
 40
0.0728838064943292
 40
0.4140719411596028
 40
0.9209668754550567
 40
1.0
 40
1.0
 40
1.0
 40
1.0
 10
711.0914578904548
 20
652.840558127249
 30
0.0
 10
711.0991730395924
 20
652.73011169301
 30
0.0
 10
711.143004816957
 20
652.1026366526789
 30
0.0
 10
710.798513105519
 20
650.7196446222139
 30
0.0
 10
710.1588237560328
 20
649.4497131044363
 30
0.0
 10
709.5990350065998
 20
648.7594124382634
 30
0.0
 10
709.5235276925443
 20
648.6663009756871
 30
0.0
  0
SPLINE
  5
147
330
1F
100
AcDbEntity
  8
0
  6
Continuous
 62
     7
370
    25
100
AcDbSpline
210
0.0
220
0.0
230
1.0
 70
     8
 71
     3
 72
    10
 73
     6
 74
     0
 42
0.00000001
 43
0.00000001
 40
0.0
 40
0.0
 40
0.0
 40
0.0
 40
0.3880207377811385
 40
0.9790637766506849
 40
1.0
 40
1.0
 40
1.0
 40
1.0
 10
711.0914578904586
 20
656.0418378603849
 30
0.0
 10
711.0181433596991
 20
655.6309979985292
 30
0.0
 10
710.8331542743757
 20
654.594356428681
 30
0.0
 10
710.9288612002069
 20
653.5005871071096
 30
0.0
 10
711.0860793514547
 20
652.8623912383902
 30
0.0
 10
711.0914578904548
 20
652.840558127249
 30
0.0
  0
ARC
  5
148
330
1F
100
AcDbEntity
  8
0
  6
Continuous
 62
     7
370
    25
100
AcDbCircle
 10
702.845937548
 20
654.4411979938
 30
0.0
 40
8.399443654264694
100
AcDbArc
 50
10.985757993
 51
349.0142420071
  0
SPLINE
  5
149
330
1F
100
AcDbEntity
  8
0
  6
Continuous
 62
     7
370
    25
100
AcDbSpline
210
0.0
220
0.0
230
1.0
 70
     8
 71
     3
 72
     9
 73
     5
 74
     0
 42
0.00000001
 43
0.00000001
 40
0.0
 40
0.0
 40
0.0
 40
0.0
 40
0.681792342127431
 40
1.0
 40
1.0
 40
1.0
 40
1.0
 10
709.5235276925443
 20
648.6663009756871
 30
0.0
 10
709.3812641319013
 20
648.4763906205819
 30
0.0
 10
709.1726030017409
 20
648.1978448767084
 30
0.0
 10
708.9431771678605
 20
647.9649405037654
 30
0.0
 10
708.870172110606
 20
647.8908285487429
 30
0.0
  0
ARC
  5
14A
330
1F
100
AcDbEntity
  8
0
  6
Continuous
 62
     7
370
    25
100
AcDbCircle
 10
702.845937548
 20
654.4411979938
 30
0.0
 40
8.899367501836373
100
AcDbArc
 50
47.3959191961
 51
312.6040808039
  0
LINE
  5
14B
330
1F
100
AcDbEntity
  8
0
  6
Continuous
 62
     7
370
    25
100
AcDbLine
 10
708.8701721106
 20
660.9915674389
 30
0.0
 11
709.5235276925
 21
660.2160950119
 31
0.0
  0
SPLINE
  5
14C
330
1F
100
AcDbEntity
  8
0
  6
Continuous
 62
     7
370
    25
100
AcDbSpline
210
0.0
220
0.0
230
1.0
 70
     8
 71
     3
 72
    10
 73
     6
 74
     0
 42
0.00000001
 43
0.00000001
 40
0.0
 40
0.0
 40
0.0
 40
0.0
 40
0.3702896688583046
 40
0.7405318123903298
 40
0.9999999999999999
 40
0.9999999999999999
 40
0.9999999999999999
 40
0.9999999999999999
 10
758.3502504729063
 20
651.1353222394744
 30
0.0
 10
752.530186626688
 20
650.815131224948
 30
0.0
 10
740.8908059181842
 20
650.1747902912425
 30
0.0
 10
725.1719375114096
 20
649.3055559593793
 30
0.0
 10
715.2747636953998
 20
648.7568149577701
 30
0.0
 10
711.1966953749355
 20
648.5307096739382
 30
0.0
  0
ARC
  5
14D
330
1F
100
AcDbEntity
  8
0
  6
Continuous
 62
     7
370
    25
100
AcDbCircle
 10
718.4117845824
 20
649.2840960406
 30
0.0
 40
7.254316183474565
100
AcDbArc
 50
182.3501399449
 51
185.9611177313
  0
ARC
  5
14E
330
1F
100
AcDbEntity
  8
0
  6
Continuous
 62
     7
370
    25
100
AcDbCircle
 10
754.0897279318
 20
651.2460790635
 30
0.0
 40
4.261961918838152
100
AcDbArc
 50
358.5108705386
 51
4.4691613065
  0
SPLINE
  5
14F
330
1F
100
AcDbEntity
  8
0
  6
Continuous
 62
     7
370
    25
100
AcDbSpline
210
0.0
220
0.0
230
1.0
 70
     8
 71
     3
 72
    10
 73
     6
 74
     0
 42
0.00000001
 43
0.00000001
 40
0.0
 40
0.0
 40
0.0
 40
0.0
 40
0.3702717503651152
 40
0.7405122151371749
 40
1.0
 40
1.0
 40
1.0
 40
1.0
 10
711.1966953749355
 20
660.3516863136807
 30
0.0
 10
717.0163674366048
 20
660.0291578280129
 30
0.0
 10
728.6552198349017
 20
659.3841281082697
 30
0.0
 10
744.3743594188563
 20
658.5153136207907
 30
0.0
 10
754.271856842555
 20
657.9712587100239
 30
0.0
 10
758.350250472903
 20
657.7470737481448
 30
0.0
  0
ARC
  5
150
330
1F
100
AcDbEntity
  8
0
  6
Continuous
 62
     7
370
    25
100
AcDbCircle
 10
754.0897279288
 20
657.6363169242
 30
0.0
 40
4.261961921790906
100
AcDbArc
 50
355.530838696
 51
1.4891294598
  0
ARC
  5
151
330
1F
100
AcDbEntity
  8
0
  6
Continuous
 62
     7
370
    25
100
AcDbCircle
 10
718.4117845825
 20
659.598299947
 30
0.0
 40
7.254316183577779
100
AcDbArc
 50
174.0388822687
 51
177.6498600551
  0
SPLINE
  5
152
330
1F
100
AcDbEntity
  8
0
  6
Continuous
 62
     7
370
    25
100
AcDbSpline
210
0.0
220
0.0
230
1.0
 70
     8
 71
     3
 72
    12
 73
     8
 74
     0
 42
0.00000001
 43
0.00000001
 40
0.0
 40
0.0
 40
0.0
 40
0.0
 40
0.1224290494151348
 40
0.3423522449770467
 40
0.5614228816909441
 40
0.7807229538533574
 40
1.0
 40
1.0
 40
1.0
 40
1.0
 10
760.2744584425756
 20
657.1935397976532
 30
0.0
 10
760.2654543667115
 20
657.1958984820942
 30
0.0
 10
760.2402759829805
 20
657.202494146419
 30
0.0
 10
760.0242882993358
 20
657.2195021141582
 30
0.0
 10
759.5883901696068
 20
657.2450130883126
 30
0.0
 10
759.0044645561765
 20
657.2745652708719
 30
0.0
 10
758.5606344246085
 20
657.294331547751
 30
0.0
 10
758.338731009728
 20
657.3042141673095
 30
0.0
  0
SPLINE
  5
153
330
1F
100
AcDbEntity
  8
0
  6
Continuous
 62
     7
370
    25
100
AcDbSpline
210
0.0
220
0.0
230
1.0
 70
     8
 71
     3
 72
    11
 73
     7
 74
     0
 42
0.00000001
 43
0.00000001
 40
0.0
 40
0.0
 40
0.0
 40
0.0
 40
0.0800485240044433
 40
0.5000005853538798
 40
0.9209248322279645
 40
1.0
 40
1.0
 40
1.0
 40
1.0
 10
760.2744584425756
 20
657.1935397976532
 30
0.0
 10
760.2741721981614
 20
657.0472953725526
 30
0.0
 10
760.2723842529568
 20
656.1338207137195
 30
0.0
 10
760.2711485561268
 20
654.4394111259611
 30
0.0
 10
760.2723862542218
 20
652.7467842741064
 30
0.0
 10
760.2741754761897
 20
651.8333208984625
 30
0.0
 10
760.2744584425756
 20
651.6888561899711
 30
0.0
  0
SPLINE
  5
154
330
1F
100
AcDbEntity
  8
0
  6
Continuous
 62
     7
370
    25
100
AcDbSpline
210
0.0
220
0.0
230
1.0
 70
     8
 71
     3
 72
    12
 73
     8
 74
     0
 42
0.00000001
 43
0.00000001
 40
0.0
 40
0.0
 40
0.0
 40
0.0
 40
0.1130367476169362
 40
0.3328594693548023
 40
0.5544127937945006
 40
0.7774207483513244
 40
1.0
 40
1.0
 40
1.0
 40
1.0
 10
758.3387310097278
 20
651.5781818203076
 30
0.0
 10
758.4528018497148
 20
651.583197066009
 30
0.0
 10
758.7887064123227
 20
651.5979654670648
 30
0.0
 10
759.3227742687175
 20
651.6235576711741
 30
0.0
 10
759.8392999066045
 20
651.6514329340451
 30
0.0
 10
760.1961946237591
 20
651.6748748076357
 30
0.0
 10
760.2483872412776
 20
651.6841987193953
 30
0.0
 10
760.2744584425756
 20
651.6888561899711
 30
0.0
  0
SPLINE
  5
155
330
1F
100
AcDbEntity
  8
0
  6
Continuous
 62
     7
370
    25
100
AcDbSpline
210
0.0
220
0.0
230
1.0
 70
     8
 71
     3
 72
     9
 73
     5
 74
     0
 42
0.00000001
 43
0.00000001
 40
0.0
 40
0.0
 40
0.0
 40
0.0
 40
0.500010612381544
 40
1.0
 40
1.0
 40
1.0
 40
1.0
 10
708.3705642617631
 20
661.4233991281225
 30
0.0
 10
708.8002856285839
 20
661.1355585900292
 30
0.0
 10
709.6597101211445
 20
660.5598897322777
 30
0.0
 10
710.6843742064227
 20
660.421086471191
 30
0.0
 10
711.1966953749355
 20
660.3516863136807
 30
0.0
  0
SPLINE
  5
156
330
1F
100
AcDbEntity
  8
0
  6
Continuous
 62
     7
370
    25
100
AcDbSpline
210
0.0
220
0.0
230
1.0
 70
     8
 71
     3
 72
     9
 73
     5
 74
     0
 42
0.00000001
 43
0.00000001
 40
0.0
 40
0.0
 40
0.0
 40
0.0
 40
0.9838702326459385
 40
1.0
 40
1.0
 40
1.0
 40
1.0
 10
708.8701721106058
 20
660.9915674388761
 30
0.0
 10
708.7088312956713
 20
661.1363998518951
 30
0.0
 10
708.5448454268228
 20
661.2836066767519
 30
0.0
 10
708.3733307535409
 20
661.4211801007984
 30
0.0
 10
708.3705642617631
 20
661.4233991281225
 30
0.0
  0
SPLINE
  5
157
330
1F
100
AcDbEntity
  8
0
  6
Continuous
 62
     7
370
    25
100
AcDbSpline
210
0.0
220
0.0
230
1.0
 70
     8
 71
     3
 72
     9
 73
     5
 74
     0
 42
0.00000001
 43
0.00000001
 40
0.0
 40
0.0
 40
0.0
 40
0.0
 40
0.5055561057107305
 40
1.0
 40
1.0
 40
1.0
 40
1.0
 10
711.1966953749355
 20
648.5307096739382
 30
0.0
 10
710.6786358576026
 20
648.4600536396683
 30
0.0
 10
709.6539038615273
 20
648.3202946030908
 30
0.0
 10
708.7951632927657
 20
647.7439613282952
 30
0.0
 10
708.3705642617631
 20
647.4589968594966
 30
0.0
  0
SPLINE
  5
158
330
1F
100
AcDbEntity
  8
0
  6
Continuous
 62
     7
370
    25
100
AcDbSpline
210
0.0
220
0.0
230
1.0
 70
     8
 71
     3
 72
     9
 73
     5
 74
     0
 42
0.00000001
 43
0.00000001
 40
0.0
 40
0.0
 40
0.0
 40
0.0
 40
0.0161297673533178
 40
0.9999999999999999
 40
0.9999999999999999
 40
0.9999999999999999
 40
0.9999999999999999
 10
708.3705642617631
 20
647.4589968594966
 30
0.0
 10
708.3733307535408
 20
647.4612158868205
 30
0.0
 10
708.5448454268268
 20
647.5987893108701
 30
0.0
 10
708.7088312956733
 20
647.7459961357254
 30
0.0
 10
708.870172110606
 20
647.8908285487429
 30
0.0
  0
SPLINE
  5
159
330
1F
100
AcDbEntity
  8
0
  6
Continuous
 62
     7
370
    25
100
AcDbSpline
210
0.0
220
0.0
230
1.0
 70
     8
 71
     3
 72
    12
 73
     8
 74
     0
 42
0.00000001
 43
0.00000001
 40
0.0
 40
0.0
 40
0.0
 40
0.0
 40
0.2230315344150434
 40
0.4461337558340359
 40
0.6675099896777019
 40
0.8870667292265005
 40
1.0
 40
1.0
 40
1.0
 40
1.0
 10
759.8021041774912
 20
651.1896931189228
 30
0.0
 10
759.7825703913652
 20
651.1915833662176
 30
0.0
 10
759.7434966281287
 20
651.195364459897
 30
0.0
 10
759.4759074460725
 20
651.1884216236264
 30
0.0
 10
759.0883783622476
 20
651.1728328011365
 30
0.0
 10
758.6876562497843
 20
651.1534955210723
 30
0.0
 10
758.4357968275265
 20
651.1399299198957
 30
0.0
 10
758.3502504729063
 20
651.1353222394744
 30
0.0
  0
ARC
  5
15A
330
1F
100
AcDbEntity
  8
0
  6
Continuous
 62
     7
370
    25
100
AcDbCircle
 10
759.774358555
 20
651.6890227753
 30
0.0
 40
0.5000999153467998
100
AcDbArc
 50
273.1804119247
 51
359.9809145383
  0
SPLINE
  5
15B
330
1F
100
AcDbEntity
  8
0
  6
Continuous
 62
     7
370
    25
100
AcDbSpline
210
0.0
220
0.0
230
1.0
 70
     8
 71
     3
 72
    12
 73
     8
 74
     0
 42
0.00000001
 43
0.00000001
 40
0.0
 40
0.0
 40
0.0
 40
0.0
 40
0.2190444340109334
 40
0.4380981679380241
 40
0.6571027493691853
 40
0.8772791087290019
 40
1.0
 40
1.0
 40
1.0
 40
1.0
 10
758.350250472903
 20
657.7470737481448
 30
0.0
 10
758.5166682136738
 20
657.7382449351951
 30
0.0
 10
758.8495107607729
 20
657.7205869344527
 30
0.0
 10
759.287669203416
 20
657.7010684450437
 30
0.0
 10
759.6146350301757
 20
657.6897626614115
 30
0.0
 10
759.7764789071897
 20
657.6879387933348
 30
0.0
 10
759.7953502396019
 20
657.6914472226596
 30
0.0
 10
759.8021041774911
 20
657.6927028686962
 30
0.0
  0
ARC
  5
15C
330
1F
100
AcDbEntity
  8
0
  6
Continuous
 62
     7
370
    25
100
AcDbCircle
 10
759.774358555
 20
657.1933732123
 30
0.0
 40
0.500099915347029
100
AcDbArc
 50
0.0190854623
 51
86.8195880753
  0
LINE
  5
15D
330
1F
100
AcDbEntity
  8
0
  6
Continuous
 62
     7
370
    25
100
AcDbLine
 10
711.1966953749
 20
648.5307096739
 30
0.0
 11
711.2236815566
 21
648.4594193986
 31
0.0
  0
LINE
  5
15E
330
1F
100
AcDbEntity
  8
0
  6
Continuous
 62
     7
370
    25
100
AcDbLine
 10
759.8067945382
 20
651.1852546659
 30
0.0
 11
759.8021041775
 21
651.1896931189
 31
0.0
  0
ELLIPSE
  5
15F
330
1F
100
AcDbEntity
  8
0
  6
Continuous
 62
     7
370
    25
100
AcDbEllipse
 10
758.3070229954
 20
651.1019622159
 30
0.0
 11
1.499999304622861
 21
0.0828726334386829
 31
0.0
210
0.0
220
0.0
230
1.0
 40
0.0174284859
 41
5.396717970283533
 42
6.299675703199959
  0
LINE
  5
160
330
1F
100
AcDbEntity
  8
0
  6
Continuous
 62
     7
370
    25
100
AcDbLine
 10
755.7914083264
 20
650.8932026278
 30
0.0
 11
759.2563715358
 21
651.1340939068
 31
0.0
  0
LINE
  5
161
330
1F
100
AcDbEntity
  8
0
  6
Continuous
 62
     7
370
    25
100
AcDbLine
 10
755.7914083264
 20
650.8933010191
 30
0.0
 11
755.7914083264
 21
650.8932026278
 31
0.0
  0
ELLIPSE
  5
162
330
1F
100
AcDbEntity
  8
0
  6
Continuous
 62
     7
370
    25
100
AcDbEllipse
 10
746.3419219055
 20
650.5636549676
 30
0.0
 11
14.49999327802038
 21
0.801102123240753
 31
0.0
210
0.0
220
0.0
230
1.0
 40
0.0174284859
 41
4.6851094924422
 42
5.421234828998442
  0
ELLIPSE
  5
163
330
1F
100
AcDbEntity
  8
0
  6
Continuous
 62
     7
370
    25
100
AcDbEllipse
 10
745.0209119899
 20
649.6133714183
 30
0.0
 11
35.70262504606012
 21
1.972514619921981
 31
0.0
210
0.0
220
0.0
230
1.0
 40
0.0174284859
 41
1.543516838852417
 42
2.025717338717928
  0
ELLIPSE
  5
164
330
1F
100
AcDbEntity
  8
0
  6
Continuous
 62
     7
370
    25
100
AcDbEllipse
 10
726.0006845179
 20
649.2409753586
 30
0.0
 11
7.499996523113964
 21
0.4143631671935282
 31
0.0
210
0.0
220
0.0
230
1.0
 40
0.0174284859
 41
4.976419334597757
 42
5.167309992308295
  0
LINE
  5
165
330
1F
100
AcDbEntity
  8
0
  6
Continuous
 62
     7
370
    25
100
AcDbLine
 10
727.9453369189
 20
649.3733198098
 30
0.0
 11
727.9649551763
 21
649.2229292652
 31
0.0
  0
SPLINE
  5
166
330
1F
100
AcDbEntity
  8
0
  6
Continuous
 62
     7
370
    25
100
AcDbSpline
210
0.0
220
0.0
230
1.0
 70
     8
 71
     3
 72
    10
 73
     6
 74
     0
 42
0.00000001
 43
0.00000001
 40
0.0
 40
0.0
 40
0.0
 40
0.0
 40
0.0186368637457253
 40
0.3939469944633057
 40
1.0
 40
1.0
 40
1.0
 40
1.0
 10
727.7615656332054
 20
649.3728334425343
 30
0.0
 10
727.7640218404541
 20
649.3729211930137
 30
0.0
 10
727.8159412769312
 20
649.3747760672067
 30
0.0
 10
727.9199401254091
 20
649.3774560485848
 30
0.0
 10
727.9356407827582
 20
649.3748989671873
 30
0.0
 10
727.9453369189018
 20
649.3733198097793
 30
0.0
  0
LINE
  5
167
330
1F
100
AcDbEntity
  8
0
  6
Continuous
 62
     7
370
    25
100
AcDbLine
 10
711.2236815566
 20
648.4594193986
 30
0.0
 11
727.7615656332
 21
649.3728334425
 31
0.0
  0
LINE
  5
168
330
1F
100
AcDbEntity
  8
0
  6
Continuous
 62
     7
370
    25
100
AcDbLine
 10
727.7636313651
 20
659.5257661939
 30
0.0
 11
711.2297229417
 21
660.4389606561
 31
0.0
  0
SPLINE
  5
169
330
1F
100
AcDbEntity
  8
0
  6
Continuous
 62
     7
370
    25
100
AcDbSpline
210
0.0
220
0.0
230
1.0
 70
     8
 71
     3
 72
    11
 73
     7
 74
     0
 42
0.00000001
 43
0.00000001
 40
0.0
 40
0.0
 40
0.0
 40
0.0
 40
0.4177469294495291
 40
0.8392770662410922
 40
0.9817832068819584
 40
1.0
 40
1.0
 40
1.0
 40
1.0
 10
727.9473368057737
 20
659.5244167486263
 30
0.0
 10
727.9426997777418
 20
659.5233335574425
 30
0.0
 10
727.9333837277405
 20
659.5211573654594
 30
0.0
 10
727.8578872619903
 20
659.5223595423508
 30
0.0
 10
727.7876270614183
 20
659.5248300696909
 30
0.0
 10
727.7660742247607
 20
659.5256708926478
 30
0.0
 10
727.7636313651307
 20
659.5257661939063
 30
0.0
  0
LINE
  5
16A
330
1F
100
AcDbEntity
  8
0
  6
Continuous
 62
     7
370
    25
100
AcDbLine
 10
727.9649551763
 20
659.6594667224
 30
0.0
 11
727.9473368058
 21
659.5244167486
 31
0.0
  0
ELLIPSE
  5
16B
330
1F
100
AcDbEntity
  8
0
  6
Continuous
 62
     7
370
    25
100
AcDbEllipse
 10
726.0006845179
 20
659.641420629
 30
0.0
 11
7.499996523114078
 21
-0.4143631671935282
 31
0.0
210
0.0
220
0.0
230
1.0
 40
0.0174284859
 41
1.115875314871824
 42
1.306765972581885
  0
ELLIPSE
  5
16C
330
1F
100
AcDbEntity
  8
0
  6
Continuous
 62
     7
370
    25
100
AcDbEllipse
 10
745.0209119899
 20
659.2690245693
 30
0.0
 11
35.70262504606012
 21
-1.972514619921981
 31
0.0
210
0.0
220
0.0
230
1.0
 40
0.0174284859
 41
4.257467968461738
 42
4.739668468327169
  0
ELLIPSE
  5
16D
330
1F
100
AcDbEntity
  8
0
  6
Continuous
 62
     7
370
    25
100
AcDbEllipse
 10
746.3419219055
 20
658.31874102
 30
0.0
 11
14.49999327802038
 21
-0.801102123240753
 31
0.0
210
0.0
220
0.0
230
1.0
 40
0.0174284859
 41
0.8619504781817269
 42
1.598075814737374
  0
LINE
  5
16E
330
1F
100
AcDbEntity
  8
0
  6
Continuous
 62
     7
370
    25
100
AcDbLine
 10
755.7914083264
 20
657.9891933598
 30
0.0
 11
755.7914083264
 21
657.9890949686
 31
0.0
  0
LINE
  5
16F
330
1F
100
AcDbEntity
  8
0
  6
Continuous
 62
     7
370
    25
100
AcDbLine
 10
759.2563715358
 20
657.7483020808
 30
0.0
 11
755.7914083264
 21
657.9891933598
 31
0.0
  0
ELLIPSE
  5
170
330
1F
100
AcDbEntity
  8
0
  6
Continuous
 62
     7
370
    25
100
AcDbEllipse
 10
758.3070229954
 20
657.7804337718
 30
0.0
 11
1.499999304622861
 21
-0.0828726334386829
 31
0.0
210
0.0
220
0.0
230
1.0
 40
0.0174284859
 41
6.266694911160005
 42
7.169652644075836
  0
LINE
  5
171
330
1F
100
AcDbEntity
  8
0
  6
Continuous
 62
     7
370
    25
100
AcDbLine
 10
759.8021041775
 20
657.6927028687
 30
0.0
 11
759.8067945382
 21
657.6971413218
 31
0.0
  0
LINE
  5
172
330
1F
100
AcDbEntity
  8
0
  6
Continuous
 62
     7
370
    25
100
AcDbLine
 10
711.2297229417
 20
660.4389606561
 30
0.0
 11
711.1966953749
 21
660.3516863137
 31
0.0
  0
SPLINE
  5
173
330
1F
100
AcDbEntity
  8
0
  6
Continuous
 62
     7
370
    25
100
AcDbSpline
210
0.0
220
0.0
230
1.0
 70
     8
 71
     3
 72
     9
 73
     5
 74
     0
 42
0.00000001
 43
0.00000001
 40
0.0
 40
0.0
 40
0.0
 40
0.0
 40
0.5001021276704695
 40
1.0
 40
1.0
 40
1.0
 40
1.0
 10
708.4037831278185
 20
647.3933054125365
 30
0.0
 10
708.8327309035259
 20
647.6798310466249
 30
0.0
 10
709.6904512609763
 20
648.2527652899228
 30
0.0
 10
710.7126743895914
 20
648.390544076377
 30
0.0
 10
711.2236815566322
 20
648.4594193985776
 30
0.0
  0
LINE
  5
174
330
1F
100
AcDbEntity
  8
0
  6
Continuous
 62
     7
370
    25
100
AcDbLine
 10
708.4037831278
 20
647.3933054125
 30
0.0
 11
708.3705642618
 21
647.4589968595
 31
0.0
  0
SPLINE
  5
175
330
1F
100
AcDbEntity
  8
0
  6
Continuous
 62
     7
370
    25
100
AcDbSpline
210
0.0
220
0.0
230
1.0
 70
     8
 71
     3
 72
     9
 73
     5
 74
     0
 42
0.00000001
 43
0.00000001
 40
0.0
 40
0.0
 40
0.0
 40
0.0
 40
0.400722737156528
 40
1.0
 40
1.0
 40
1.0
 40
1.0
 10
711.2297229416838
 20
660.4389606561209
 30
0.0
 10
710.8210368182746
 20
660.4873679181865
 30
0.0
 10
709.8011642592348
 20
660.6081678069303
 30
0.0
 10
708.9320882154088
 20
661.1682750802839
 30
0.0
 10
708.411270702662
 20
661.5039346339581
 30
0.0
  0
LINE
  5
176
330
1F
100
AcDbEntity
  8
0
  6
Continuous
 62
     7
370
    25
100
AcDbLine
 10
708.3705642618
 20
661.4233991281
 30
0.0
 11
708.4112707027
 21
661.503934634
 31
0.0
  0
ARC
  5
177
330
1F
100
AcDbEntity
  8
0
  6
Continuous
 62
     7
370
    25
100
AcDbCircle
 10
702.845937548
 20
654.4411979938
 30
0.0
 40
8.975658044222124
100
AcDbArc
 50
245.1648853947
 51
308.2586979829
  0
LWPOLYLINE
  5
178
330
1F
100
AcDbEntity
  8
0
  6
Continuous
 62
     7
370
    25
100
AcDbPolyline
 90
        3
 70
   128
 43
0.0
 10
698.9106241237
 20
646.1905382705
 10
699.0152056878
 20
646.2567906818
 10
699.0760862306
 20
646.2956066481
  0
ARC
  5
179
330
1F
100
AcDbEntity
  8
0
  6
Continuous
 62
     7
370
    25
100
AcDbCircle
 10
702.845937548
 20
654.4411979938
 30
0.0
 40
9.141120151092208
100
AcDbArc
 50
115.4997164176
 51
244.500279429
  0
LWPOLYLINE
  5
17A
330
1F
100
AcDbEntity
  8
0
  6
Continuous
 62
     7
370
    25
100
AcDbPolyline
 90
        3
 70
   128
 43
0.0
 10
699.0597933201
 20
662.5971954103
 10
699.0152056878
 20
662.6256053059
 10
698.9106241234
 20
662.6918577173
  0
ARC
  5
17B
330
1F
100
AcDbEntity
  8
0
  6
Continuous
 62
     7
370
    25
100
AcDbCircle
 10
702.845937548
 20
654.4411979938
 30
0.0
 40
8.991950954660766
100
AcDbArc
 50
51.762407147
 51
114.9014811666
  0
LINE
  5
17C
330
1F
100
AcDbEntity
  8
0
  6
Continuous
 62
     7
370
    25
100
AcDbLine
 10
760.2791488032
 20
657.1979782507
 30
0.0
 11
760.2744584426
 21
657.1935397977
 31
0.0
  0
LINE
  5
17D
330
1F
100
AcDbEntity
  8
0
  6
Continuous
 62
     7
370
    25
100
AcDbLine
 10
760.2791488032
 20
651.6844177369
 30
0.0
 11
760.2791488032
 21
657.1979782507
 31
0.0
  0
LINE
  5
17E
330
1F
100
AcDbEntity
  8
0
  6
Continuous
 62
     7
370
    25
100
AcDbLine
 10
760.2744584426
 20
651.68885619
 30
0.0
 11
760.2791488032
 21
651.6844177369
 31
0.0
  0
ARC
  5
17F
330
1F
100
AcDbEntity
  8
0
  6
Continuous
 62
     7
370
    25
100
AcDbCircle
 10
759.7790489156
 20
657.1978116654
 30
0.0
 40
0.5000999153470272
100
AcDbArc
 50
0.0190854617
 51
86.8195880753
  0
ARC
  5
180
330
1F
100
AcDbEntity
  8
0
  6
Continuous
 62
     7
370
    25
100
AcDbCircle
 10
759.7790489156
 20
651.6845843223
 30
0.0
 40
0.5000999153468282
100
AcDbArc
 50
273.1804119247
 51
359.9809145383
  0
LINE
  5
181
330
1F
100
AcDbEntity
  8
0
  6
Continuous
 62
     7
370
    25
100
AcDbLine
 10
759.2563715358
 20
651.1340939068
 30
0.0
 11
759.2634792666
 21
651.1344609435
 31
0.0
  0
LINE
  5
182
330
1F
100
AcDbEntity
  8
0
  6
Continuous
 62
     7
370
    25
100
AcDbLine
 10
759.2563715358
 20
657.7483020808
 30
0.0
 11
759.2634792666
 21
657.7479350442
 31
0.0
  0
SPLINE
  5
183
330
1F
100
AcDbEntity
  8
0
  6
Continuous
 62
     7
370
    25
100
AcDbSpline
210
0.0
220
0.0
230
1.0
 70
     8
 71
     3
 72
    12
 73
     8
 74
     0
 42
0.00000001
 43
0.00000001
 40
0.0
 40
0.0
 40
0.0
 40
0.0
 40
0.1662426524176545
 40
0.3368059756191297
 40
0.6054181071254586
 40
0.8801435087136193
 40
1.0
 40
1.0
 40
1.0
 40
1.0
 10
708.9679967952623
 20
642.7645376121386
 30
0.0
 10
708.3303152747261
 20
642.9200227876215
 30
0.0
 10
707.0383787979255
 20
643.2350342209767
 30
0.0
 10
704.8541924155761
 20
643.8979993259752
 30
0.0
 10
702.4922180720164
 20
644.7501942427807
 30
0.0
 10
700.5266805101238
 20
645.5928229213928
 30
0.0
 10
699.4129055253281
 20
646.1306810140879
 30
0.0
 10
699.0745900471707
 20
646.2940584649152
 30
0.0
  0
LINE
  5
184
330
1F
100
AcDbEntity
  8
0
  6
Continuous
 62
     7
370
    25
100
AcDbLine
 10
708.9679967953
 20
642.7645376121
 30
0.0
 11
708.9521387183
 21
642.6950640806
 31
0.0
  0
ARC
  5
185
330
1F
100
AcDbEntity
  8
0
  6
Continuous
 62
     7
370
    25
100
AcDbCircle
 10
719.6739169548
 20
689.6666988928
 30
0.0
 40
48.17977797259054
100
AcDbArc
 50
244.4718479123
 51
257.1419190681
  0
LWPOLYLINE
  5
186
330
1F
100
AcDbEntity
  8
0
  6
Continuous
 62
     7
370
    25
100
AcDbPolyline
 90
        3
 70
   128
 43
0.0
 10
699.0745900472
 20
646.2940584649
 10
699.0152021968
 20
646.2565347613
 10
698.910624124
 20
646.1905367315
  0
SPLINE
  5
187
330
1F
100
AcDbEntity
  8
0
  6
Continuous
 62
     7
370
    25
100
AcDbSpline
210
0.0
220
0.0
230
1.0
 70
     8
 71
     3
 72
    11
 73
     7
 74
     0
 42
0.00000001
 43
0.00000001
 40
0.0
 40
0.0
 40
0.0
 40
0.0
 40
0.1345990676765959
 40
0.4126978815969493
 40
0.6969472592954598
 40
1.0
 40
1.0
 40
1.0
 40
1.0
 10
699.0753076241277
 20
646.2948000309891
 30
0.0
 10
699.504613644376
 20
646.1039161458281
 30
0.0
 10
700.8209205711003
 20
645.5186418464083
 30
0.0
 10
703.1967306219835
 20
644.8961739623846
 30
0.0
 10
706.2504200068646
 20
644.5196712798843
 30
0.0
 10
708.4414499152252
 20
644.4925299515513
 30
0.0
 10
709.5720394327633
 20
644.4785248021063
 30
0.0
  0
ARC
  5
188
330
1F
100
AcDbEntity
  8
0
  6
Continuous
 62
     7
370
    25
100
AcDbCircle
 10
705.0795084398
 20
645.0983488467
 30
0.0
 40
4.535087272521562
100
AcDbArc
 50
329.0284626407
 51
352.1446266983
  0
LINE
  5
189
330
1F
100
AcDbEntity
  8
0
  6
Continuous
 62
     7
370
    25
100
AcDbLine
 10
699.0745900472
 20
646.2940584649
 30
0.0
 11
699.0753076241
 21
646.294800031
 31
0.0
  0
LINE
  5
18A
330
1F
100
AcDbEntity
  8
0
  6
Continuous
 62
     7
370
    25
100
AcDbLine
 10
708.4037831278
 20
647.3933054125
 30
0.0
 11
710.601655048
 21
644.6061885382
 31
0.0
  0
ARC
  5
18B
330
1F
100
AcDbEntity
  8
0
  6
Continuous
 62
     7
370
    25
100
AcDbCircle
 10
702.845937548
 20
654.4411979938
 30
0.0
 40
12.52511736202729
100
AcDbArc
 50
307.8583068702
 51
308.2586979829
  0
LINE
  5
18C
330
1F
100
AcDbEntity
  8
0
  6
Continuous
 62
     7
370
    25
100
AcDbLine
 10
709.5720394328
 20
644.4785248021
 30
0.0
 11
710.5327377816
 21
644.5522310559
 31
0.0
  0
LINE
  5
18D
330
1F
100
AcDbEntity
  8
0
  6
Continuous
 62
     7
370
    25
100
AcDbLine
 10
699.0760862306
 20
646.2956066481
 30
0.0
 11
699.0753076241
 21
646.294800031
 31
0.0
  0
ARC
  5
18E
330
1F
100
AcDbEntity
  8
0
  6
Continuous
 62
     7
370
    25
100
AcDbCircle
 10
720.7636092616
 20
649.1645986057
 30
0.0
 40
6.834138728221943
100
AcDbArc
 50
211.8771071303
 51
226.9488007428
  0
SPLINE
  5
18F
330
1F
100
AcDbEntity
  8
0
  6
Continuous
 62
     7
370
    25
100
AcDbSpline
210
0.0
220
0.0
230
1.0
 70
     8
 71
     3
 72
    16
 73
    12
 74
     0
 42
0.00000001
 43
0.00000001
 40
0.0
 40
0.0
 40
0.0
 40
0.0
 40
0.2861254310575669
 40
0.7591203623085425
 40
0.8520758313858449
 40
0.9266344548631255
 40
0.9604862301433736
 40
0.9835335436569232
 40
0.9930756629548352
 40
0.9972242292023619
 40
1.0
 40
1.0
 40
1.0
 40
1.0
 10
714.9601764705111
 20
645.5554962248243
 30
0.0
 10
716.188323307635
 20
646.0855635341765
 30
0.0
 10
719.4467238927191
 20
647.4918869303036
 30
0.0
 10
723.2443053473265
 20
648.509698933188
 30
0.0
 10
726.041966997231
 20
649.0716191509596
 30
0.0
 10
726.9070999361253
 20
649.2261216668525
 30
0.0
 10
727.4326861048596
 20
649.3146423326829
 30
0.0
 10
727.6663483635734
 20
649.3537517163314
 30
0.0
 10
727.7439985107344
 20
649.3680716853011
 30
0.0
 10
727.7600801657695
 20
649.371805423924
 30
0.0
 10
727.7611405536912
 20
649.3725392660073
 30
0.0
 10
727.7615656332054
 20
649.3728334425343
 30
0.0
  0
SPLINE
  5
190
330
1F
100
AcDbEntity
  8
0
  6
Continuous
 62
     7
370
    25
100
AcDbSpline
210
0.0
220
0.0
230
1.0
 70
     8
 71
     3
 72
    10
 73
     6
 74
     0
 42
0.00000001
 43
0.00000001
 40
0.0
 40
0.0
 40
0.0
 40
0.0
 40
0.5975855365574454
 40
0.9790563563181981
 40
1.0
 40
1.0
 40
1.0
 40
1.0
 10
727.8715909528931
 20
649.3637065451949
 30
0.0
 10
727.8741100922466
 20
649.3674458429214
 30
0.0
 10
727.8782373330272
 20
649.3735721344449
 30
0.0
 10
727.8038662064716
 20
649.3739486933015
 30
0.0
 10
727.7636582543673
 20
649.372888614301
 30
0.0
 10
727.7615656332054
 20
649.3728334425343
 30
0.0
  0
SPLINE
  5
191
330
1F
100
AcDbEntity
  8
0
  6
Continuous
 62
     7
370
    25
100
AcDbSpline
210
0.0
220
0.0
230
1.0
 70
     8
 71
     3
 72
    14
 73
    10
 74
     0
 42
0.00000001
 43
0.00000001
 40
0.0
 40
0.0
 40
0.0
 40
0.0
 40
0.0129036569231464
 40
0.0519665716781148
 40
0.1318891824261205
 40
0.2280032005552168
 40
0.4679440229400844
 40
0.7079115564493632
 40
1.0
 40
1.0
 40
1.0
 40
1.0
 10
727.8715909528931
 20
649.3637065451949
 30
0.0
 10
727.8381223764287
 20
649.3558615711337
 30
0.0
 10
727.703335223596
 20
649.3242677052011
 30
0.0
 10
727.2640617786036
 20
649.2218856579074
 30
0.0
 10
726.4526343603777
 20
649.0194841490903
 30
0.0
 10
724.799157178557
 20
648.5524334683241
 30
0.0
 10
722.4548671063134
 20
647.7149764089338
 30
0.0
 10
719.3097729298162
 20
646.2700361685835
 30
0.0
 10
717.2364742556236
 20
644.9146652857888
 30
0.0
 10
716.0982733728765
 20
644.1705928786391
 30
0.0
  0
LINE
  5
192
330
1F
100
AcDbEntity
  8
0
  6
Continuous
 62
     7
370
    25
100
AcDbLine
 10
713.5195081084
 20
645.0313525428
 30
0.0
 11
711.4194255923
 21
644.9153615941
 31
0.0
  0
LINE
  5
193
330
1F
100
AcDbEntity
  8
0
  6
Continuous
 62
     7
370
    25
100
AcDbLine
 10
711.2236815566
 20
648.4594193986
 30
0.0
 11
711.4194255923
 21
644.9153615941
 31
0.0
  0
LINE
  5
194
330
1F
100
AcDbEntity
  8
0
  6
Continuous
 62
     7
370
    25
100
AcDbLine
 10
713.5195081084
 20
645.0313525428
 30
0.0
 11
714.9601764705
 21
645.5554962248
 31
0.0
  0
LWPOLYLINE
  5
195
330
1F
100
AcDbEntity
  8
0
  6
Continuous
 62
     7
370
    25
100
AcDbPolyline
 90
        4
 70
   128
 43
0.0
 10
727.891117767
 20
649.2126109689
 10
727.8888731313
 20
649.2299691158
 10
727.8798980973
 20
649.299401862
 10
727.8715909529
 20
649.3637065452
  0
LINE
  5
196
330
1F
100
AcDbEntity
  8
0
  6
Continuous
 62
     7
370
    25
100
AcDbLine
 10
726.1029934832
 20
648.7830834656
 30
0.0
 11
727.891117767
 21
649.2126109689
 31
0.0
  0
ARC
  5
197
330
1F
100
AcDbEntity
  8
0
  6
Continuous
 62
     7
370
    25
100
AcDbCircle
 10
734.2885518817
 20
618.3573898718
 30
0.0
 40
31.50755777528337
100
AcDbArc
 50
105.0579972479
 51
125.1719294169
  0
LINE
  5
198
330
1F
100
AcDbEntity
  8
0
  6
Continuous
 62
     7
370
    25
100
AcDbLine
 10
716.0982733729
 20
644.1705928786
 30
0.0
 11
716.1391932591
 21
644.1125248656
 31
0.0
  0
SPLINE
  5
199
330
1F
100
AcDbEntity
  8
0
  6
Continuous
 62
     7
370
    25
100
AcDbSpline
210
0.0
220
0.0
230
1.0
 70
     8
 71
     3
 72
     9
 73
     5
 74
     0
 42
0.00000001
 43
0.00000001
 40
0.0
 40
0.0
 40
0.0
 40
0.0
 40
0.4998978730609624
 40
1.0
 40
1.0
 40
1.0
 40
1.0
 10
711.4194255923373
 20
644.9153615941336
 30
0.0
 10
711.2712306764417
 20
644.8953952561313
 30
0.0
 10
710.9747802935096
 20
644.8554544220566
 30
0.0
 10
710.726047064733
 20
644.689288479486
 30
0.0
 10
710.6016550479815
 20
644.6061885381818
 30
0.0
  0
ARC
  5
19A
330
1F
100
AcDbEntity
  8
0
  6
Continuous
 62
     7
370
    25
100
AcDbCircle
 10
727.9729262678
 20
648.8740051054
 30
0.0
 40
0.5000763403565329
100
AcDbArc
 50
93.1626296399
 51
101.691363562
  0
SPLINE
  5
19B
330
1F
100
AcDbEntity
  8
0
  6
Continuous
 62
     7
370
    25
100
AcDbSpline
210
0.0
220
0.0
230
1.0
 70
     8
 71
     3
 72
    12
 73
     8
 74
     0
 42
0.00000001
 43
0.00000001
 40
0.0
 40
0.0
 40
0.0
 40
0.0
 40
0.0460726725321159
 40
0.2494576442748312
 40
0.4755636088397377
 40
0.7057929889265024
 40
1.0
 40
1.0
 40
1.0
 40
1.0
 10
699.0585590734805
 20
662.598469753912
 30
0.0
 10
699.1868944826558
 20
662.6609744532514
 30
0.0
 10
699.8817586416131
 20
662.9994022933646
 30
0.0
 10
701.2345576111353
 20
663.614985709505
 30
0.0
 10
703.2424262552169
 20
664.4224450147595
 30
0.0
 10
705.7376980702223
 20
665.2955651322876
 30
0.0
 10
707.6766442583571
 20
665.7929147719306
 30
0.0
 10
708.7643863987936
 20
666.071926208597
 30
0.0
  0
LINE
  5
19C
330
1F
100
AcDbEntity
  8
0
  6
Continuous
 62
     7
370
    25
100
AcDbLine
 10
709.2178464767
 20
664.1243236794
 30
0.0
 11
708.7643863988
 21
666.0719262086
 31
0.0
  0
SPLINE
  5
19D
330
1F
100
AcDbEntity
  8
0
  6
Continuous
 62
     7
370
    25
100
AcDbSpline
210
0.0
220
0.0
230
1.0
 70
     8
 71
     3
 72
    13
 73
     9
 74
     0
 42
0.00000001
 43
0.00000001
 40
0.0
 40
0.0
 40
0.0
 40
0.0
 40
0.2574896950994368
 40
0.4890886589321025
 40
0.7206004760683485
 40
0.9447506334961274
 40
0.9460032291293288
 40
1.0
 40
1.0
 40
1.0
 40
1.0
 10
709.2178464766805
 20
664.124323679383
 30
0.0
 10
708.2991209006927
 20
664.1523866434977
 30
0.0
 10
706.5540481135546
 20
664.2056908251632
 30
0.0
 10
704.0594828676411
 20
664.0411267063251
 30
0.0
 10
701.7438330616403
 20
663.627752711315
 30
0.0
 10
700.2667244600362
 20
663.1281955247516
 30
0.0
 10
699.3954630154956
 20
662.7539526698217
 30
0.0
 10
699.2254166066728
 20
662.6749722513365
 30
0.0
 10
699.0592254346174
 20
662.597782451162
 30
0.0
  0
LINE
  5
19E
330
1F
100
AcDbEntity
  8
0
  6
Continuous
 62
     7
370
    25
100
AcDbLine
 10
699.0592254346
 20
662.5977824512
 30
0.0
 11
699.0585590735
 21
662.5984697539
 31
0.0
  0
ARC
  5
19F
330
1F
100
AcDbEntity
  8
0
  6
Continuous
 62
     7
370
    25
100
AcDbCircle
 10
719.6739169548
 20
619.2156970948
 30
0.0
 40
48.10950076354642
100
AcDbArc
 50
102.8580809319
 51
103.1066633214
  0
LWPOLYLINE
  5
1A0
330
1F
100
AcDbEntity
  8
0
  6
Continuous
 62
     7
370
    25
100
AcDbPolyline
 90
        3
 70
   128
 43
0.0
 10
699.0585590735
 20
662.5984697539
 10
699.0152021968
 20
662.6258612263
 10
698.9106241237
 20
662.6918592563
  0
ARC
  5
1A1
330
1F
100
AcDbEntity
  8
0
  6
Continuous
 62
     7
370
    25
100
AcDbCircle
 10
719.6739169548
 20
619.2156970948
 30
0.0
 40
48.17977797259048
100
AcDbArc
 50
102.8580809319
 51
115.5281512988
  0
LINE
  5
1A2
330
1F
100
AcDbEntity
  8
0
  6
Continuous
 62
     7
370
    25
100
AcDbLine
 10
708.9677779903
 20
666.1188169504
 30
0.0
 11
708.9521387183
 21
666.187331907
 31
0.0
  0
LINE
  5
1A3
330
1F
100
AcDbEntity
  8
0
  6
Continuous
 62
     7
370
    25
100
AcDbLine
 10
715.3231657925
 20
662.8164392719
 30
0.0
 11
716.4526412099
 21
664.4666110615
 31
0.0
  0
SPLINE
  5
1A4
330
1F
100
AcDbEntity
  8
0
  6
Continuous
 62
     7
370
    25
100
AcDbSpline
210
0.0
220
0.0
230
1.0
 70
     8
 71
     3
 72
    14
 73
    10
 74
     0
 42
0.00000001
 43
0.00000001
 40
0.0
 40
0.0
 40
0.0
 40
0.0
 40
0.2256458607195977
 40
0.4518169308148963
 40
0.815776144776343
 40
0.8946140573305373
 40
0.9637846180221654
 40
0.9940799143125669
 40
0.9999999999999999
 40
0.9999999999999999
 40
0.9999999999999999
 40
0.9999999999999999
 10
716.4526412099493
 20
664.4666110615397
 30
0.0
 10
717.2983887570205
 20
663.9215873390385
 30
0.0
 10
718.9918523984244
 20
662.8302713063115
 30
0.0
 10
722.1720744984766
 20
661.2648302215093
 30
0.0
 10
724.8433525616431
 20
660.3114513872733
 30
0.0
 10
726.7938810488941
 20
659.7900032411442
 30
0.0
 10
727.437957559336
 20
659.6346225665022
 30
0.0
 10
727.7659084555628
 20
659.5590725056577
 30
0.0
 10
727.8584457881615
 20
659.5375517315125
 30
0.0
 10
727.8735727565478
 20
659.5340337559994
 30
0.0
  0
SPLINE
  5
1A5
330
1F
100
AcDbEntity
  8
0
  6
Continuous
 62
     7
370
    25
100
AcDbSpline
210
0.0
220
0.0
230
1.0
 70
     8
 71
     3
 72
    11
 73
     7
 74
     0
 42
0.00000001
 43
0.00000001
 40
0.0
 40
0.0
 40
0.0
 40
0.0
 40
0.019556121229571
 40
0.168189199674442
 40
0.5898876540792781
 40
1.0
 40
1.0
 40
1.0
 40
1.0
 10
727.7636313651307
 20
659.5257661939063
 30
0.0
 10
727.7655900782787
 20
659.5257080801906
 30
0.0
 10
727.7824356681014
 20
659.5252082827499
 30
0.0
 10
727.8343362318608
 20
659.5243618653363
 30
0.0
 10
727.8836208639261
 20
659.5264511638585
 30
0.0
 10
727.8768908788497
 20
659.5315298050419
 30
0.0
 10
727.8735727565478
 20
659.5340337559994
 30
0.0
  0
SPLINE
  5
1A6
330
1F
100
AcDbEntity
  8
0
  6
Continuous
 62
     7
370
    25
100
AcDbSpline
210
0.0
220
0.0
230
1.0
 70
     8
 71
     3
 72
    17
 73
    13
 74
     0
 42
0.00000001
 43
0.00000001
 40
0.0
 40
0.0
 40
0.0
 40
0.0
 40
0.0068263121770685
 40
0.0088448507297254
 40
0.0223990310416126
 40
0.0309593028397538
 40
0.0563218912149143
 40
0.1198824177066684
 40
0.1957460556357056
 40
0.5558621944880031
 40
0.77803360979772
 40
1.0
 40
1.0
 40
1.0
 40
1.0
 10
727.7636313651307
 20
659.5257661939063
 30
0.0
 10
727.760011219969
 20
659.5268043769514
 30
0.0
 10
727.7553205989216
 20
659.5281495504252
 30
0.0
 10
727.7117878862183
 20
659.5357395385001
 30
0.0
 10
727.6372559637858
 20
659.5474910453066
 30
0.0
 10
727.4704237182839
 20
659.5732099405299
 30
0.0
 10
727.0888476012165
 20
659.6317245195521
 30
0.0
 10
726.4059466344822
 20
659.7409215041394
 30
0.0
 10
724.3009473175645
 20
660.1080937365633
 30
0.0
 10
721.4880127357783
 20
660.7422714205287
 30
0.0
 10
718.0892285212117
 20
661.7552117123871
 30
0.0
 10
716.2449029064479
 20
662.4628056330739
 30
0.0
 10
715.3231657924574
 20
662.8164392719009
 30
0.0
  0
LINE
  5
1A7
330
1F
100
AcDbEntity
  8
0
  6
Continuous
 62
     7
370
    25
100
AcDbLine
 10
711.2297229417
 20
660.4389606561
 30
0.0
 11
711.3730847707
 21
663.0346086256
 31
0.0
  0
LINE
  5
1A8
330
1F
100
AcDbEntity
  8
0
  6
Continuous
 62
     7
370
    25
100
AcDbLine
 10
711.3730847707
 20
663.0346086256
 30
0.0
 11
715.3231657925
 21
662.8164392719
 31
0.0
  0
LINE
  5
1A9
330
1F
100
AcDbEntity
  8
0
  6
Continuous
 62
     7
370
    25
100
AcDbLine
 10
708.4112707027
 20
661.503934634
 30
0.0
 11
710.0202276959
 21
663.5457961349
 31
0.0
  0
LINE
  5
1AA
330
1F
100
AcDbEntity
  8
0
  6
Continuous
 62
     7
370
    25
100
AcDbLine
 10
699.0592254346
 20
662.5977824512
 30
0.0
 11
699.0597933201
 21
662.5971954103
 31
0.0
  0
ARC
  5
1AB
330
1F
100
AcDbEntity
  8
0
  6
Continuous
 62
     7
370
    25
100
AcDbCircle
 10
702.845937548
 20
654.4411979938
 30
0.0
 40
11.59155496206734
100
AcDbArc
 50
51.762407147
 51
56.6533814372
  0
LWPOLYLINE
  5
1AC
330
1F
100
AcDbEntity
  8
0
  6
Continuous
 62
     7
370
    25
100
AcDbPolyline
 90
        4
 70
   128
 43
0.0
 10
727.8735727565
 20
659.534033756
 10
727.8758150029
 20
659.551392011
 10
727.8847874857
 20
659.6208248726
 10
727.891117767
 20
659.6697850187
  0
ARC
  5
1AD
330
1F
100
AcDbEntity
  8
0
  6
Continuous
 62
     7
370
    25
100
AcDbCircle
 10
734.2885518817
 20
690.5250061158
 30
0.0
 40
31.57783498432764
100
AcDbArc
 50
234.8280705831
 51
235.6099480104
  0
LINE
  5
1AE
330
1F
100
AcDbEntity
  8
0
  6
Continuous
 62
     7
370
    25
100
AcDbLine
 10
716.0987113443
 20
664.7124246192
 30
0.0
 11
716.1391932591
 21
664.769871122
 31
0.0
  0
ARC
  5
1AF
330
1F
100
AcDbEntity
  8
0
  6
Continuous
 62
     7
370
    25
100
AcDbCircle
 10
734.2885518817
 20
690.5250061158
 30
0.0
 40
31.50755777528344
100
AcDbArc
 50
234.8280705831
 51
254.9420027521
  0
LINE
  5
1B0
330
1F
100
AcDbEntity
  8
0
  6
Continuous
 62
     7
370
    25
100
AcDbLine
 10
727.891117767
 20
659.6697850187
 30
0.0
 11
726.1029934832
 21
660.099312522
 31
0.0
  0
LINE
  5
1B1
330
1F
100
AcDbEntity
  8
0
  6
Continuous
 62
     7
370
    25
100
AcDbLine
 10
727.9649551763
 20
649.2229292652
 30
0.0
 11
727.891117767
 21
649.2126109689
 31
0.0
  0
SPLINE
  5
1B2
330
1F
100
AcDbEntity
  8
0
  6
Continuous
 62
     7
370
    25
100
AcDbSpline
210
0.0
220
0.0
230
1.0
 70
     8
 71
     3
 72
    10
 73
     6
 74
     0
 42
0.00000001
 43
0.00000001
 40
0.0
 40
0.0
 40
0.0
 40
0.0
 40
0.0490769085761659
 40
0.599580584366531
 40
1.0
 40
1.0
 40
1.0
 40
1.0
 10
710.0202276959205
 20
663.5457961349343
 30
0.0
 10
710.0391752342896
 20
663.5311733993329
 30
0.0
 10
710.2706603961961
 20
663.3525250571439
 30
0.0
 10
710.7165341710134
 20
663.1184730637226
 30
0.0
 10
711.1785407478978
 20
663.059458690705
 30
0.0
 10
711.3730847706515
 20
663.0346086255727
 30
0.0
  0
ARC
  5
1B3
330
1F
100
AcDbEntity
  8
0
  6
Continuous
 62
     7
370
    25
100
AcDbCircle
 10
727.9749261575
 20
660.023731453
 30
0.0
 40
0.5000763404875511
100
AcDbArc
 50
258.3065203377
 51
266.8373700348
  0
SPLINE
  5
1B4
330
1F
100
AcDbEntity
  8
0
  6
Continuous
 62
     7
370
    25
100
AcDbSpline
210
0.0
220
0.0
230
1.0
 70
     8
 71
     3
 72
     9
 73
     5
 74
     0
 42
0.00000001
 43
0.00000001
 40
0.0
 40
0.0
 40
0.0
 40
0.0
 40
0.8458911907785723
 40
1.0
 40
1.0
 40
1.0
 40
1.0
 10
727.8911177669582
 20
659.6697850186856
 30
0.0
 10
727.9119583630693
 20
659.6659702116933
 30
0.0
 10
727.9365958062043
 20
659.661460403536
 30
0.0
 10
727.9611683333804
 20
659.6597329397848
 30
0.0
 10
727.9649551762831
 20
659.6594667224033
 30
0.0
  0
LINE
  5
1B5
330
1F
100
AcDbEntity
  8
0
  6
Continuous
 62
     7
370
    25
100
AcDbLine
 10
745.9603753739
 20
658.5932108691
 30
0.0
 11
745.9599173541
 21
658.5932359556
 31
0.0
  0
LINE
  5
1B6
330
1F
100
AcDbEntity
  8
0
  6
Continuous
 62
     7
370
    25
100
AcDbLine
 10
716.0982733729
 20
644.1705928786
 30
0.0
 11
714.2595325236
 21
643.173626643
 31
0.0
  0
LINE
  5
1B7
330
1F
100
AcDbEntity
  8
0
  6
Continuous
 62
     7
370
    25
100
AcDbLine
 10
713.5195081084
 20
645.0313525428
 30
0.0
 11
714.2595325236
 21
643.173626643
 31
0.0
  0
LINE
  5
1B8
330
1F
100
AcDbEntity
  8
0
  6
Continuous
 62
     7
370
    25
100
AcDbLine
 10
710.5327377816
 20
644.5522310559
 30
0.0
 11
710.410904035
 21
642.5562505469
 31
0.0
  0
LINE
  5
1B9
330
1F
100
AcDbEntity
  8
0
  6
Continuous
 62
     7
370
    25
100
AcDbLine
 10
710.410904035
 20
642.5562505469
 30
0.0
 11
708.9679967953
 21
642.7645376121
 31
0.0
  0
ARC
  5
1BA
330
1F
100
AcDbEntity
  8
0
  6
Continuous
 62
     7
370
    25
100
AcDbCircle
 10
734.2885518817
 20
690.5250061158
 30
0.0
 40
33.57753037464037
100
AcDbArc
 50
234.8280705831
 51
235.6099480104
  0
ARC
  5
1BB
330
1F
100
AcDbEntity
  8
0
  6
Continuous
 62
     7
370
    25
100
AcDbCircle
 10
719.6739169548
 20
619.2156970948
 30
0.0
 40
46.10980537323358
100
AcDbArc
 50
102.8580809319
 51
103.1066633214
  0
ARC
  5
1BC
330
1F
100
AcDbEntity
  8
0
  6
Continuous
 62
     7
370
    25
100
AcDbCircle
 10
710.9549527532
 20
657.4130924696
 30
0.0
 40
6.929946387144327
100
AcDbArc
 50
54.8280705831
 51
102.8580809319
  0
LINE
  5
1BD
330
1F
100
AcDbEntity
  8
0
  6
Continuous
 62
     7
370
    25
100
AcDbLine
 10
714.9468229931
 20
663.0778191988
 30
0.0
 11
716.0987113443
 21
664.7124246192
 31
0.0
  0
ARC
  5
1BE
330
1F
100
AcDbEntity
  8
0
  6
Continuous
 62
     7
370
    25
100
AcDbCircle
 10
710.9549527532
 20
651.469303518
 30
0.0
 40
6.929946387144304
100
AcDbArc
 50
266.5070253286
 51
291.7198462835
  0
ARC
  5
1BF
330
1F
100
AcDbEntity
  8
0
  6
Continuous
 62
     7
370
    25
100
AcDbCircle
 10
710.9549527532
 20
651.469303518
 30
0.0
 40
8.929641777457121
100
AcDbArc
 50
266.5070253286
 51
291.7198462835
  0
LINE
  5
1C0
330
1F
100
AcDbEntity
  8
0
  6
Continuous
 62
     7
370
    25
100
AcDbLine
 10
709.4127839952
 20
664.1692653841
 30
0.0
 11
708.9677779903
 21
666.1188169504
 31
0.0
  0
ARC
  5
1C1
330
1F
100
AcDbEntity
  8
0
  6
Continuous
 62
     7
370
    25
100
AcDbCircle
 10
710.9549527532
 20
657.4130924696
 30
0.0
 40
8.929641777457183
100
AcDbArc
 50
54.8280705831
 51
102.8580809319
  0
ARC
  5
1C2
330
1F
100
AcDbEntity
  8
0
  6
Continuous
 62
     7
370
    25
100
AcDbCircle
 10
710.9549527532
 20
651.469303518
 30
0.0
 40
8.999918986501244
100
AcDbArc
 50
257.1419190681
 51
305.1719294169
  0
ARC
  5
1C3
330
1F
100
AcDbEntity
  8
0
  6
Continuous
 62
     7
370
    25
100
AcDbCircle
 10
710.9549527532
 20
657.4130924696
 30
0.0
 40
8.999918986501244
100
AcDbArc
 50
54.8280705831
 51
102.8580809319
  0
SPLINE
  5
1C4
330
1F
100
AcDbEntity
  8
0
  6
Continuous
 62
     7
370
    25
100
AcDbSpline
210
0.0
220
0.0
230
1.0
 70
     8
 71
     3
 72
    11
 73
     7
 74
     0
 42
0.00000001
 43
0.00000001
 40
0.0
 40
0.0
 40
0.0
 40
0.0
 40
0.2200386424382255
 40
0.6637869905998169
 40
0.8890365590789576
 40
1.0
 40
1.0
 40
1.0
 40
1.0
 10
492.9683474033597
 20
648.4208796868586
 30
0.0
 10
492.7641259403582
 20
648.6858982981174
 30
0.0
 10
492.1480543774746
 20
649.4853756284222
 30
0.0
 10
491.6245050264575
 20
650.74854489895
 30
0.0
 10
491.3728758266964
 20
651.9151147122741
 30
0.0
 10
491.3935830214187
 20
652.4263945109334
 30
0.0
 10
491.4004172054447
 20
652.5951368384058
 30
0.0
  0
SPLINE
  5
1C5
330
1F
100
AcDbEntity
  8
0
  6
Continuous
 62
     7
370
    25
100
AcDbSpline
210
0.0
220
0.0
230
1.0
 70
     8
 71
     3
 72
     9
 73
     5
 74
     0
 42
0.00000001
 43
0.00000001
 40
0.0
 40
0.0
 40
0.0
 40
0.0
 40
0.9209630919903056
 40
1.0
 40
1.0
 40
1.0
 40
1.0
 10
491.3283050401124
 20
648.741202962492
 30
0.0
 10
491.8427265779853
 20
648.6843759035734
 30
0.0
 10
492.4012956915
 20
648.6226719553774
 30
0.0
 10
492.9268122031693
 20
648.4356604944895
 30
0.0
 10
492.9683474033598
 20
648.4208796868586
 30
0.0
  0
SPLINE
  5
1C6
330
1F
100
AcDbEntity
  8
0
  6
Continuous
 62
     7
370
    25
100
AcDbSpline
210
0.0
220
0.0
230
1.0
 70
     8
 71
     3
 72
    10
 73
     6
 74
     0
 42
0.00000001
 43
0.00000001
 40
0.0
 40
0.0
 40
0.0
 40
0.0
 40
0.2596150688488836
 40
0.629760644481066
 40
0.9999999999999999
 40
0.9999999999999999
 40
0.9999999999999999
 40
0.9999999999999999
 10
444.1531440861752
 20
651.3327605314812
 30
0.0
 10
448.2309643048982
 20
651.0330063943828
 30
0.0
 10
458.1227271382635
 20
650.3058784992186
 30
0.0
 10
473.8522998209367
 20
649.4800316293284
 30
0.0
 10
485.5024780822014
 20
648.9874999800628
 30
0.0
 10
491.3283050401124
 20
648.741202962492
 30
0.0
  0
SPLINE
  5
1C7
330
1F
100
AcDbEntity
  8
0
  6
Continuous
 62
     7
370
    25
100
AcDbSpline
210
0.0
220
0.0
230
1.0
 70
     8
 71
     3
 72
    11
 73
     7
 74
     0
 42
0.00000001
 43
0.00000001
 40
0.0
 40
0.0
 40
0.0
 40
0.0
 40
0.061464119541392
 40
0.4999988937835378
 40
0.9375097801832794
 40
1.0
 40
1.0
 40
1.0
 40
1.0
 10
444.1531440861754
 20
657.058792878483
 30
0.0
 10
444.141474889973
 20
656.942335906031
 30
0.0
 10
444.0465482037036
 20
655.9949806386998
 30
0.0
 10
443.9628453764375
 20
654.1977364402516
 30
0.0
 10
444.0464152999575
 20
652.3985384160108
 30
0.0
 10
444.1412870050029
 20
651.4511635915776
 30
0.0
 10
444.1531440861752
 20
651.3327605314812
 30
0.0
  0
SPLINE
  5
1C8
330
1F
100
AcDbEntity
  8
0
  6
Continuous
 62
     7
370
    25
100
AcDbSpline
210
0.0
220
0.0
230
1.0
 70
     8
 71
     3
 72
    10
 73
     6
 74
     0
 42
0.00000001
 43
0.00000001
 40
0.0
 40
0.0
 40
0.0
 40
0.0
 40
0.2594618540778875
 40
0.6296073956705976
 40
1.0
 40
1.0
 40
1.0
 40
1.0
 10
491.3283050401124
 20
659.6503504474703
 30
0.0
 10
487.2454368020169
 20
659.4829661379447
 30
0.0
 10
477.3379918429524
 20
659.076793139717
 30
0.0
 10
461.606695281483
 20
658.2900097819864
 30
0.0
 10
449.9722883312716
 20
657.4692897841451
 30
0.0
 10
444.1531440861754
 20
657.058792878483
 30
0.0
  0
SPLINE
  5
1C9
330
1F
100
AcDbEntity
  8
0
  6
Continuous
 62
     7
370
    25
100
AcDbSpline
210
0.0
220
0.0
230
1.0
 70
     8
 71
     3
 72
     9
 73
     5
 74
     0
 42
0.00000001
 43
0.00000001
 40
0.0
 40
0.0
 40
0.0
 40
0.0
 40
0.0790369080192139
 40
1.0
 40
1.0
 40
1.0
 40
1.0
 10
492.9683474033589
 20
659.9706737231036
 30
0.0
 10
492.9268122031636
 20
659.9558929154708
 30
0.0
 10
492.4012956914944
 20
659.768881454583
 30
0.0
 10
491.8427265779798
 20
659.7071775063877
 30
0.0
 10
491.3283050401124
 20
659.6503504474703
 30
0.0
  0
SPLINE
  5
1CA
330
1F
100
AcDbEntity
  8
0
  6
Continuous
 62
     7
370
    25
100
AcDbSpline
210
0.0
220
0.0
230
1.0
 70
     8
 71
     3
 72
    11
 73
     7
 74
     0
 42
0.00000001
 43
0.00000001
 40
0.0
 40
0.0
 40
0.0
 40
0.0
 40
0.0728838064943292
 40
0.4140719411596029
 40
0.9209668754550567
 40
1.0
 40
1.0
 40
1.0
 40
1.0
 10
491.4004172054485
 20
655.7964165715417
 30
0.0
 10
491.3927020563108
 20
655.9068630057807
 30
0.0
 10
491.3488702789463
 20
656.5343380461118
 30
0.0
 10
491.6933619903843
 20
657.9173300765768
 30
0.0
 10
492.3330513398708
 20
659.1872615943544
 30
0.0
 10
492.8928400893034
 20
659.8775622605273
 30
0.0
 10
492.9683474033589
 20
659.9706737231036
 30
0.0
  0
SPLINE
  5
1CB
330
1F
100
AcDbEntity
  8
0
  6
Continuous
 62
     7
370
    25
100
AcDbSpline
210
0.0
220
0.0
230
1.0
 70
     8
 71
     3
 72
    10
 73
     6
 74
     0
 42
0.00000001
 43
0.00000001
 40
0.0
 40
0.0
 40
0.0
 40
0.0
 40
0.3880207377811389
 40
0.979063776650686
 40
1.0
 40
1.0
 40
1.0
 40
1.0
 10
491.4004172054447
 20
652.5951368384058
 30
0.0
 10
491.4737317362041
 20
653.0059767002615
 30
0.0
 10
491.6587208215274
 20
654.0426182701098
 30
0.0
 10
491.5630138956964
 20
655.1363875916811
 30
0.0
 10
491.4057957444485
 20
655.7745834604005
 30
0.0
 10
491.4004172054485
 20
655.7964165715417
 30
0.0
  0
ARC
  5
1CC
330
1F
100
AcDbEntity
  8
0
  6
Continuous
 62
     7
370
    25
100
AcDbCircle
 10
499.645937548
 20
654.195776705
 30
0.0
 40
8.399443654264582
100
AcDbArc
 50
190.985757993
 51
169.0142420071
  0
SPLINE
  5
1CD
330
1F
100
AcDbEntity
  8
0
  6
Continuous
 62
     7
370
    25
100
AcDbSpline
210
0.0
220
0.0
230
1.0
 70
     8
 71
     3
 72
     9
 73
     5
 74
     0
 42
0.00000001
 43
0.00000001
 40
0.0
 40
0.0
 40
0.0
 40
0.0
 40
0.6817923421274312
 40
1.0
 40
1.0
 40
1.0
 40
1.0
 10
492.9683474033589
 20
659.9706737231036
 30
0.0
 10
493.1106109640019
 20
660.1605840782088
 30
0.0
 10
493.3192720941624
 20
660.4391298220824
 30
0.0
 10
493.5486979280428
 20
660.6720341950253
 30
0.0
 10
493.6217029852974
 20
660.7461461500478
 30
0.0
  0
ARC
  5
1CE
330
1F
100
AcDbEntity
  8
0
  6
Continuous
 62
     7
370
    25
100
AcDbCircle
 10
499.645937548
 20
654.195776705
 30
0.0
 40
8.899367501836336
100
AcDbArc
 50
227.3959191961
 51
132.6040808039
  0
LINE
  5
1CF
330
1F
100
AcDbEntity
  8
0
  6
Continuous
 62
     7
370
    25
100
AcDbLine
 10
493.6217029853
 20
647.6454072599
 30
0.0
 11
492.9683474034
 21
648.4208796869
 31
0.0
  0
SPLINE
  5
1D0
330
1F
100
AcDbEntity
  8
0
  6
Continuous
 62
     7
370
    25
100
AcDbSpline
210
0.0
220
0.0
230
1.0
 70
     8
 71
     3
 72
    10
 73
     6
 74
     0
 42
0.00000001
 43
0.00000001
 40
0.0
 40
0.0
 40
0.0
 40
0.0
 40
0.3702896688583046
 40
0.7405318123903298
 40
0.9999999999999999
 40
0.9999999999999999
 40
0.9999999999999999
 40
0.9999999999999999
 10
444.141624622997
 20
657.5016524593162
 30
0.0
 10
449.9616884692153
 20
657.8218434738426
 30
0.0
 10
461.601069177719
 20
658.4621844075482
 30
0.0
 10
477.3199375844936
 20
659.3314187394114
 30
0.0
 10
487.2171114005035
 20
659.8801597410206
 30
0.0
 10
491.2951797209677
 20
660.1062650248525
 30
0.0
  0
ARC
  5
1D1
330
1F
100
AcDbEntity
  8
0
  6
Continuous
 62
     7
370
    25
100
AcDbCircle
 10
484.0800905136
 20
659.3528786582
 30
0.0
 40
7.254316183359137
100
AcDbArc
 50
2.3501399448
 51
5.9611177313
  0
ARC
  5
1D2
330
1F
100
AcDbEntity
  8
0
  6
Continuous
 62
     7
370
    25
100
AcDbCircle
 10
448.4021471642
 20
657.3908956353
 30
0.0
 40
4.261961918866562
100
AcDbArc
 50
178.5108705386
 51
184.4691613065
  0
SPLINE
  5
1D3
330
1F
100
AcDbEntity
  8
0
  6
Continuous
 62
     7
370
    25
100
AcDbSpline
210
0.0
220
0.0
230
1.0
 70
     8
 71
     3
 72
    10
 73
     6
 74
     0
 42
0.00000001
 43
0.00000001
 40
0.0
 40
0.0
 40
0.0
 40
0.0
 40
0.3702717503651152
 40
0.7405122151371749
 40
1.0
 40
1.0
 40
1.0
 40
1.0
 10
491.2951797209677
 20
648.2852883851099
 30
0.0
 10
485.4755076592985
 20
648.6078168707778
 30
0.0
 10
473.8366552610016
 20
649.2528465905209
 30
0.0
 10
458.1175156770469
 20
650.1216610779999
 30
0.0
 10
448.2200182533483
 20
650.6657159887668
 30
0.0
 10
444.1416246230003
 20
650.8899009506459
 30
0.0
  0
ARC
  5
1D4
330
1F
100
AcDbEntity
  8
0
  6
Continuous
 62
     7
370
    25
100
AcDbCircle
 10
448.4021471671
 20
651.0006577746
 30
0.0
 40
4.261961921791565
100
AcDbArc
 50
175.530838696
 51
181.4891294598
  0
ARC
  5
1D5
330
1F
100
AcDbEntity
  8
0
  6
Continuous
 62
     7
370
    25
100
AcDbCircle
 10
484.0800905135
 20
649.0386747518
 30
0.0
 40
7.254316183402741
100
AcDbArc
 50
354.0388822687
 51
357.6498600552
  0
SPLINE
  5
1D6
330
1F
100
AcDbEntity
  8
0
  6
Continuous
 62
     7
370
    25
100
AcDbSpline
210
0.0
220
0.0
230
1.0
 70
     8
 71
     3
 72
    12
 73
     8
 74
     0
 42
0.00000001
 43
0.00000001
 40
0.0
 40
0.0
 40
0.0
 40
0.0
 40
0.1224290494151349
 40
0.3423522449770471
 40
0.5614228816909413
 40
0.7807229538533572
 40
1.0
 40
1.0
 40
1.0
 40
1.0
 10
442.2174166533277
 20
651.4434349011374
 30
0.0
 10
442.2264207291917
 20
651.4410762166965
 30
0.0
 10
442.2515991129228
 20
651.4344805523717
 30
0.0
 10
442.4675867965675
 20
651.4174725846325
 30
0.0
 10
442.9034849262965
 20
651.3919616104781
 30
0.0
 10
443.4874105397267
 20
651.3624094279187
 30
0.0
 10
443.9312406712949
 20
651.3426431510397
 30
0.0
 10
444.1531440861752
 20
651.3327605314812
 30
0.0
  0
SPLINE
  5
1D7
330
1F
100
AcDbEntity
  8
0
  6
Continuous
 62
     7
370
    25
100
AcDbSpline
210
0.0
220
0.0
230
1.0
 70
     8
 71
     3
 72
    11
 73
     7
 74
     0
 42
0.00000001
 43
0.00000001
 40
0.0
 40
0.0
 40
0.0
 40
0.0
 40
0.0800485240044433
 40
0.5000005853538798
 40
0.9209248322279645
 40
1.0
 40
1.0
 40
1.0
 40
1.0
 10
442.2174166533277
 20
651.4434349011374
 30
0.0
 10
442.2177028977418
 20
651.5896793262381
 30
0.0
 10
442.2194908429464
 20
652.5031539850711
 30
0.0
 10
442.2207265397764
 20
654.1975635728296
 30
0.0
 10
442.2194888416815
 20
655.8901904246843
 30
0.0
 10
442.2176996197135
 20
656.8036538003281
 30
0.0
 10
442.2174166533276
 20
656.9481185088194
 30
0.0
  0
SPLINE
  5
1D8
330
1F
100
AcDbEntity
  8
0
  6
Continuous
 62
     7
370
    25
100
AcDbSpline
210
0.0
220
0.0
230
1.0
 70
     8
 71
     3
 72
    12
 73
     8
 74
     0
 42
0.00000001
 43
0.00000001
 40
0.0
 40
0.0
 40
0.0
 40
0.0
 40
0.1130367476169362
 40
0.3328594693548023
 40
0.5544127937945006
 40
0.7774207483513244
 40
1.0
 40
1.0
 40
1.0
 40
1.0
 10
444.1531440861754
 20
657.058792878483
 30
0.0
 10
444.0390732461885
 20
657.0537776327816
 30
0.0
 10
443.7031686835805
 20
657.0390092317259
 30
0.0
 10
443.1691008271858
 20
657.0134170276165
 30
0.0
 10
442.6525751892987
 20
656.9855417647456
 30
0.0
 10
442.2956804721442
 20
656.962099891155
 30
0.0
 10
442.2434878546258
 20
656.9527759793954
 30
0.0
 10
442.2174166533276
 20
656.9481185088194
 30
0.0
  0
SPLINE
  5
1D9
330
1F
100
AcDbEntity
  8
0
  6
Continuous
 62
     7
370
    25
100
AcDbSpline
210
0.0
220
0.0
230
1.0
 70
     8
 71
     3
 72
     9
 73
     5
 74
     0
 42
0.00000001
 43
0.00000001
 40
0.0
 40
0.0
 40
0.0
 40
0.0
 40
0.500010612381544
 40
1.0
 40
1.0
 40
1.0
 40
1.0
 10
494.1213108341403
 20
647.2135755706682
 30
0.0
 10
493.6915894673194
 20
647.5014161087615
 30
0.0
 10
492.8321649747588
 20
648.077084966513
 30
0.0
 10
491.8075008894805
 20
648.2158882275996
 30
0.0
 10
491.2951797209677
 20
648.2852883851099
 30
0.0
  0
SPLINE
  5
1DA
330
1F
100
AcDbEntity
  8
0
  6
Continuous
 62
     7
370
    25
100
AcDbSpline
210
0.0
220
0.0
230
1.0
 70
     8
 71
     3
 72
     9
 73
     5
 74
     0
 42
0.00000001
 43
0.00000001
 40
0.0
 40
0.0
 40
0.0
 40
0.0
 40
0.9838702326459385
 40
1.0
 40
1.0
 40
1.0
 40
1.0
 10
493.6217029852974
 20
647.6454072599146
 30
0.0
 10
493.783043800232
 20
647.5005748468956
 30
0.0
 10
493.9470296690805
 20
647.3533680220388
 30
0.0
 10
494.1185443423624
 20
647.2157945979923
 30
0.0
 10
494.1213108341403
 20
647.2135755706682
 30
0.0
  0
SPLINE
  5
1DB
330
1F
100
AcDbEntity
  8
0
  6
Continuous
 62
     7
370
    25
100
AcDbSpline
210
0.0
220
0.0
230
1.0
 70
     8
 71
     3
 72
     9
 73
     5
 74
     0
 42
0.00000001
 43
0.00000001
 40
0.0
 40
0.0
 40
0.0
 40
0.0
 40
0.5055561057107305
 40
1.0
 40
1.0
 40
1.0
 40
1.0
 10
491.2951797209677
 20
660.1062650248525
 30
0.0
 10
491.8132392383007
 20
660.1769210591224
 30
0.0
 10
492.837971234376
 20
660.3166800956999
 30
0.0
 10
493.6967118031376
 20
660.8930133704955
 30
0.0
 10
494.1213108341403
 20
661.1779778392942
 30
0.0
  0
SPLINE
  5
1DC
330
1F
100
AcDbEntity
  8
0
  6
Continuous
 62
     7
370
    25
100
AcDbSpline
210
0.0
220
0.0
230
1.0
 70
     8
 71
     3
 72
     9
 73
     5
 74
     0
 42
0.00000001
 43
0.00000001
 40
0.0
 40
0.0
 40
0.0
 40
0.0
 40
0.0161297673533178
 40
0.9999999999999999
 40
0.9999999999999999
 40
0.9999999999999999
 40
0.9999999999999999
 10
494.1213108341403
 20
661.1779778392942
 30
0.0
 10
494.1185443423624
 20
661.1757588119702
 30
0.0
 10
493.9470296690764
 20
661.0381853879206
 30
0.0
 10
493.78304380023
 20
660.8909785630652
 30
0.0
 10
493.6217029852973
 20
660.7461461500478
 30
0.0
  0
SPLINE
  5
1DD
330
1F
100
AcDbEntity
  8
0
  6
Continuous
 62
     7
370
    25
100
AcDbSpline
210
0.0
220
0.0
230
1.0
 70
     8
 71
     3
 72
    12
 73
     8
 74
     0
 42
0.00000001
 43
0.00000001
 40
0.0
 40
0.0
 40
0.0
 40
0.0
 40
0.2230315344150378
 40
0.4461337558340359
 40
0.6675099896777023
 40
0.8870667292265011
 40
1.0
 40
1.0
 40
1.0
 40
1.0
 10
442.6897709184121
 20
657.4472815798679
 30
0.0
 10
442.7093047045381
 20
657.4453913325731
 30
0.0
 10
442.7483784677746
 20
657.4416102388938
 30
0.0
 10
443.0159676498308
 20
657.4485530751643
 30
0.0
 10
443.4034967336559
 20
657.4641418976543
 30
0.0
 10
443.8042188461189
 20
657.4834791777184
 30
0.0
 10
444.0560782683768
 20
657.497044778895
 30
0.0
 10
444.141624622997
 20
657.5016524593162
 30
0.0
  0
ARC
  5
1DE
330
1F
100
AcDbEntity
  8
0
  6
Continuous
 62
     7
370
    25
100
AcDbCircle
 10
442.7175165409
 20
656.9479519235
 30
0.0
 40
0.5000999153469704
100
AcDbArc
 50
93.1804119247
 51
179.9809145383
  0
SPLINE
  5
1DF
330
1F
100
AcDbEntity
  8
0
  6
Continuous
 62
     7
370
    25
100
AcDbSpline
210
0.0
220
0.0
230
1.0
 70
     8
 71
     3
 72
    12
 73
     8
 74
     0
 42
0.00000001
 43
0.00000001
 40
0.0
 40
0.0
 40
0.0
 40
0.0
 40
0.2190444340109334
 40
0.4380981679380241
 40
0.6571027493691853
 40
0.8772791087290019
 40
1.0
 40
1.0
 40
1.0
 40
1.0
 10
444.1416246230003
 20
650.8899009506459
 30
0.0
 10
443.9752068822295
 20
650.8987297635956
 30
0.0
 10
443.6423643351304
 20
650.9163877643379
 30
0.0
 10
443.2042058924873
 20
650.935906253747
 30
0.0
 10
442.8772400657276
 20
650.9472120373792
 30
0.0
 10
442.7153961887136
 20
650.9490359054558
 30
0.0
 10
442.6965248563013
 20
650.9455274761311
 30
0.0
 10
442.6897709184122
 20
650.9442718300945
 30
0.0
  0
ARC
  5
1E0
330
1F
100
AcDbEntity
  8
0
  6
Continuous
 62
     7
370
    25
100
AcDbCircle
 10
442.7175165409
 20
651.4436014865
 30
0.0
 40
0.5000999153469722
100
AcDbArc
 50
180.0190854623
 51
266.8195880753
  0
LINE
  5
1E1
330
1F
100
AcDbEntity
  8
0
  6
Continuous
 62
     7
370
    25
100
AcDbLine
 10
491.295179721
 20
660.1062650249
 30
0.0
 11
491.2681935393
 21
660.1775553002
 31
0.0
  0
LINE
  5
1E2
330
1F
100
AcDbEntity
  8
0
  6
Continuous
 62
     7
370
    25
100
AcDbLine
 10
442.6850805577
 20
657.4517200329
 30
0.0
 11
442.6897709184
 21
657.4472815799
 31
0.0
  0
ELLIPSE
  5
1E3
330
1F
100
AcDbEntity
  8
0
  6
Continuous
 62
     7
370
    25
100
AcDbEllipse
 10
444.1848521005
 20
657.5350124829
 30
0.0
 11
1.499999304622747
 21
0.08287263343868288
 31
0.0
210
0.0
220
0.0
230
1.0
 40
0.0174284859
 41
2.255125316696322
 42
3.158083049610626
  0
LINE
  5
1E4
330
1F
100
AcDbEntity
  8
0
  6
Continuous
 62
     7
370
    25
100
AcDbLine
 10
446.7004667695
 20
657.743772071
 30
0.0
 11
443.2355035601
 21
657.502880792
 31
0.0
  0
LINE
  5
1E5
330
1F
100
AcDbEntity
  8
0
  6
Continuous
 62
     7
370
    25
100
AcDbLine
 10
446.7004667695
 20
657.7436736797
 30
0.0
 11
446.7004667695
 21
657.743772071
 31
0.0
  0
ELLIPSE
  5
1E6
330
1F
100
AcDbEntity
  8
0
  6
Continuous
 62
     7
370
    25
100
AcDbEllipse
 10
456.1499531904
 20
658.0733197312
 30
0.0
 11
14.49999327802044
 21
0.8011021232405255
 31
0.0
210
0.0
220
0.0
230
1.0
 40
0.0174284859
 41
1.54351683885242
 42
2.279642175408455
  0
ELLIPSE
  5
1E7
330
1F
100
AcDbEntity
  8
0
  6
Continuous
 62
     7
370
    25
100
AcDbEllipse
 10
457.470963106
 20
659.0236032805
 30
0.0
 11
35.70262504606006
 21
1.972514619921981
 31
0.0
210
0.0
220
0.0
230
1.0
 40
0.0174284859
 41
4.685109492442213
 42
5.167309992307866
  0
ELLIPSE
  5
1E8
330
1F
100
AcDbEntity
  8
0
  6
Continuous
 62
     7
370
    25
100
AcDbEllipse
 10
476.491190578
 20
659.3959993402
 30
0.0
 11
7.499996523114021
 21
0.4143631671935282
 31
0.0
210
0.0
220
0.0
230
1.0
 40
0.0174284859
 41
1.834826681007682
 42
2.025717338717969
  0
LINE
  5
1E9
330
1F
100
AcDbEntity
  8
0
  6
Continuous
 62
     7
370
    25
100
AcDbLine
 10
474.546538177
 20
659.263654889
 30
0.0
 11
474.5269199196
 21
659.4140454336
 31
0.0
  0
SPLINE
  5
1EA
330
1F
100
AcDbEntity
  8
0
  6
Continuous
 62
     7
370
    25
100
AcDbSpline
210
0.0
220
0.0
230
1.0
 70
     8
 71
     3
 72
    10
 73
     6
 74
     0
 42
0.00000001
 43
0.00000001
 40
0.0
 40
0.0
 40
0.0
 40
0.0
 40
0.0186368637457253
 40
0.3939469944633057
 40
1.0
 40
1.0
 40
1.0
 40
1.0
 10
474.7303094626979
 20
659.2641412562563
 30
0.0
 10
474.7278532554492
 20
659.264053505777
 30
0.0
 10
474.6759338189722
 20
659.262198631584
 30
0.0
 10
474.5719349704943
 20
659.2595186502059
 30
0.0
 10
474.556234313145
 20
659.2620757316034
 30
0.0
 10
474.5465381770014
 20
659.2636548890114
 30
0.0
  0
LINE
  5
1EB
330
1F
100
AcDbEntity
  8
0
  6
Continuous
 62
     7
370
    25
100
AcDbLine
 10
491.2681935393
 20
660.1775553002
 30
0.0
 11
474.7303094627
 21
659.2641412563
 31
0.0
  0
LINE
  5
1EC
330
1F
100
AcDbEntity
  8
0
  6
Continuous
 62
     7
370
    25
100
AcDbLine
 10
474.7282437308
 20
649.1112085049
 30
0.0
 11
491.2621521542
 21
648.1980140427
 31
0.0
  0
SPLINE
  5
1ED
330
1F
100
AcDbEntity
  8
0
  6
Continuous
 62
     7
370
    25
100
AcDbSpline
210
0.0
220
0.0
230
1.0
 70
     8
 71
     3
 72
    11
 73
     7
 74
     0
 42
0.00000001
 43
0.00000001
 40
0.0
 40
0.0
 40
0.0
 40
0.0
 40
0.4177469294495291
 40
0.8392770662410922
 40
0.9817832068819584
 40
1.0
 40
1.0
 40
1.0
 40
1.0
 10
474.5445382901295
 20
649.1125579501644
 30
0.0
 10
474.5491753181614
 20
649.113641141348
 30
0.0
 10
474.5584913681628
 20
649.1158173333312
 30
0.0
 10
474.633987833913
 20
649.1146151564398
 30
0.0
 10
474.7042480344849
 20
649.1121446290997
 30
0.0
 10
474.7258008711426
 20
649.1113038061428
 30
0.0
 10
474.7282437307726
 20
649.1112085048843
 30
0.0
  0
LINE
  5
1EE
330
1F
100
AcDbEntity
  8
0
  6
Continuous
 62
     7
370
    25
100
AcDbLine
 10
474.5269199196
 20
648.9775079764
 30
0.0
 11
474.5445382901
 21
649.1125579502
 31
0.0
  0
ELLIPSE
  5
1EF
330
1F
100
AcDbEntity
  8
0
  6
Continuous
 62
     7
370
    25
100
AcDbEllipse
 10
476.491190578
 20
648.9955540698
 30
0.0
 11
7.499996523114021
 21
-0.4143631671935282
 31
0.0
210
0.0
220
0.0
230
1.0
 40
0.0174284859
 41
4.257467968461762
 42
4.448358626171727
  0
ELLIPSE
  5
1F0
330
1F
100
AcDbEntity
  8
0
  6
Continuous
 62
     7
370
    25
100
AcDbEllipse
 10
457.470963106
 20
649.3679501295
 30
0.0
 11
35.70262504606001
 21
-1.972514619921981
 31
0.0
210
0.0
220
0.0
230
1.0
 40
0.0174284859
 41
1.115875314871791
 42
1.598075814737374
  0
ELLIPSE
  5
1F1
330
1F
100
AcDbEntity
  8
0
  6
Continuous
 62
     7
370
    25
100
AcDbEllipse
 10
456.1499531904
 20
650.3182336788
 30
0.0
 11
14.49999327802044
 21
-0.8011021232406392
 31
0.0
210
0.0
220
0.0
230
1.0
 40
0.0174284859
 41
4.003543131771659
 42
4.739668468327168
  0
LINE
  5
1F2
330
1F
100
AcDbEntity
  8
0
  6
Continuous
 62
     7
370
    25
100
AcDbLine
 10
446.7004667695
 20
650.647781339
 30
0.0
 11
446.7004667695
 21
650.6478797302
 31
0.0
  0
LINE
  5
1F3
330
1F
100
AcDbEntity
  8
0
  6
Continuous
 62
     7
370
    25
100
AcDbLine
 10
443.2355035601
 20
650.888672618
 30
0.0
 11
446.7004667695
 21
650.647781339
 31
0.0
  0
ELLIPSE
  5
1F4
330
1F
100
AcDbEntity
  8
0
  6
Continuous
 62
     7
370
    25
100
AcDbEllipse
 10
444.1848521005
 20
650.856540927
 30
0.0
 11
1.499999304622747
 21
-0.08287263343879657
 31
0.0
210
0.0
220
0.0
230
1.0
 40
0.0174284859
 41
3.125102257574089
 42
4.028059990488128
  0
LINE
  5
1F5
330
1F
100
AcDbEntity
  8
0
  6
Continuous
 62
     7
370
    25
100
AcDbLine
 10
442.6897709184
 20
650.9442718301
 30
0.0
 11
442.6850805577
 21
650.939833377
 31
0.0
  0
LINE
  5
1F6
330
1F
100
AcDbEntity
  8
0
  6
Continuous
 62
     7
370
    25
100
AcDbLine
 10
491.2621521542
 20
648.1980140427
 30
0.0
 11
491.295179721
 21
648.2852883851
 31
0.0
  0
SPLINE
  5
1F7
330
1F
100
AcDbEntity
  8
0
  6
Continuous
 62
     7
370
    25
100
AcDbSpline
210
0.0
220
0.0
230
1.0
 70
     8
 71
     3
 72
     9
 73
     5
 74
     0
 42
0.00000001
 43
0.00000001
 40
0.0
 40
0.0
 40
0.0
 40
0.0
 40
0.5001021276704695
 40
1.0
 40
1.0
 40
1.0
 40
1.0
 10
494.0880919680848
 20
661.2436692862542
 30
0.0
 10
493.6591441923775
 20
660.9571436521658
 30
0.0
 10
492.8014238349269
 20
660.3842094088678
 30
0.0
 10
491.7792007063118
 20
660.2464306224138
 30
0.0
 10
491.2681935392711
 20
660.1775553002132
 30
0.0
  0
LINE
  5
1F8
330
1F
100
AcDbEntity
  8
0
  6
Continuous
 62
     7
370
    25
100
AcDbLine
 10
494.0880919681
 20
661.2436692863
 30
0.0
 11
494.1213108341
 21
661.1779778393
 31
0.0
  0
SPLINE
  5
1F9
330
1F
100
AcDbEntity
  8
0
  6
Continuous
 62
     7
370
    25
100
AcDbSpline
210
0.0
220
0.0
230
1.0
 70
     8
 71
     3
 72
     9
 73
     5
 74
     0
 42
0.00000001
 43
0.00000001
 40
0.0
 40
0.0
 40
0.0
 40
0.0
 40
0.400722737156528
 40
1.0
 40
1.0
 40
1.0
 40
1.0
 10
491.2621521542195
 20
648.1980140426698
 30
0.0
 10
491.6708382776287
 20
648.1496067806041
 30
0.0
 10
492.6907108366685
 20
648.0288068918603
 30
0.0
 10
493.5597868804944
 20
647.4686996185067
 30
0.0
 10
494.0806043932412
 20
647.1330400648325
 30
0.0
  0
LINE
  5
1FA
330
1F
100
AcDbEntity
  8
0
  6
Continuous
 62
     7
370
    25
100
AcDbLine
 10
494.1213108341
 20
647.2135755707
 30
0.0
 11
494.0806043932
 21
647.1330400648
 31
0.0
  0
ARC
  5
1FB
330
1F
100
AcDbEntity
  8
0
  6
Continuous
 62
     7
370
    25
100
AcDbCircle
 10
499.645937548
 20
654.195776705
 30
0.0
 40
8.975658044222088
100
AcDbArc
 50
65.1648853947
 51
128.2586979829
  0
LWPOLYLINE
  5
1FC
330
1F
100
AcDbEntity
  8
0
  6
Continuous
 62
     7
370
    25
100
AcDbPolyline
 90
        3
 70
   128
 43
0.0
 10
503.5812509722
 20
662.4464364283
 10
503.4766694081
 20
662.380184017
 10
503.4157888653
 20
662.3413680507
  0
ARC
  5
1FD
330
1F
100
AcDbEntity
  8
0
  6
Continuous
 62
     7
370
    25
100
AcDbCircle
 10
499.645937548
 20
654.195776705
 30
0.0
 40
9.141120151092208
100
AcDbArc
 50
295.4997164176
 51
64.5002794289
  0
LWPOLYLINE
  5
1FE
330
1F
100
AcDbEntity
  8
0
  6
Continuous
 62
     7
370
    25
100
AcDbPolyline
 90
        3
 70
   128
 43
0.0
 10
503.4320817758
 20
646.0397792885
 10
503.4766694081
 20
646.0113693929
 10
503.5812509725
 20
645.9451169815
  0
ARC
  5
1FF
330
1F
100
AcDbEntity
  8
0
  6
Continuous
 62
     7
370
    25
100
AcDbCircle
 10
499.645937548
 20
654.195776705
 30
0.0
 40
8.991950954660766
100
AcDbArc
 50
231.762407147
 51
294.9014811666
  0
LINE
  5
200
330
1F
100
AcDbEntity
  8
0
  6
Continuous
 62
     7
370
    25
100
AcDbLine
 10
442.2127262927
 20
651.4389964481
 30
0.0
 11
442.2174166533
 21
651.4434349011
 31
0.0
  0
LINE
  5
201
330
1F
100
AcDbEntity
  8
0
  6
Continuous
 62
     7
370
    25
100
AcDbLine
 10
442.2127262927
 20
656.9525569619
 30
0.0
 11
442.2127262927
 21
651.4389964481
 31
0.0
  0
LINE
  5
202
330
1F
100
AcDbEntity
  8
0
  6
Continuous
 62
     7
370
    25
100
AcDbLine
 10
442.2174166533
 20
656.9481185088
 30
0.0
 11
442.2127262927
 21
656.9525569619
 31
0.0
  0
ARC
  5
203
330
1F
100
AcDbEntity
  8
0
  6
Continuous
 62
     7
370
    25
100
AcDbCircle
 10
442.7128261803
 20
651.4391630334
 30
0.0
 40
0.5000999153469704
100
AcDbArc
 50
180.0190854617
 51
266.8195880753
  0
ARC
  5
204
330
1F
100
AcDbEntity
  8
0
  6
Continuous
 62
     7
370
    25
100
AcDbCircle
 10
442.7128261803
 20
656.9523903765
 30
0.0
 40
0.5000999153469704
100
AcDbArc
 50
93.1804119247
 51
179.9809145383
  0
LINE
  5
205
330
1F
100
AcDbEntity
  8
0
  6
Continuous
 62
     7
370
    25
100
AcDbLine
 10
443.2355035601
 20
650.888672618
 30
0.0
 11
443.2283958293
 21
650.8890396546
 31
0.0
  0
LINE
  5
206
330
1F
100
AcDbEntity
  8
0
  6
Continuous
 62
     7
370
    25
100
AcDbLine
 10
443.2355035601
 20
657.502880792
 30
0.0
 11
443.2283958293
 21
657.5025137553
 31
0.0
  0
SPLINE
  5
207
330
1F
100
AcDbEntity
  8
0
  6
Continuous
 62
     7
370
    25
100
AcDbSpline
210
0.0
220
0.0
230
1.0
 70
     8
 71
     3
 72
    11
 73
     7
 74
     0
 42
0.00000001
 43
0.00000001
 40
0.0
 40
0.0
 40
0.0
 40
0.0
 40
0.1345990676765959
 40
0.4126978815969493
 40
0.6969472592954598
 40
1.0
 40
1.0
 40
1.0
 40
1.0
 10
503.4165674717755
 20
662.3421746678015
 30
0.0
 10
502.9872614515273
 20
662.5330585529626
 30
0.0
 10
501.6709545248031
 20
663.1183328523824
 30
0.0
 10
499.2951444739198
 20
663.7408007364061
 30
0.0
 10
496.2414550890387
 20
664.1173034189064
 30
0.0
 10
494.050425180678
 20
664.1444447472392
 30
0.0
 10
492.91983566314
 20
664.1584498966843
 30
0.0
  0
ARC
  5
208
330
1F
100
AcDbEntity
  8
0
  6
Continuous
 62
     7
370
    25
100
AcDbCircle
 10
497.4123666561
 20
663.5386258521
 30
0.0
 40
4.535087272516937
100
AcDbArc
 50
149.0284626407
 51
172.1446266983
  0
SPLINE
  5
209
330
1F
100
AcDbEntity
  8
0
  6
Continuous
 62
     7
370
    25
100
AcDbSpline
210
0.0
220
0.0
230
1.0
 70
     8
 71
     3
 72
    12
 73
     8
 74
     0
 42
0.00000001
 43
0.00000001
 40
0.0
 40
0.0
 40
0.0
 40
0.0
 40
0.1662426524176545
 40
0.3368059756191297
 40
0.6054181071254586
 40
0.8801435087136193
 40
1.0
 40
1.0
 40
1.0
 40
1.0
 10
493.5238783006411
 20
665.8724370866521
 30
0.0
 10
494.1615598211771
 20
665.7169519111692
 30
0.0
 10
495.4534962979777
 20
665.4019404778139
 30
0.0
 10
497.6376826803271
 20
664.7389753728154
 30
0.0
 10
499.9996570238869
 20
663.88678045601
 30
0.0
 10
501.9651945857795
 20
663.0441517773979
 30
0.0
 10
503.0789695705751
 20
662.5062936847027
 30
0.0
 10
503.4172850487326
 20
662.3429162338754
 30
0.0
  0
LINE
  5
20A
330
1F
100
AcDbEntity
  8
0
  6
Continuous
 62
     7
370
    25
100
AcDbLine
 10
503.4172850487
 20
662.3429162339
 30
0.0
 11
503.4165674718
 21
662.3421746678
 31
0.0
  0
LINE
  5
20B
330
1F
100
AcDbEntity
  8
0
  6
Continuous
 62
     7
370
    25
100
AcDbLine
 10
493.5238783006
 20
665.8724370867
 30
0.0
 11
493.5397363776
 21
665.9419106182
 31
0.0
  0
ARC
  5
20C
330
1F
100
AcDbEntity
  8
0
  6
Continuous
 62
     7
370
    25
100
AcDbCircle
 10
482.8179581411
 20
618.970275806
 30
0.0
 40
48.17977797259051
100
AcDbArc
 50
64.4718479123
 51
77.1419190681
  0
LWPOLYLINE
  5
20D
330
1F
100
AcDbEntity
  8
0
  6
Continuous
 62
     7
370
    25
100
AcDbPolyline
 90
        3
 70
   128
 43
0.0
 10
503.4172850487
 20
662.3429162339
 10
503.4766728991
 20
662.3804399374
 10
503.5812509719
 20
662.4464379673
  0
LINE
  5
20E
330
1F
100
AcDbEntity
  8
0
  6
Continuous
 62
     7
370
    25
100
AcDbLine
 10
494.0880919681
 20
661.2436692863
 30
0.0
 11
491.8902200479
 21
664.0307861606
 31
0.0
  0
ARC
  5
20F
330
1F
100
AcDbEntity
  8
0
  6
Continuous
 62
     7
370
    25
100
AcDbCircle
 10
499.645937548
 20
654.195776705
 30
0.0
 40
12.52511736202725
100
AcDbArc
 50
127.8583068702
 51
128.2586979829
  0
LINE
  5
210
330
1F
100
AcDbEntity
  8
0
  6
Continuous
 62
     7
370
    25
100
AcDbLine
 10
492.9198356631
 20
664.1584498967
 30
0.0
 11
491.9591373143
 21
664.0847436429
 31
0.0
  0
LINE
  5
211
330
1F
100
AcDbEntity
  8
0
  6
Continuous
 62
     7
370
    25
100
AcDbLine
 10
503.4157888653
 20
662.3413680507
 30
0.0
 11
503.4165674718
 21
662.3421746678
 31
0.0
  0
LINE
  5
212
330
1F
100
AcDbEntity
  8
0
  6
Continuous
 62
     7
370
    25
100
AcDbLine
 10
488.9723669875
 20
663.6056221559
 30
0.0
 11
491.0724495036
 21
663.7216131047
 31
0.0
  0
LINE
  5
213
330
1F
100
AcDbEntity
  8
0
  6
Continuous
 62
     7
370
    25
100
AcDbLine
 10
491.2681935393
 20
660.1775553002
 30
0.0
 11
491.0724495036
 21
663.7216131047
 31
0.0
  0
SPLINE
  5
214
330
1F
100
AcDbEntity
  8
0
  6
Continuous
 62
     7
370
    25
100
AcDbSpline
210
0.0
220
0.0
230
1.0
 70
     8
 71
     3
 72
    16
 73
    12
 74
     0
 42
0.00000001
 43
0.00000001
 40
0.0
 40
0.0
 40
0.0
 40
0.0
 40
0.2861254310575669
 40
0.7591203623085425
 40
0.8520758313858449
 40
0.9266344548631255
 40
0.9604862301433736
 40
0.9835335436569232
 40
0.9930756629548352
 40
0.9972242292023619
 40
1.0
 40
1.0
 40
1.0
 40
1.0
 10
487.5316986253921
 20
663.0814784739664
 30
0.0
 10
486.3035517882684
 20
662.5514111646143
 30
0.0
 10
483.0451512031842
 20
661.1450877684871
 30
0.0
 10
479.2475697485768
 20
660.1272757656027
 30
0.0
 10
476.4499080986723
 20
659.5653555478311
 30
0.0
 10
475.5847751597778
 20
659.4108530319382
 30
0.0
 10
475.0591889910437
 20
659.3223323661078
 30
0.0
 10
474.8255267323298
 20
659.2832229824593
 30
0.0
 10
474.7478765851689
 20
659.2689030134895
 30
0.0
 10
474.7317949301338
 20
659.2651692748666
 30
0.0
 10
474.730734542212
 20
659.2644354327834
 30
0.0
 10
474.7303094626979
 20
659.2641412562563
 30
0.0
  0
LINE
  5
215
330
1F
100
AcDbEntity
  8
0
  6
Continuous
 62
     7
370
    25
100
AcDbLine
 10
488.9723669875
 20
663.6056221559
 30
0.0
 11
487.5316986254
 21
663.081478474
 31
0.0
  0
ARC
  5
216
330
1F
100
AcDbEntity
  8
0
  6
Continuous
 62
     7
370
    25
100
AcDbCircle
 10
481.7282658343
 20
659.4723760931
 30
0.0
 40
6.834138728220841
100
AcDbArc
 50
31.8771071303
 51
46.9488007428
  0
SPLINE
  5
217
330
1F
100
AcDbEntity
  8
0
  6
Continuous
 62
     7
370
    25
100
AcDbSpline
210
0.0
220
0.0
230
1.0
 70
     8
 71
     3
 72
    10
 73
     6
 74
     0
 42
0.00000001
 43
0.00000001
 40
0.0
 40
0.0
 40
0.0
 40
0.0
 40
0.5975855365574454
 40
0.9790563563181981
 40
1.0
 40
1.0
 40
1.0
 40
1.0
 10
474.6202841430102
 20
659.2732681535956
 30
0.0
 10
474.6177650036568
 20
659.2695288558693
 30
0.0
 10
474.6136377628761
 20
659.2634025643458
 30
0.0
 10
474.6880088894317
 20
659.2630260054892
 30
0.0
 10
474.728216841536
 20
659.2640860844897
 30
0.0
 10
474.7303094626979
 20
659.2641412562563
 30
0.0
  0
SPLINE
  5
218
330
1F
100
AcDbEntity
  8
0
  6
Continuous
 62
     7
370
    25
100
AcDbSpline
210
0.0
220
0.0
230
1.0
 70
     8
 71
     3
 72
    14
 73
    10
 74
     0
 42
0.00000001
 43
0.00000001
 40
0.0
 40
0.0
 40
0.0
 40
0.0
 40
0.0129036569231464
 40
0.0519665716781148
 40
0.131889182426121
 40
0.2280032005552168
 40
0.4679440229400842
 40
0.7079115564493631
 40
0.9999999999999999
 40
0.9999999999999999
 40
0.9999999999999999
 40
0.9999999999999999
 10
474.6202841430102
 20
659.2732681535956
 30
0.0
 10
474.6537527194745
 20
659.281113127657
 30
0.0
 10
474.7885398723072
 20
659.3127069935896
 30
0.0
 10
475.2278133172998
 20
659.4150890408833
 30
0.0
 10
476.0392407355256
 20
659.6174905497003
 30
0.0
 10
477.6927179173462
 20
660.0845412304666
 30
0.0
 10
480.0370079895899
 20
660.9219982898569
 30
0.0
 10
483.1821021660871
 20
662.3669385302072
 30
0.0
 10
485.2554008402796
 20
663.7223094130019
 30
0.0
 10
486.3936017230267
 20
664.4663818201516
 30
0.0
  0
LWPOLYLINE
  5
219
330
1F
100
AcDbEntity
  8
0
  6
Continuous
 62
     7
370
    25
100
AcDbPolyline
 90
        4
 70
   128
 43
0.0
 10
474.6007573289
 20
659.4243637299
 10
474.6030019646
 20
659.407005583
 10
474.6119769986
 20
659.3375728368
 10
474.620284143
 20
659.2732681536
  0
LINE
  5
21A
330
1F
100
AcDbEntity
  8
0
  6
Continuous
 62
     7
370
    25
100
AcDbLine
 10
476.3888816127
 20
659.8538912332
 30
0.0
 11
474.6007573289
 21
659.4243637299
 31
0.0
  0
ARC
  5
21B
330
1F
100
AcDbEntity
  8
0
  6
Continuous
 62
     7
370
    25
100
AcDbCircle
 10
468.2033232142
 20
690.279584827
 30
0.0
 40
31.50755777528338
100
AcDbArc
 50
285.0579972479
 51
305.1719294169
  0
LINE
  5
21C
330
1F
100
AcDbEntity
  8
0
  6
Continuous
 62
     7
370
    25
100
AcDbLine
 10
486.393601723
 20
664.4663818202
 30
0.0
 11
486.3526818368
 21
664.5244498332
 31
0.0
  0
SPLINE
  5
21D
330
1F
100
AcDbEntity
  8
0
  6
Continuous
 62
     7
370
    25
100
AcDbSpline
210
0.0
220
0.0
230
1.0
 70
     8
 71
     3
 72
     9
 73
     5
 74
     0
 42
0.00000001
 43
0.00000001
 40
0.0
 40
0.0
 40
0.0
 40
0.0
 40
0.4998978730609624
 40
1.0
 40
1.0
 40
1.0
 40
1.0
 10
491.0724495035658
 20
663.7216131046571
 30
0.0
 10
491.2206444194616
 20
663.7415794426594
 30
0.0
 10
491.5170948023936
 20
663.7815202767341
 30
0.0
 10
491.7658280311702
 20
663.9476862193045
 30
0.0
 10
491.8902200479218
 20
664.030786160609
 30
0.0
  0
ARC
  5
21E
330
1F
100
AcDbEntity
  8
0
  6
Continuous
 62
     7
370
    25
100
AcDbCircle
 10
474.5189488281
 20
659.7629695934
 30
0.0
 40
0.500076340408672
100
AcDbArc
 50
273.1626296401
 51
281.6913635614
  0
ARC
  5
21F
330
1F
100
AcDbEntity
  8
0
  6
Continuous
 62
     7
370
    25
100
AcDbCircle
 10
482.8179581411
 20
689.421277604
 30
0.0
 40
48.10950076354644
100
AcDbArc
 50
282.8580809319
 51
283.1066633214
  0
SPLINE
  5
220
330
1F
100
AcDbEntity
  8
0
  6
Continuous
 62
     7
370
    25
100
AcDbSpline
210
0.0
220
0.0
230
1.0
 70
     8
 71
     3
 72
    12
 73
     8
 74
     0
 42
0.00000001
 43
0.00000001
 40
0.0
 40
0.0
 40
0.0
 40
0.0
 40
0.046072672532115
 40
0.2494576442748305
 40
0.4755636088397373
 40
0.7057929889265022
 40
1.0
 40
1.0
 40
1.0
 40
1.0
 10
503.4333160224228
 20
646.0385049448787
 30
0.0
 10
503.3049806132475
 20
645.9760002455394
 30
0.0
 10
502.6101164542902
 20
645.6375724054261
 30
0.0
 10
501.257317484768
 20
645.0219889892857
 30
0.0
 10
499.2494488406865
 20
644.2145296840312
 30
0.0
 10
496.7541770256809
 20
643.3414095665031
 30
0.0
 10
494.8152308375462
 20
642.8440599268602
 30
0.0
 10
493.7274886971097
 20
642.5650484901936
 30
0.0
  0
LWPOLYLINE
  5
221
330
1F
100
AcDbEntity
  8
0
  6
Continuous
 62
     7
370
    25
100
AcDbPolyline
 90
        3
 70
   128
 43
0.0
 10
503.4333160224
 20
646.0385049449
 10
503.4766728991
 20
646.0111134725
 10
503.5812509722
 20
645.9451154424
  0
ARC
  5
222
330
1F
100
AcDbEntity
  8
0
  6
Continuous
 62
     7
370
    25
100
AcDbCircle
 10
482.8179581411
 20
689.421277604
 30
0.0
 40
48.17977797259051
100
AcDbArc
 50
282.8580809319
 51
295.5281512988
  0
LINE
  5
223
330
1F
100
AcDbEntity
  8
0
  6
Continuous
 62
     7
370
    25
100
AcDbLine
 10
493.5240971056
 20
642.5181577484
 30
0.0
 11
493.5397363776
 21
642.4496427917
 31
0.0
  0
LINE
  5
224
330
1F
100
AcDbEntity
  8
0
  6
Continuous
 62
     7
370
    25
100
AcDbLine
 10
493.2740286192
 20
644.5126510194
 30
0.0
 11
493.7274886971
 21
642.5650484902
 31
0.0
  0
SPLINE
  5
225
330
1F
100
AcDbEntity
  8
0
  6
Continuous
 62
     7
370
    25
100
AcDbSpline
210
0.0
220
0.0
230
1.0
 70
     8
 71
     3
 72
    13
 73
     9
 74
     0
 42
0.00000001
 43
0.00000001
 40
0.0
 40
0.0
 40
0.0
 40
0.0
 40
0.2574896950994368
 40
0.4890886589321025
 40
0.7206004760683485
 40
0.9447506334961274
 40
0.9460032291293288
 40
1.0
 40
1.0
 40
1.0
 40
1.0
 10
493.2740286192227
 20
644.5126510194077
 30
0.0
 10
494.1927541952106
 20
644.4845880552929
 30
0.0
 10
495.9378269823487
 20
644.4312838736274
 30
0.0
 10
498.4323922282621
 20
644.5958479924655
 30
0.0
 10
500.7480420342629
 20
645.0092219874757
 30
0.0
 10
502.225150635867
 20
645.508779174039
 30
0.0
 10
503.0964120804077
 20
645.883022028969
 30
0.0
 10
503.2664584892306
 20
645.9620024474541
 30
0.0
 10
503.4326496612859
 20
646.0391922476288
 30
0.0
  0
LINE
  5
226
330
1F
100
AcDbEntity
  8
0
  6
Continuous
 62
     7
370
    25
100
AcDbLine
 10
503.4326496613
 20
646.0391922476
 30
0.0
 11
503.4333160224
 21
646.0385049449
 31
0.0
  0
LINE
  5
227
330
1F
100
AcDbEntity
  8
0
  6
Continuous
 62
     7
370
    25
100
AcDbLine
 10
487.1687093034
 20
645.8205354269
 30
0.0
 11
486.039233886
 21
644.1703636373
 31
0.0
  0
SPLINE
  5
228
330
1F
100
AcDbEntity
  8
0
  6
Continuous
 62
     7
370
    25
100
AcDbSpline
210
0.0
220
0.0
230
1.0
 70
     8
 71
     3
 72
    14
 73
    10
 74
     0
 42
0.00000001
 43
0.00000001
 40
0.0
 40
0.0
 40
0.0
 40
0.0
 40
0.2256458607195977
 40
0.4518169308148961
 40
0.8157761447763431
 40
0.8946140573305374
 40
0.9637846180221655
 40
0.994079914312567
 40
1.0
 40
1.0
 40
1.0
 40
1.0
 10
486.0392338859539
 20
644.1703636372508
 30
0.0
 10
485.1934863388828
 20
644.7153873597522
 30
0.0
 10
483.5000226974789
 20
645.8067033924792
 30
0.0
 10
480.3198005974266
 20
647.3721444772814
 30
0.0
 10
477.6485225342602
 20
648.3255233115173
 30
0.0
 10
475.6979940470091
 20
648.8469714576463
 30
0.0
 10
475.0539175365672
 20
649.0023521322885
 30
0.0
 10
474.7259666403405
 20
649.077902193133
 30
0.0
 10
474.6334293077418
 20
649.0994229672782
 30
0.0
 10
474.6183023393556
 20
649.1029409427913
 30
0.0
  0
SPLINE
  5
229
330
1F
100
AcDbEntity
  8
0
  6
Continuous
 62
     7
370
    25
100
AcDbSpline
210
0.0
220
0.0
230
1.0
 70
     8
 71
     3
 72
    11
 73
     7
 74
     0
 42
0.00000001
 43
0.00000001
 40
0.0
 40
0.0
 40
0.0
 40
0.0
 40
0.0195561212295927
 40
0.1681891996744411
 40
0.5898876540792777
 40
1.0
 40
1.0
 40
1.0
 40
1.0
 10
474.7282437307726
 20
649.1112085048843
 30
0.0
 10
474.7262850176246
 20
649.1112666186001
 30
0.0
 10
474.7094394278018
 20
649.1117664160408
 30
0.0
 10
474.6575388640427
 20
649.1126128334544
 30
0.0
 10
474.6082542319771
 20
649.1105235349322
 30
0.0
 10
474.6149842170535
 20
649.1054448937488
 30
0.0
 10
474.6183023393555
 20
649.1029409427913
 30
0.0
  0
SPLINE
  5
22A
330
1F
100
AcDbEntity
  8
0
  6
Continuous
 62
     7
370
    25
100
AcDbSpline
210
0.0
220
0.0
230
1.0
 70
     8
 71
     3
 72
    17
 73
    13
 74
     0
 42
0.00000001
 43
0.00000001
 40
0.0
 40
0.0
 40
0.0
 40
0.0
 40
0.0068263121770685
 40
0.0088448507297254
 40
0.0223990310416126
 40
0.0309593028397538
 40
0.0563218912149143
 40
0.1198824177066684
 40
0.1957460556357056
 40
0.5558621944880031
 40
0.77803360979772
 40
1.0
 40
1.0
 40
1.0
 40
1.0
 10
474.7282437307726
 20
649.1112085048843
 30
0.0
 10
474.7318638759343
 20
649.1101703218393
 30
0.0
 10
474.7365544969817
 20
649.1088251483656
 30
0.0
 10
474.780087209685
 20
649.1012351602906
 30
0.0
 10
474.8546191321175
 20
649.089483653484
 30
0.0
 10
475.0214513776194
 20
649.0637647582608
 30
0.0
 10
475.4030274946868
 20
649.0052501792386
 30
0.0
 10
476.0859284614211
 20
648.8960531946514
 30
0.0
 10
478.1909277783388
 20
648.5288809622274
 30
0.0
 10
481.0038623601249
 20
647.894703278262
 30
0.0
 10
484.4026465746916
 20
646.8817629864035
 30
0.0
 10
486.2469721894553
 20
646.1741690657168
 30
0.0
 10
487.1687093034459
 20
645.8205354268898
 30
0.0
  0
LINE
  5
22B
330
1F
100
AcDbEntity
  8
0
  6
Continuous
 62
     7
370
    25
100
AcDbLine
 10
491.2621521542
 20
648.1980140427
 30
0.0
 11
491.1187903253
 21
645.6023660732
 31
0.0
  0
LINE
  5
22C
330
1F
100
AcDbEntity
  8
0
  6
Continuous
 62
     7
370
    25
100
AcDbLine
 10
491.1187903253
 20
645.6023660732
 30
0.0
 11
487.1687093034
 21
645.8205354269
 31
0.0
  0
LINE
  5
22D
330
1F
100
AcDbEntity
  8
0
  6
Continuous
 62
     7
370
    25
100
AcDbLine
 10
494.0806043932
 20
647.1330400648
 30
0.0
 11
492.4716474
 21
645.0911785639
 31
0.0
  0
LINE
  5
22E
330
1F
100
AcDbEntity
  8
0
  6
Continuous
 62
     7
370
    25
100
AcDbLine
 10
503.4326496613
 20
646.0391922476
 30
0.0
 11
503.4320817758
 21
646.0397792885
 31
0.0
  0
ARC
  5
22F
330
1F
100
AcDbEntity
  8
0
  6
Continuous
 62
     7
370
    25
100
AcDbCircle
 10
499.645937548
 20
654.195776705
 30
0.0
 40
11.59155496206737
100
AcDbArc
 50
231.762407147
 51
236.6533814372
  0
LWPOLYLINE
  5
230
330
1F
100
AcDbEntity
  8
0
  6
Continuous
 62
     7
370
    25
100
AcDbPolyline
 90
        4
 70
   128
 43
0.0
 10
474.6183023394
 20
649.1029409428
 10
474.616060093
 20
649.0855826878
 10
474.6070876102
 20
649.0161498262
 10
474.6007573289
 20
648.9671896801
  0
ARC
  5
231
330
1F
100
AcDbEntity
  8
0
  6
Continuous
 62
     7
370
    25
100
AcDbCircle
 10
468.2033232142
 20
618.111968583
 30
0.0
 40
31.57783498432758
100
AcDbArc
 50
54.8280705831
 51
55.6099480104
  0
LINE
  5
232
330
1F
100
AcDbEntity
  8
0
  6
Continuous
 62
     7
370
    25
100
AcDbLine
 10
486.3931637516
 20
643.9245500796
 30
0.0
 11
486.3526818368
 21
643.8671035768
 31
0.0
  0
ARC
  5
233
330
1F
100
AcDbEntity
  8
0
  6
Continuous
 62
     7
370
    25
100
AcDbCircle
 10
468.2033232142
 20
618.111968583
 30
0.0
 40
31.50755777528346
100
AcDbArc
 50
54.8280705831
 51
74.9420027521
  0
LINE
  5
234
330
1F
100
AcDbEntity
  8
0
  6
Continuous
 62
     7
370
    25
100
AcDbLine
 10
474.6007573289
 20
648.9671896801
 30
0.0
 11
476.3888816127
 21
648.5376621768
 31
0.0
  0
LINE
  5
235
330
1F
100
AcDbEntity
  8
0
  6
Continuous
 62
     7
370
    25
100
AcDbLine
 10
474.5269199196
 20
659.4140454336
 30
0.0
 11
474.6007573289
 21
659.4243637299
 31
0.0
  0
SPLINE
  5
236
330
1F
100
AcDbEntity
  8
0
  6
Continuous
 62
     7
370
    25
100
AcDbSpline
210
0.0
220
0.0
230
1.0
 70
     8
 71
     3
 72
    10
 73
     6
 74
     0
 42
0.00000001
 43
0.00000001
 40
0.0
 40
0.0
 40
0.0
 40
0.0
 40
0.0490769085761659
 40
0.599580584366531
 40
1.0
 40
1.0
 40
1.0
 40
1.0
 10
492.4716473999828
 20
645.0911785638563
 30
0.0
 10
492.4526998616137
 20
645.1058012994578
 30
0.0
 10
492.2212146997072
 20
645.2844496416468
 30
0.0
 10
491.7753409248899
 20
645.518501635068
 30
0.0
 10
491.3133343480054
 20
645.5775160080857
 30
0.0
 10
491.1187903252518
 20
645.6023660732179
 30
0.0
  0
ARC
  5
237
330
1F
100
AcDbEntity
  8
0
  6
Continuous
 62
     7
370
    25
100
AcDbCircle
 10
474.5169489384
 20
648.6132432458
 30
0.0
 40
0.500076340490795
100
AcDbArc
 50
78.3065203377
 51
86.8373700347
  0
SPLINE
  5
238
330
1F
100
AcDbEntity
  8
0
  6
Continuous
 62
     7
370
    25
100
AcDbSpline
210
0.0
220
0.0
230
1.0
 70
     8
 71
     3
 72
     9
 73
     5
 74
     0
 42
0.00000001
 43
0.00000001
 40
0.0
 40
0.0
 40
0.0
 40
0.0
 40
0.8458911907785839
 40
1.0
 40
1.0
 40
1.0
 40
1.0
 10
474.600757328945
 20
648.967189680105
 30
0.0
 10
474.579916732834
 20
648.9710044870974
 30
0.0
 10
474.5552792896992
 20
648.9755142952547
 30
0.0
 10
474.5307067625229
 20
648.9772417590058
 30
0.0
 10
474.5269199196201
 20
648.9775079763874
 30
0.0
  0
LINE
  5
239
330
1F
100
AcDbEntity
  8
0
  6
Continuous
 62
     7
370
    25
100
AcDbLine
 10
456.531499722
 20
650.0437638297
 30
0.0
 11
456.5319577418
 21
650.0437387432
 31
0.0
  0
LINE
  5
23A
330
1F
100
AcDbEntity
  8
0
  6
Continuous
 62
     7
370
    25
100
AcDbLine
 10
486.393601723
 20
664.4663818202
 30
0.0
 11
488.2323425723
 21
665.4633480558
 31
0.0
  0
LINE
  5
23B
330
1F
100
AcDbEntity
  8
0
  6
Continuous
 62
     7
370
    25
100
AcDbLine
 10
488.9723669875
 20
663.6056221559
 30
0.0
 11
488.2323425723
 21
665.4633480558
 31
0.0
  0
LINE
  5
23C
330
1F
100
AcDbEntity
  8
0
  6
Continuous
 62
     7
370
    25
100
AcDbLine
 10
491.9591373143
 20
664.0847436429
 30
0.0
 11
492.0809710609
 21
666.0807241519
 31
0.0
  0
LINE
  5
23D
330
1F
100
AcDbEntity
  8
0
  6
Continuous
 62
     7
370
    25
100
AcDbLine
 10
492.0809710609
 20
666.0807241519
 30
0.0
 11
493.5238783006
 21
665.8724370867
 31
0.0
  0
ARC
  5
23E
330
1F
100
AcDbEntity
  8
0
  6
Continuous
 62
     7
370
    25
100
AcDbCircle
 10
482.8179581411
 20
689.421277604
 30
0.0
 40
46.10980537323367
100
AcDbArc
 50
282.8580809319
 51
283.1066633214
  0
LINE
  5
23F
330
1F
100
AcDbEntity
  8
0
  6
Continuous
 62
     7
370
    25
100
AcDbLine
 10
493.0790911007
 20
644.4677093147
 30
0.0
 11
493.5240971056
 21
642.5181577484
 31
0.0
  0
ARC
  5
240
330
1F
100
AcDbEntity
  8
0
  6
Continuous
 62
     7
370
    25
100
AcDbCircle
 10
491.5369223427
 20
657.1676711808
 30
0.0
 40
6.929946387144301
100
AcDbArc
 50
86.5070253286
 51
111.7198462835
  0
ARC
  5
241
330
1F
100
AcDbEntity
  8
0
  6
Continuous
 62
     7
370
    25
100
AcDbCircle
 10
491.5369223427
 20
657.1676711808
 30
0.0
 40
8.929641777457185
100
AcDbArc
 50
86.5070253286
 51
111.7198462835
  0
ARC
  5
242
330
1F
100
AcDbEntity
  8
0
  6
Continuous
 62
     7
370
    25
100
AcDbCircle
 10
491.5369223427
 20
651.2238822292
 30
0.0
 40
6.929946387144297
100
AcDbArc
 50
234.8280705831
 51
282.8580809319
  0
ARC
  5
243
330
1F
100
AcDbEntity
  8
0
  6
Continuous
 62
     7
370
    25
100
AcDbCircle
 10
491.5369223427
 20
651.2238822292
 30
0.0
 40
8.929641777457059
100
AcDbArc
 50
234.8280705831
 51
282.8580809319
  0
LINE
  5
244
330
1F
100
AcDbEntity
  8
0
  6
Continuous
 62
     7
370
    25
100
AcDbLine
 10
487.5450521028
 20
645.5591555
 30
0.0
 11
486.3931637516
 21
643.9245500796
 31
0.0
  0
ARC
  5
245
330
1F
100
AcDbEntity
  8
0
  6
Continuous
 62
     7
370
    25
100
AcDbCircle
 10
468.2033232142
 20
618.111968583
 30
0.0
 40
33.57753037464043
100
AcDbArc
 50
54.8280705831
 51
55.6099480104
  0
ARC
  5
246
330
1F
100
AcDbEntity
  8
0
  6
Continuous
 62
     7
370
    25
100
AcDbCircle
 10
491.5369223427
 20
657.1676711808
 30
0.0
 40
8.999918986501271
100
AcDbArc
 50
77.1419190681
 51
125.1719294169
  0
ARC
  5
247
330
1F
100
AcDbEntity
  8
0
  6
Continuous
 62
     7
370
    25
100
AcDbCircle
 10
491.5369223427
 20
651.2238822292
 30
0.0
 40
8.999918986501177
100
AcDbArc
 50
234.8280705831
 51
282.8580809319
  0
CIRCLE
  5
248
330
1F
100
AcDbEntity
  8
0
  6
Continuous
 62
     7
370
    25
100
AcDbCircle
 10
499.645937548
 20
654.195776705
 30
0.0
 40
5.328914336627577
  0
CIRCLE
  5
249
330
1F
100
AcDbEntity
  8
0
  6
Continuous
 62
     7
370
    25
100
AcDbCircle
 10
499.645937548
 20
654.195776705
 30
0.0
 40
5.074569253689219
  0
CIRCLE
  5
24A
330
1F
100
AcDbEntity
  8
0
  6
Continuous
 62
     7
370
    25
100
AcDbCircle
 10
499.645937548
 20
654.195776705
 30
0.0
 40
5.925127771161442
  0
CIRCLE
  5
24B
330
1F
100
AcDbEntity
  8
0
  6
Continuous
 62
     7
370
    25
100
AcDbCircle
 10
499.645937548
 20
654.195776705
 30
0.0
 40
4.452105871057256
  0
CIRCLE
  5
24C
330
1F
100
AcDbEntity
  8
0
  6
Continuous
 62
     7
370
    25
100
AcDbCircle
 10
499.645937548
 20
654.195776705
 30
0.0
 40
7.149999999999977
  0
SPLINE
  5
24D
330
1F
100
AcDbEntity
  8
0
  6
Continuous
 62
     7
370
    25
100
AcDbSpline
210
0.0
220
0.0
230
1.0
 70
    24
 71
     3
 72
    10
 73
     6
 74
     0
 42
0.00000001
 43
0.00000001
 40
0.0
 40
0.0
 40
0.0
 40
0.0
 40
0.0299945967999657
 40
0.5125749568846015
 40
1.0
 40
1.0
 40
1.0
 40
1.0
 10
716.6659843759506
 20
665.0729746680404
 30
0.0
 10
716.6275469149042
 20
665.1395503034868
 30
0.0
 10
715.970692613109
 20
666.277255327366
 30
0.0
 10
714.7020740209374
 20
668.474567184434
 30
0.0
 10
713.4999843142609
 20
670.5566476316533
 30
0.0
 10
712.8959375479517
 20
671.6028873210485
 30
0.0
  0
SPLINE
  5
24E
330
1F
100
AcDbEntity
  8
0
  6
Continuous
 62
     7
370
    25
100
AcDbSpline
210
0.0
220
0.0
230
1.0
 70
    24
 71
     3
 72
     9
 73
     5
 74
     0
 42
0.00000001
 43
0.00000001
 40
0.0
 40
0.0
 40
0.0
 40
0.0
 40
0.5833730637201431
 40
1.0
 40
1.0
 40
1.0
 40
1.0
 10
712.8959375479517
 20
636.7886660889139
 30
0.0
 10
713.7675466440712
 20
638.2983373277323
 30
0.0
 10
715.2616319049869
 20
640.886168910478
 30
0.0
 10
716.8068127013241
 20
643.5625005566137
 30
0.0
 10
717.4505766425006
 20
644.6775324108121
 30
0.0
  0
SPLINE
  5
24F
330
1F
100
AcDbEntity
  8
0
  6
Continuous
 62
     7
370
    25
100
AcDbSpline
210
0.0
220
0.0
230
1.0
 70
    24
 71
     3
 72
     9
 73
     5
 74
     0
 42
0.00000001
 43
0.00000001
 40
0.0
 40
0.0
 40
0.0
 40
0.0
 40
0.602178860229639
 40
1.0
 40
1.0
 40
1.0
 40
1.0
 10
692.7959375479517
 20
636.7886660889139
 30
0.0
 10
694.5387820344234
 20
636.7886660889139
 30
0.0
 10
697.4330126386116
 20
636.7886660889139
 30
0.0
 10
700.4262429288062
 20
636.7886660889139
 30
0.0
 10
701.6170132144466
 20
636.7886660889139
 30
0.0
  0
SPLINE
  5
250
330
1F
100
AcDbEntity
  8
0
  6
Continuous
 62
     7
370
    25
100
AcDbSpline
210
0.0
220
0.0
230
1.0
 70
    24
 71
     3
 72
     9
 73
     5
 74
     0
 42
0.00000001
 43
0.00000001
 40
0.0
 40
0.0
 40
0.0
 40
0.0
 40
0.4460345965193496
 40
1.0
 40
1.0
 40
1.0
 40
1.0
 10
704.4019963375318
 20
636.7886660889139
 30
0.0
 10
705.6859626734393
 20
636.7886660889139
 30
0.0
 10
708.5645876633548
 20
636.7886660889139
 30
0.0
 10
711.3518761543954
 20
636.7886660889139
 30
0.0
 10
712.8959375479517
 20
636.7886660889139
 30
0.0
  0
SPLINE
  5
251
330
1F
100
AcDbEntity
  8
0
  6
Continuous
 62
     7
370
    25
100
AcDbSpline
210
0.0
220
0.0
230
1.0
 70
    24
 71
     3
 72
     9
 73
     5
 74
     0
 42
0.00000001
 43
0.00000001
 40
0.0
 40
0.0
 40
0.0
 40
0.0
 40
0.5298579913551666
 40
1.0
 40
1.0
 40
1.0
 40
1.0
 10
690.0579985702428
 20
641.5309155063287
 30
0.0
 10
690.5488923281168
 20
640.6806625765724
 30
0.0
 10
691.4753552028554
 20
639.0759818061993
 30
0.0
 10
692.3736237628523
 20
637.5201350214429
 30
0.0
 10
692.7959375479517
 20
636.7886660889139
 30
0.0
  0
SPLINE
  5
252
330
1F
100
AcDbEntity
  8
0
  6
Continuous
 62
     7
370
    25
100
AcDbSpline
210
0.0
220
0.0
230
1.0
 70
    24
 71
     3
 72
     9
 73
     5
 74
     0
 42
0.00000001
 43
0.00000001
 40
0.0
 40
0.0
 40
0.0
 40
0.0
 40
0.9623249694506831
 40
1.0
 40
1.0
 40
1.0
 40
1.0
 10
692.7959375479517
 20
671.6028873210485
 30
0.0
 10
691.9280936875302
 20
670.0997376617617
 30
0.0
 10
691.026273732763
 20
668.5377396808252
 30
0.0
 10
690.0934790449402
 20
666.9220918884862
 30
0.0
 10
690.0583359765803
 20
666.8612223085528
 30
0.0
  0
SPLINE
  5
253
330
1F
100
AcDbEntity
  8
0
  6
Continuous
 62
     7
370
    25
100
AcDbSpline
210
0.0
220
0.0
230
1.0
 70
    24
 71
     3
 72
     9
 73
     5
 74
     0
 42
0.00000001
 43
0.00000001
 40
0.0
 40
0.0
 40
0.0
 40
0.0
 40
0.6612458586337078
 40
1.0
 40
1.0
 40
1.0
 40
1.0
 10
712.8959375479517
 20
671.6028873210485
 30
0.0
 10
711.1542668313837
 20
671.6028873210485
 30
0.0
 10
708.5203437695945
 20
671.6028873210485
 30
0.0
 10
705.7962643502204
 20
671.6028873210485
 30
0.0
 10
704.8734711654968
 20
671.6028873210485
 30
0.0
  0
SPLINE
  5
254
330
1F
100
AcDbEntity
  8
0
  6
Continuous
 62
     7
370
    25
100
AcDbSpline
210
0.0
220
0.0
230
1.0
 70
    24
 71
     3
 72
     9
 73
     5
 74
     0
 42
0.00000001
 43
0.00000001
 40
0.0
 40
0.0
 40
0.0
 40
0.0
 40
0.4830832238852968
 40
0.9999999999999999
 40
0.9999999999999999
 40
0.9999999999999999
 40
0.9999999999999999
 10
701.9059121230904
 20
671.6028873210485
 30
0.0
 10
700.4150440855375
 20
671.6028873210485
 30
0.0
 10
697.3288925409605
 20
671.6028873210485
 30
0.0
 10
694.3406237945239
 20
671.6028873210485
 30
0.0
 10
692.7959375479517
 20
671.6028873210485
 30
0.0
  0
SPLINE
  5
255
330
1F
100
AcDbEntity
  8
0
  6
Continuous
 62
     7
370
    25
100
AcDbSpline
210
0.0
220
0.0
230
1.0
 70
    24
 71
     3
 72
    10
 73
     6
 74
     0
 42
0.00000001
 43
0.00000001
 40
0.0
 40
0.0
 40
0.0
 40
0.0
 40
0.1944312849795339
 40
0.5952039397348659
 40
1.0
 40
1.0
 40
1.0
 40
1.0
 10
485.0412984534026
 20
644.6775324108122
 30
0.0
 10
485.3415750717281
 20
644.1574380515476
 30
0.0
 10
486.2607986743308
 20
642.5652960683233
 30
0.0
 10
487.7902604818914
 20
639.9161905093921
 30
0.0
 10
488.9920444263265
 20
637.83463965791
 30
0.0
 10
489.5959375479516
 20
636.7886660889139
 30
0.0
  0
SPLINE
  5
256
330
1F
100
AcDbEntity
  8
0
  6
Continuous
 62
     7
370
    25
100
AcDbSpline
210
0.0
220
0.0
230
1.0
 70
    24
 71
     3
 72
     9
 73
     5
 74
     0
 42
0.00000001
 43
0.00000001
 40
0.0
 40
0.0
 40
0.0
 40
0.0
 40
0.7028901263083644
 40
1.0
 40
1.0
 40
1.0
 40
1.0
 10
489.5959375479516
 20
671.6028873210485
 30
0.0
 10
488.7255159637663
 20
670.095272913235
 30
0.0
 10
487.4871693835452
 20
667.9503937189128
 30
0.0
 10
486.2064153801357
 20
665.7320627130102
 30
0.0
 10
485.8258907199526
 20
665.0729746680404
 30
0.0
  0
SPLINE
  5
257
330
1F
100
AcDbEntity
  8
0
  6
Continuous
 62
     7
370
    25
100
AcDbSpline
210
0.0
220
0.0
230
1.0
 70
    24
 71
     3
 72
     9
 73
     5
 74
     0
 42
0.00000001
 43
0.00000001
 40
0.0
 40
0.0
 40
0.0
 40
0.0
 40
0.5833290455374875
 40
1.0
 40
1.0
 40
1.0
 40
1.0
 10
509.6959375479516
 20
671.6028873210485
 30
0.0
 10
507.9527184809902
 20
671.6028873210485
 30
0.0
 10
504.9643209713906
 20
671.6028873210485
 30
0.0
 10
501.8737246795798
 20
671.6028873210485
 30
0.0
 10
500.5859629728126
 20
671.6028873210485
 30
0.0
  0
SPLINE
  5
258
330
1F
100
AcDbEntity
  8
0
  6
Continuous
 62
     7
370
    25
100
AcDbSpline
210
0.0
220
0.0
230
1.0
 70
    24
 71
     3
 72
     9
 73
     5
 74
     0
 42
0.00000001
 43
0.00000001
 40
0.0
 40
0.0
 40
0.0
 40
0.0
 40
0.4138839754617236
 40
1.0
 40
1.0
 40
1.0
 40
1.0
 10
497.6184039304065
 20
671.6028873210485
 30
0.0
 10
496.4927236737428
 20
671.6028873210485
 30
0.0
 10
493.77292700752
 20
671.6028873210485
 30
0.0
 10
491.1394566970587
 20
671.6028873210485
 30
0.0
 10
489.5959375479516
 20
671.6028873210485
 30
0.0
  0
SPLINE
  5
259
330
1F
100
AcDbEntity
  8
0
  6
Continuous
 62
     7
370
    25
100
AcDbSpline
210
0.0
220
0.0
230
1.0
 70
    24
 71
     3
 72
     9
 73
     5
 74
     0
 42
0.00000001
 43
0.00000001
 40
0.0
 40
0.0
 40
0.0
 40
0.0
 40
0.5285907409837756
 40
1.0
 40
1.0
 40
1.0
 40
1.0
 10
512.4264450852133
 20
666.8735095360613
 30
0.0
 10
511.9380481390255
 20
667.7194378611202
 30
0.0
 10
511.0140876752478
 20
669.3197843285678
 30
0.0
 10
510.1182457337763
 20
670.8714280867478
 30
0.0
 10
509.6959375479516
 20
671.6028873210485
 30
0.0
  0
SPLINE
  5
25A
330
1F
100
AcDbEntity
  8
0
  6
Continuous
 62
     7
370
    25
100
AcDbSpline
210
0.0
220
0.0
230
1.0
 70
    24
 71
     3
 72
     9
 73
     5
 74
     0
 42
0.00000001
 43
0.00000001
 40
0.0
 40
0.0
 40
0.0
 40
0.0
 40
0.9665218128601523
 40
0.9999999999999999
 40
0.9999999999999999
 40
0.9999999999999999
 40
0.9999999999999999
 10
509.6959375479516
 20
636.7886660889139
 30
0.0
 10
510.5637397088742
 20
638.2917435225497
 30
0.0
 10
511.4616006255921
 20
639.8468842484353
 30
0.0
 10
512.390301776482
 20
641.4554418268248
 30
0.0
 10
512.4213930074085
 20
641.5092934184593
 30
0.0
  0
SPLINE
  5
25B
330
1F
100
AcDbEntity
  8
0
  6
Continuous
 62
     7
370
    25
100
AcDbSpline
210
0.0
220
0.0
230
1.0
 70
    24
 71
     3
 72
     9
 73
     5
 74
     0
 42
0.00000001
 43
0.00000001
 40
0.0
 40
0.0
 40
0.0
 40
0.0
 40
0.6250500449989042
 40
1.0
 40
1.0
 40
1.0
 40
1.0
 10
489.5959375479516
 20
636.7886660889139
 30
0.0
 10
491.3383275419137
 20
636.7886660889139
 30
0.0
 10
494.125928323488
 20
636.7886660889139
 30
0.0
 10
497.0089062969519
 20
636.7886660889139
 30
0.0
 10
498.0898787583714
 20
636.7886660889139
 30
0.0
  0
SPLINE
  5
25C
330
1F
100
AcDbEntity
  8
0
  6
Continuous
 62
     7
370
    25
100
AcDbSpline
210
0.0
220
0.0
230
1.0
 70
    24
 71
     3
 72
     9
 73
     5
 74
     0
 42
0.00000001
 43
0.00000001
 40
0.0
 40
0.0
 40
0.0
 40
0.0
 40
0.466345702005479
 40
1.0
 40
1.0
 40
1.0
 40
1.0
 10
500.8748618814568
 20
636.7886660889139
 30
0.0
 10
502.2686892423905
 20
636.7886660889139
 30
0.0
 10
505.2575178194303
 20
636.7886660889139
 30
0.0
 10
508.1515335922973
 20
636.7886660889139
 30
0.0
 10
509.6959375479516
 20
636.7886660889139
 30
0.0
  0
ARC
  5
25D
330
1F
100
AcDbEntity
  8
0
  6
Continuous
 62
     7
370
    25
100
AcDbCircle
 10
499.645937548
 20
654.195776705
 30
0.0
 40
25.79999999999998
100
AcDbArc
 50
27.7177476896
 51
90.0
  0
ARC
  5
25E
330
1F
100
AcDbEntity
  8
0
  6
Continuous
 62
     7
370
    25
100
AcDbCircle
 10
499.645937548
 20
654.195776705
 30
0.0
 40
25.80000000000005
100
AcDbArc
 50
191.8713290099
 51
332.2822523104
  0
ARC
  5
25F
330
1F
100
AcDbEntity
  8
0
  6
Continuous
 62
     7
370
    25
100
AcDbCircle
 10
499.645937548
 20
654.195776705
 30
0.0
 40
25.80000000000002
100
AcDbArc
 50
90.0
 51
168.1655124794
  0
ARC
  5
260
330
1F
100
AcDbEntity
  8
0
  6
Continuous
 62
     7
370
    25
100
AcDbCircle
 10
702.845937548
 20
654.195776705
 30
0.0
 40
25.80000000000007
100
AcDbArc
 50
207.7177476896
 51
270.0
  0
ARC
  5
261
330
1F
100
AcDbEntity
  8
0
  6
Continuous
 62
     7
370
    25
100
AcDbCircle
 10
702.845937548
 20
654.195776705
 30
0.0
 40
25.79999999999997
100
AcDbArc
 50
12.3952331737
 51
152.2822523104
  0
ARC
  5
262
330
1F
100
AcDbEntity
  8
0
  6
Continuous
 62
     7
370
    25
100
AcDbCircle
 10
702.845937548
 20
654.195776705
 30
0.0
 40
25.80000000000007
100
AcDbArc
 50
270.0
 51
348.9141211324
  0
ARC
  5
263
330
1F
100
AcDbEntity
  8
0
  6
Continuous
 62
     7
370
    25
100
AcDbCircle
 10
499.645937548
 20
654.195776705
 30
0.0
 40
10.30000000000012
100
AcDbArc
 50
292.7308609266
 51
307.2691390734
  0
SPLINE
  5
264
330
1F
100
AcDbEntity
  8
0
  6
Continuous
 62
     7
370
    25
100
AcDbSpline
210
0.0
220
0.0
230
1.0
 70
    24
 71
     3
 72
    10
 73
     6
 74
     0
 42
0.00000001
 43
0.00000001
 40
0.0
 40
0.0
 40
0.0
 40
0.0
 40
0.0773667677706992
 40
0.6825351311169566
 40
1.0
 40
1.0
 40
1.0
 40
1.0
 10
503.6258872963782
 20
644.6957767049811
 30
0.0
 10
503.5506747130019
 20
644.6957767049811
 30
0.0
 10
502.8871439499161
 20
644.6957767049811
 30
0.0
 10
501.8879056653606
 20
644.6957767049811
 30
0.0
 10
500.9324744252717
 20
644.6957767049811
 30
0.0
 10
500.603724232057
 20
644.6957767049811
 30
0.0
  0
SPLINE
  5
265
330
1F
100
AcDbEntity
  8
0
  6
Continuous
 62
     7
370
    25
100
AcDbSpline
210
0.0
220
0.0
230
1.0
 70
    24
 71
     3
 72
    10
 73
     6
 74
     0
 42
0.00000001
 43
0.00000001
 40
0.0
 40
0.0
 40
0.0
 40
0.0
 40
0.381535450999048
 40
0.9298957651327615
 40
1.0
 40
1.0
 40
1.0
 40
1.0
 10
500.2831819167113
 20
663.6957767049812
 30
0.0
 10
500.7195131188485
 20
663.6957767049812
 30
0.0
 10
501.7829596111733
 20
663.6957767049812
 30
0.0
 10
502.8871836549578
 20
663.6957767049812
 30
0.0
 10
503.5506787554324
 20
663.6957767049812
 30
0.0
 10
503.6258872963782
 20
663.6957767049812
 30
0.0
  0
ARC
  5
266
330
1F
100
AcDbEntity
  8
0
  6
Continuous
 62
     7
370
    25
100
AcDbCircle
 10
499.645937548
 20
654.195776705
 30
0.0
 40
10.30000000000001
100
AcDbArc
 50
52.7308609266
 51
67.2691390734
  0
SPLINE
  5
267
330
1F
100
AcDbEntity
  8
0
  6
Continuous
 62
     7
370
    25
100
AcDbSpline
210
0.0
220
0.0
230
1.0
 70
    24
 71
     3
 72
    11
 73
     7
 74
     0
 42
0.00000001
 43
0.00000001
 40
0.0
 40
0.0
 40
0.0
 40
0.0
 40
0.2431641197380913
 40
0.4936284730588932
 40
0.7421706076863291
 40
1.0
 40
1.0
 40
1.0
 40
1.0
 10
505.8832040096905
 20
662.392514292904
 30
0.0
 10
506.1969630113873
 20
661.8490677606331
 30
0.0
 10
506.8339006364072
 20
660.7458594328464
 30
0.0
 10
507.8442896054137
 20
658.9958144031199
 30
0.0
 10
508.8759967332498
 20
657.2088452391769
 30
0.0
 10
509.530102476148
 20
656.0759008589546
 30
0.0
 10
509.8631537581171
 20
655.4990391170583
 30
0.0
  0
ARC
  5
268
330
1F
100
AcDbEntity
  8
0
  6
Continuous
 62
     7
370
    25
100
AcDbCircle
 10
499.645937548
 20
654.195776705
 30
0.0
 40
10.30000000000005
100
AcDbArc
 50
352.7308609266
 51
7.2691390734
  0
SPLINE
  5
269
330
1F
100
AcDbEntity
  8
0
  6
Continuous
 62
     7
370
    25
100
AcDbSpline
210
0.0
220
0.0
230
1.0
 70
    24
 71
     3
 72
    11
 73
     7
 74
     0
 42
0.00000001
 43
0.00000001
 40
0.0
 40
0.0
 40
0.0
 40
0.0
 40
0.2431641197380911
 40
0.493628473058894
 40
0.742170607686329
 40
1.0
 40
1.0
 40
1.0
 40
1.0
 10
509.863153758117
 20
652.8925142929039
 30
0.0
 10
509.5493947564203
 20
652.3490677606331
 30
0.0
 10
508.9124571314003
 20
651.2458594328463
 30
0.0
 10
507.9020681623937
 20
649.4958144031198
 30
0.0
 10
506.8703610345577
 20
647.708845239177
 30
0.0
 10
506.2162552916596
 20
646.5759008589547
 30
0.0
 10
505.8832040096905
 20
645.9990391170584
 30
0.0
  0
SPLINE
  5
26A
330
1F
100
AcDbEntity
  8
0
  6
Continuous
 62
     7
370
    25
100
AcDbSpline
210
0.0
220
0.0
230
1.0
 70
    24
 71
     3
 72
    10
 73
     6
 74
     0
 42
0.00000001
 43
0.00000001
 40
0.0
 40
0.0
 40
0.0
 40
0.0
 40
0.4595088898646076
 40
0.9415862315085143
 40
1.0
 40
1.0
 40
1.0
 40
1.0
 10
702.8298908173555
 20
644.6957767049811
 30
0.0
 10
702.2079275214668
 20
644.6957767049811
 30
0.0
 10
700.933453645488
 20
644.6957767049811
 30
0.0
 10
699.6250424530632
 20
644.6957767049811
 30
0.0
 10
698.9400216643115
 20
644.6957767049811
 30
0.0
 10
698.8659877995251
 20
644.6957767049811
 30
0.0
  0
ARC
  5
26B
330
1F
100
AcDbEntity
  8
0
  6
Continuous
 62
     7
370
    25
100
AcDbCircle
 10
702.845937548
 20
654.195776705
 30
0.0
 40
10.30000000000012
100
AcDbArc
 50
232.7308609266
 51
247.2691390734
  0
SPLINE
  5
26C
330
1F
100
AcDbEntity
  8
0
  6
Continuous
 62
     7
370
    25
100
AcDbSpline
210
0.0
220
0.0
230
1.0
 70
    24
 71
     3
 72
    11
 73
     7
 74
     0
 42
0.00000001
 43
0.00000001
 40
0.0
 40
0.0
 40
0.0
 40
0.0
 40
0.2431641197380911
 40
0.4936284730588937
 40
0.7421706076863289
 40
1.0
 40
1.0
 40
1.0
 40
1.0
 10
696.6086710862127
 20
645.9990391170584
 30
0.0
 10
696.294912084516
 20
646.5424856493291
 30
0.0
 10
695.657974459496
 20
647.645693977116
 30
0.0
 10
694.6475854904894
 20
649.3957390068425
 30
0.0
 10
693.6158783626535
 20
651.1827081707854
 30
0.0
 10
692.9617726197553
 20
652.3156525510078
 30
0.0
 10
692.6287213377861
 20
652.8925142929039
 30
0.0
  0
ARC
  5
26D
330
1F
100
AcDbEntity
  8
0
  6
Continuous
 62
     7
370
    25
100
AcDbCircle
 10
702.845937548
 20
654.195776705
 30
0.0
 40
10.30000000000008
100
AcDbArc
 50
172.7308609266
 51
187.2691390734
  0
SPLINE
  5
26E
330
1F
100
AcDbEntity
  8
0
  6
Continuous
 62
     7
370
    25
100
AcDbSpline
210
0.0
220
0.0
230
1.0
 70
    24
 71
     3
 72
    11
 73
     7
 74
     0
 42
0.00000001
 43
0.00000001
 40
0.0
 40
0.0
 40
0.0
 40
0.0
 40
0.2431641197380909
 40
0.4936284730588934
 40
0.7421706076863288
 40
1.0
 40
1.0
 40
1.0
 40
1.0
 10
692.6287213377863
 20
655.4990391170583
 30
0.0
 10
692.942480339483
 20
656.0424856493293
 30
0.0
 10
693.5794179645029
 20
657.145693977116
 30
0.0
 10
694.5898069335095
 20
658.8957390068425
 30
0.0
 10
695.6215140613456
 20
660.6827081707854
 30
0.0
 10
696.2756198042438
 20
661.8156525510077
 30
0.0
 10
696.6086710862127
 20
662.3925142929039
 30
0.0
  0
ARC
  5
26F
330
1F
100
AcDbEntity
  8
0
  6
Continuous
 62
     7
370
    25
100
AcDbCircle
 10
702.845937548
 20
654.195776705
 30
0.0
 40
10.30000000000001
100
AcDbArc
 50
112.7308609266
 51
127.2691390734
  0
SPLINE
  5
270
330
1F
100
AcDbEntity
  8
0
  6
Continuous
 62
     7
370
    25
100
AcDbSpline
210
0.0
220
0.0
230
1.0
 70
    24
 71
     3
 72
    10
 73
     6
 74
     0
 42
0.00000001
 43
0.00000001
 40
0.0
 40
0.0
 40
0.0
 40
0.0
 40
0.1065761126077633
 40
0.9861278069344632
 40
1.0
 40
1.0
 40
1.0
 40
1.0
 10
698.8659877995252
 20
663.6957767049812
 30
0.0
 10
698.9400504095489
 20
663.6957767049812
 30
0.0
 10
699.625337172327
 20
663.6957767049812
 30
0.0
 10
700.335252835343
 20
663.6957767049812
 30
0.0
 10
700.9945897790454
 20
663.6957767049812
 30
0.0
 10
701.0048273040404
 20
663.6957767049812
 30
0.0
  0
ARC
  5
271
330
1F
100
AcDbEntity
  8
0
  6
Continuous
 62
     7
370
    25
100
AcDbCircle
 10
499.645937548
 20
654.195776705
 30
0.0
 40
10.57500000000004
100
AcDbArc
 50
261.6509017607
 51
30.0
  0
ARC
  5
272
330
1F
100
AcDbEntity
  8
0
  6
Continuous
 62
     7
370
    25
100
AcDbCircle
 10
499.645937548
 20
654.195776705
 30
0.0
 40
10.57499999999996
100
AcDbArc
 50
30.0
 51
98.3490982393
  0
ARC
  5
273
330
1F
100
AcDbEntity
  8
0
  6
Continuous
 62
     7
370
    25
100
AcDbCircle
 10
499.645937548
 20
654.195776705
 30
0.0
 40
14.87500000000004
100
AcDbArc
 50
233.3837470415
 51
30.0
  0
ARC
  5
274
330
1F
100
AcDbEntity
  8
0
  6
Continuous
 62
     7
370
    25
100
AcDbCircle
 10
499.645937548
 20
654.195776705
 30
0.0
 40
14.87500000000003
100
AcDbArc
 50
30.0
 51
126.6162529585
  0
ARC
  5
275
330
1F
100
AcDbEntity
  8
0
  6
Continuous
 62
     7
370
    25
100
AcDbCircle
 10
499.645937548
 20
654.195776705
 30
0.0
 40
16.20000000000004
100
AcDbArc
 50
223.9250761661
 51
136.0749238339
  0
SPLINE
  5
276
330
1F
100
AcDbEntity
  8
0
  6
Continuous
 62
     7
370
    25
100
AcDbSpline
210
0.0
220
0.0
230
1.0
 70
     8
 71
     3
 72
     9
 73
     5
 74
     0
 42
0.00000001
 43
0.00000001
 40
0.0
 40
0.0
 40
0.0
 40
0.0
 40
0.5850553834534097
 40
1.0
 40
1.0
 40
1.0
 40
1.0
 10
488.5195269000368
 20
640.967285253045
 30
0.0
 10
488.7793018198456
 20
640.5807387274809
 30
0.0
 10
489.223319475534
 20
639.9200379861558
 30
0.0
 10
489.8951706675669
 20
639.4418791540296
 30
0.0
 10
490.1739517028213
 20
639.2434697207847
 30
0.0
  0
LINE
  5
277
330
1F
100
AcDbEntity
  8
0
  6
Continuous
 62
     7
370
    25
100
AcDbLine
 10
487.0167991297
 20
643.5700861011
 30
0.0
 11
488.5195269
 21
640.967285253
 31
0.0
  0
SPLINE
  5
278
330
1F
100
AcDbEntity
  8
0
  6
Continuous
 62
     7
370
    25
100
AcDbSpline
210
0.0
220
0.0
230
1.0
 70
    24
 71
     3
 72
     9
 73
     5
 74
     0
 42
0.00000001
 43
0.00000001
 40
0.0
 40
0.0
 40
0.0
 40
0.0
 40
0.9412627626438231
 40
1.0
 40
1.0
 40
1.0
 40
1.0
 10
488.5195269000376
 20
667.4242681569187
 30
0.0
 10
488.0756494055111
 20
666.6554497840623
 30
0.0
 10
487.604072804223
 20
665.8386551509708
 30
0.0
 10
487.1113911354694
 20
664.9853054687318
 30
0.0
 10
487.0824523753508
 20
664.9351820658983
 30
0.0
  0
SPLINE
  5
279
330
1F
100
AcDbEntity
  8
0
  6
Continuous
 62
     7
370
    25
100
AcDbSpline
210
0.0
220
0.0
230
1.0
 70
     8
 71
     3
 72
     9
 73
     5
 74
     0
 42
0.00000001
 43
0.00000001
 40
0.0
 40
0.0
 40
0.0
 40
0.0
 40
0.584191749740925
 40
1.0
 40
1.0
 40
1.0
 40
1.0
 10
490.1739517028213
 20
669.1480836891776
 30
0.0
 10
489.7862954373707
 20
668.858807785678
 30
0.0
 10
489.1227183402576
 20
668.3636349188445
 30
0.0
 10
488.6966779918491
 20
667.7001504662333
 30
0.0
 10
488.5195269000376
 20
667.4242681569187
 30
0.0
  0
ARC
  5
27A
330
1F
100
AcDbEntity
  8
0
  6
Continuous
 62
     7
370
    25
100
AcDbCircle
 10
499.645937548
 20
654.195776705
 30
0.0
 40
17.70000000000002
100
AcDbArc
 50
117.6465635726
 51
122.3534364274
  0
SPLINE
  5
27B
330
1F
100
AcDbEntity
  8
0
  6
Continuous
 62
     7
370
    25
100
AcDbSpline
210
0.0
220
0.0
230
1.0
 70
     8
 71
     3
 72
     9
 73
     5
 74
     0
 42
0.00000001
 43
0.00000001
 40
0.0
 40
0.0
 40
0.0
 40
0.0
 40
0.5850553834536162
 40
1.0
 40
1.0
 40
1.0
 40
1.0
 10
493.7529332207854
 20
670.4457767049812
 30
0.0
 10
493.288286649998
 20
670.4140782879425
 30
0.0
 10
492.4940941958675
 20
670.3598980890499
 30
0.0
 10
491.7440709041865
 20
670.0171373052499
 30
0.0
 10
491.4328527770191
 20
669.8749105632489
 30
0.0
  0
SPLINE
  5
27C
330
1F
100
AcDbEntity
  8
0
  6
Continuous
 62
     7
370
    25
100
AcDbSpline
210
0.0
220
0.0
230
1.0
 70
    24
 71
     3
 72
    11
 73
     7
 74
     0
 42
0.00000001
 43
0.00000001
 40
0.0
 40
0.0
 40
0.0
 40
0.0
 40
0.2328716322111479
 40
0.4710265024313248
 40
0.7311421212560302
 40
0.9999999999999999
 40
0.9999999999999999
 40
0.9999999999999999
 40
0.9999999999999999
 10
505.5389418751178
 20
670.4457767049812
 30
0.0
 10
504.6450854447975
 20
670.4457767049812
 30
0.0
 10
502.8370933589781
 20
670.4457767049812
 30
0.0
 10
499.9094206184151
 20
670.4457767049812
 30
0.0
 10
496.8223217079372
 20
670.4457767049812
 30
0.0
 10
494.787273686951
 20
670.4457767049812
 30
0.0
 10
493.7529332207854
 20
670.4457767049812
 30
0.0
  0
SPLINE
  5
27D
330
1F
100
AcDbEntity
  8
0
  6
Continuous
 62
     7
370
    25
100
AcDbSpline
210
0.0
220
0.0
230
1.0
 70
     8
 71
     3
 72
     9
 73
     5
 74
     0
 42
0.00000001
 43
0.00000001
 40
0.0
 40
0.0
 40
0.0
 40
0.0
 40
0.5841917497409234
 40
1.0
 40
1.0
 40
1.0
 40
1.0
 10
507.8590223188841
 20
669.8749105632489
 30
0.0
 10
507.4146739050254
 20
670.0659927853154
 30
0.0
 10
506.6540530745261
 20
670.3930809753682
 30
0.0
 10
505.8664385093446
 20
670.4303005138215
 30
0.0
 10
505.5389418751178
 20
670.4457767049812
 30
0.0
  0
ARC
  5
27E
330
1F
100
AcDbEntity
  8
0
  6
Continuous
 62
     7
370
    25
100
AcDbCircle
 10
499.645937548
 20
654.195776705
 30
0.0
 40
17.70000000000002
100
AcDbArc
 50
57.6465635726
 51
62.3534364274
  0
SPLINE
  5
27F
330
1F
100
AcDbEntity
  8
0
  6
Continuous
 62
     7
370
    25
100
AcDbSpline
210
0.0
220
0.0
230
1.0
 70
     8
 71
     3
 72
     9
 73
     5
 74
     0
 42
0.00000001
 43
0.00000001
 40
0.0
 40
0.0
 40
0.0
 40
0.0
 40
0.5850553834536193
 40
1.0
 40
1.0
 40
1.0
 40
1.0
 10
510.7723481958656
 20
667.4242681569187
 30
0.0
 10
510.5125732760567
 20
667.8108146824826
 30
0.0
 10
510.0685556203684
 20
668.4715154238072
 30
0.0
 10
509.3967044283361
 20
668.949674255933
 30
0.0
 10
509.1179233930819
 20
669.1480836891776
 30
0.0
  0
SPLINE
  5
280
330
1F
100
AcDbEntity
  8
0
  6
Continuous
 62
     7
370
    25
100
AcDbSpline
210
0.0
220
0.0
230
1.0
 70
    24
 71
     3
 72
    11
 73
     7
 74
     0
 42
0.00000001
 43
0.00000001
 40
0.0
 40
0.0
 40
0.0
 40
0.0
 40
0.2556279644380972
 40
0.5185037642963867
 40
0.7560467972580103
 40
1.0
 40
1.0
 40
1.0
 40
1.0
 10
516.6653525230319
 20
657.2172852530435
 30
0.0
 10
516.1740594447637
 20
658.068229826011
 30
0.0
 10
515.1775436253197
 20
659.7942458558341
 30
0.0
 10
513.6573327188665
 20
662.4273283840314
 30
0.0
 10
512.1656169973184
 20
665.0110558042022
 30
0.0
 10
511.2408748338119
 20
666.6127562152965
 30
0.0
 10
510.7723481958656
 20
667.4242681569187
 30
0.0
  0
SPLINE
  5
281
330
1F
100
AcDbEntity
  8
0
  6
Continuous
 62
     7
370
    25
100
AcDbSpline
210
0.0
220
0.0
230
1.0
 70
     8
 71
     3
 72
     9
 73
     5
 74
     0
 42
0.00000001
 43
0.00000001
 40
0.0
 40
0.0
 40
0.0
 40
0.0
 40
0.5841917497409242
 40
1.0
 40
1.0
 40
1.0
 40
1.0
 10
517.3310081640144
 20
654.9226035790524
 30
0.0
 10
517.2743160156062
 20
655.4029617046186
 30
0.0
 10
517.1772722822202
 20
656.2252227615049
 30
0.0
 10
516.8156980654471
 20
656.9259267525696
 30
0.0
 10
516.6653525230319
 20
657.2172852530435
 30
0.0
  0
ARC
  5
282
330
1F
100
AcDbEntity
  8
0
  6
Continuous
 62
     7
370
    25
100
AcDbCircle
 10
499.645937548
 20
654.195776705
 30
0.0
 40
17.69999999999998
100
AcDbArc
 50
357.6465635726
 51
2.3534364274
  0
SPLINE
  5
283
330
1F
100
AcDbEntity
  8
0
  6
Continuous
 62
     7
370
    25
100
AcDbSpline
210
0.0
220
0.0
230
1.0
 70
     8
 71
     3
 72
     9
 73
     5
 74
     0
 42
0.00000001
 43
0.00000001
 40
0.0
 40
0.0
 40
0.0
 40
0.0
 40
0.5850553834536182
 40
0.9999999999999999
 40
0.9999999999999999
 40
0.9999999999999999
 40
0.9999999999999999
 10
516.6653525230319
 20
651.1742681569189
 30
0.0
 10
516.8702241740103
 20
651.5925130995213
 30
0.0
 10
517.2203989724526
 20
652.3073940397385
 30
0.0
 10
517.2985710721011
 20
653.1283136556642
 30
0.0
 10
517.3310081640144
 20
653.4689498309099
 30
0.0
  0
SPLINE
  5
284
330
1F
100
AcDbEntity
  8
0
  6
Continuous
 62
     7
370
    25
100
AcDbSpline
210
0.0
220
0.0
230
1.0
 70
    24
 71
     3
 72
    11
 73
     7
 74
     0
 42
0.00000001
 43
0.00000001
 40
0.0
 40
0.0
 40
0.0
 40
0.0
 40
0.2328716322111471
 40
0.471026502431323
 40
0.7311421212560296
 40
1.0
 40
1.0
 40
1.0
 40
1.0
 10
510.7723481958656
 20
640.9672852530435
 30
0.0
 10
511.2192764110258
 20
641.7413876290373
 30
0.0
 10
512.1232724539356
 20
643.3071547051978
 30
0.0
 10
513.587108824217
 20
645.8425936724926
 30
0.0
 10
515.1306582794559
 20
648.5160997529617
 30
0.0
 10
516.1481822899491
 20
650.278503037057
 30
0.0
 10
516.6653525230319
 20
651.1742681569189
 30
0.0
  0
SPLINE
  5
285
330
1F
100
AcDbEntity
  8
0
  6
Continuous
 62
     7
370
    25
100
AcDbSpline
210
0.0
220
0.0
230
1.0
 70
     8
 71
     3
 72
     9
 73
     5
 74
     0
 42
0.00000001
 43
0.00000001
 40
0.0
 40
0.0
 40
0.0
 40
0.0
 40
0.5841917497409237
 40
1.0
 40
1.0
 40
1.0
 40
1.0
 10
509.1179233930819
 20
639.2434697207847
 30
0.0
 10
509.5055796585325
 20
639.5327456242844
 30
0.0
 10
510.1691567556456
 20
640.0279184911179
 30
0.0
 10
510.5951971040541
 20
640.6914029437291
 30
0.0
 10
510.7723481958656
 20
640.9672852530435
 30
0.0
  0
ARC
  5
286
330
1F
100
AcDbEntity
  8
0
  6
Continuous
 62
     7
370
    25
100
AcDbCircle
 10
499.645937548
 20
654.195776705
 30
0.0
 40
17.70000000000002
100
AcDbArc
 50
297.6465635726
 51
302.3534364274
  0
SPLINE
  5
287
330
1F
100
AcDbEntity
  8
0
  6
Continuous
 62
     7
370
    25
100
AcDbSpline
210
0.0
220
0.0
230
1.0
 70
     8
 71
     3
 72
     9
 73
     5
 74
     0
 42
0.00000001
 43
0.00000001
 40
0.0
 40
0.0
 40
0.0
 40
0.0
 40
0.5850553834536171
 40
1.0
 40
1.0
 40
1.0
 40
1.0
 10
505.5389418751178
 20
637.9457767049812
 30
0.0
 10
506.0035884459052
 20
637.9774751220199
 30
0.0
 10
506.7977809000357
 20
638.0316553209124
 30
0.0
 10
507.5478041917166
 20
638.3744161047125
 30
0.0
 10
507.859022318884
 20
638.5166428467135
 30
0.0
  0
SPLINE
  5
288
330
1F
100
AcDbEntity
  8
0
  6
Continuous
 62
     7
370
    25
100
AcDbSpline
210
0.0
220
0.0
230
1.0
 70
    24
 71
     3
 72
    11
 73
     7
 74
     0
 42
0.00000001
 43
0.00000001
 40
0.0
 40
0.0
 40
0.0
 40
0.0
 40
0.2328716322111485
 40
0.471026502431326
 40
0.7311421212560308
 40
1.0
 40
1.0
 40
1.0
 40
1.0
 10
493.7529332207854
 20
637.9457767049812
 30
0.0
 10
494.6467896511058
 20
637.9457767049812
 30
0.0
 10
496.4547817369252
 20
637.9457767049812
 30
0.0
 10
499.3824544774881
 20
637.9457767049812
 30
0.0
 10
502.4695533879661
 20
637.9457767049812
 30
0.0
 10
504.5046014089523
 20
637.9457767049812
 30
0.0
 10
505.5389418751178
 20
637.9457767049812
 30
0.0
  0
SPLINE
  5
289
330
1F
100
AcDbEntity
  8
0
  6
Continuous
 62
     7
370
    25
100
AcDbSpline
210
0.0
220
0.0
230
1.0
 70
     8
 71
     3
 72
     9
 73
     5
 74
     0
 42
0.00000001
 43
0.00000001
 40
0.0
 40
0.0
 40
0.0
 40
0.0
 40
0.5841917497409266
 40
1.0
 40
1.0
 40
1.0
 40
1.0
 10
491.4328527770191
 20
638.5166428467135
 30
0.0
 10
491.8772011908778
 20
638.325560624647
 30
0.0
 10
492.6378220213771
 20
637.9984724345942
 30
0.0
 10
493.4254365865587
 20
637.9612528961409
 30
0.0
 10
493.7529332207854
 20
637.9457767049812
 30
0.0
  0
ARC
  5
28A
330
1F
100
AcDbEntity
  8
0
  6
Continuous
 62
     7
370
    25
100
AcDbCircle
 10
499.645937548
 20
654.195776705
 30
0.0
 40
17.70000000000005
100
AcDbArc
 50
237.6465635726
 51
242.3534364274
  0
LINE
  5
28B
330
1F
100
AcDbEntity
  8
0
  6
Continuous
 62
     7
370
    25
100
AcDbLine
 10
694.4021898611
 20
649.320776705
 30
0.0
 11
693.805728978
 21
650.5437732805
 31
0.0
  0
LINE
  5
28C
330
1F
100
AcDbEntity
  8
0
  6
Continuous
 62
     7
370
    25
100
AcDbLine
 10
693.7234497087
 20
657.6371013952
 30
0.0
 11
693.835085976
 21
657.9196260505
 31
0.0
  0
LINE
  5
28D
330
1F
100
AcDbEntity
  8
0
  6
Continuous
 62
     7
370
    25
100
AcDbLine
 10
695.237844087
 20
648.0982842786
 30
0.0
 11
694.4021898611
 21
649.320776705
 31
0.0
  0
ARC
  5
28E
330
1F
100
AcDbEntity
  8
0
  6
Continuous
 62
     7
370
    25
100
AcDbCircle
 10
702.845937548
 20
654.195776705
 30
0.0
 40
14.87500000000004
100
AcDbArc
 50
55.1611835908
 51
308.4167037132
  0
ARC
  5
28F
330
1F
100
AcDbEntity
  8
0
  6
Continuous
 62
     7
370
    25
100
AcDbCircle
 10
702.845937548
 20
654.195776705
 30
0.0
 40
10.57500000000009
100
AcDbArc
 50
84.5490172093
 51
281.0490866707
  0
ARC
  5
290
330
1F
100
AcDbEntity
  8
0
  6
Continuous
 62
     7
370
    25
100
AcDbCircle
 10
702.845937548
 20
654.195776705
 30
0.0
 40
16.20000000000002
100
AcDbArc
 50
210.0
 51
318.1420914366
  0
ARC
  5
291
330
1F
100
AcDbEntity
  8
0
  6
Continuous
 62
     7
370
    25
100
AcDbCircle
 10
702.845937548
 20
654.195776705
 30
0.0
 40
16.19999999999999
100
AcDbArc
 50
45.9729863763
 51
210.0
  0
SPLINE
  5
292
330
1F
100
AcDbEntity
  8
0
  6
Continuous
 62
     7
370
    25
100
AcDbSpline
210
0.0
220
0.0
230
1.0
 70
     8
 71
     3
 72
     9
 73
     5
 74
     0
 42
0.00000001
 43
0.00000001
 40
0.0
 40
0.0
 40
0.0
 40
0.0
 40
0.5850553834534097
 40
1.0
 40
1.0
 40
1.0
 40
1.0
 10
691.719526900037
 20
640.967285253045
 30
0.0
 10
691.9793018198457
 20
640.5807387274809
 30
0.0
 10
692.4233194755341
 20
639.9200379861558
 30
0.0
 10
693.0951706675669
 20
639.4418791540296
 30
0.0
 10
693.3739517028214
 20
639.2434697207847
 30
0.0
  0
SPLINE
  5
293
330
1F
100
AcDbEntity
  8
0
  6
Continuous
 62
     7
370
    25
100
AcDbSpline
210
0.0
220
0.0
230
1.0
 70
    24
 71
     3
 72
    11
 73
     7
 74
     0
 42
0.00000001
 43
0.00000001
 40
0.0
 40
0.0
 40
0.0
 40
0.0
 40
0.2379053903768482
 40
0.4814905141303176
 40
0.7366519444348056
 40
0.9999999999999999
 40
0.9999999999999999
 40
0.9999999999999999
 40
0.9999999999999999
 10
685.8265225728712
 20
651.1742681569191
 30
0.0
 10
686.2832546836465
 20
650.3831849356081
 30
0.0
 10
687.2076228893801
 20
648.7821322383763
 30
0.0
 10
688.6839489818998
 20
646.2250604375926
 30
0.0
 10
690.2160823663633
 20
643.5713275717294
 30
0.0
 10
691.2131313310097
 20
641.8443881073277
 30
0.0
 10
691.719526900037
 20
640.967285253045
 30
0.0
  0
SPLINE
  5
294
330
1F
100
AcDbEntity
  8
0
  6
Continuous
 62
     7
370
    25
100
AcDbSpline
210
0.0
220
0.0
230
1.0
 70
     8
 71
     3
 72
     9
 73
     5
 74
     0
 42
0.00000001
 43
0.00000001
 40
0.0
 40
0.0
 40
0.0
 40
0.0
 40
0.5841917497409942
 40
1.0
 40
1.0
 40
1.0
 40
1.0
 10
685.1608669318888
 20
653.4689498309099
 30
0.0
 10
685.2175590802971
 20
652.9885917053438
 30
0.0
 10
685.3146028136831
 20
652.1663306484575
 30
0.0
 10
685.6761770304562
 20
651.465626657393
 30
0.0
 10
685.8265225728712
 20
651.1742681569191
 30
0.0
  0
ARC
  5
295
330
1F
100
AcDbEntity
  8
0
  6
Continuous
 62
     7
370
    25
100
AcDbCircle
 10
702.845937548
 20
654.195776705
 30
0.0
 40
17.70000000000003
100
AcDbArc
 50
177.6465635726
 51
182.3534364274
  0
SPLINE
  5
296
330
1F
100
AcDbEntity
  8
0
  6
Continuous
 62
     7
370
    25
100
AcDbSpline
210
0.0
220
0.0
230
1.0
 70
     8
 71
     3
 72
     9
 73
     5
 74
     0
 42
0.00000001
 43
0.00000001
 40
0.0
 40
0.0
 40
0.0
 40
0.0
 40
0.5850553834536183
 40
1.0
 40
1.0
 40
1.0
 40
1.0
 10
685.8265225728715
 20
657.2172852530435
 30
0.0
 10
685.621650921893
 20
656.7990403104411
 30
0.0
 10
685.2714761234507
 20
656.0841593702239
 30
0.0
 10
685.1933040238022
 20
655.2632397542981
 30
0.0
 10
685.1608669318888
 20
654.9226035790524
 30
0.0
  0
SPLINE
  5
297
330
1F
100
AcDbEntity
  8
0
  6
Continuous
 62
     7
370
    25
100
AcDbSpline
210
0.0
220
0.0
230
1.0
 70
    24
 71
     3
 72
    11
 73
     7
 74
     0
 42
0.00000001
 43
0.00000001
 40
0.0
 40
0.0
 40
0.0
 40
0.0
 40
0.2328716322111468
 40
0.4710265024313225
 40
0.7311421212560294
 40
1.0
 40
1.0
 40
1.0
 40
1.0
 10
691.7195269000376
 20
667.4242681569187
 30
0.0
 10
691.2725986848775
 20
666.6501657809251
 30
0.0
 10
690.3686026419679
 20
665.0843987047645
 30
0.0
 10
688.9047662716863
 20
662.5489597374698
 30
0.0
 10
687.3612168164474
 20
659.8754536570005
 30
0.0
 10
686.3436928059542
 20
658.1130503729053
 30
0.0
 10
685.8265225728715
 20
657.2172852530435
 30
0.0
  0
SPLINE
  5
298
330
1F
100
AcDbEntity
  8
0
  6
Continuous
 62
     7
370
    25
100
AcDbSpline
210
0.0
220
0.0
230
1.0
 70
     8
 71
     3
 72
     9
 73
     5
 74
     0
 42
0.00000001
 43
0.00000001
 40
0.0
 40
0.0
 40
0.0
 40
0.0
 40
0.584191749740925
 40
1.0
 40
1.0
 40
1.0
 40
1.0
 10
693.3739517028214
 20
669.1480836891776
 30
0.0
 10
692.9862954373708
 20
668.858807785678
 30
0.0
 10
692.3227183402576
 20
668.3636349188445
 30
0.0
 10
691.8966779918492
 20
667.7001504662331
 30
0.0
 10
691.7195269000376
 20
667.4242681569187
 30
0.0
  0
ARC
  5
299
330
1F
100
AcDbEntity
  8
0
  6
Continuous
 62
     7
370
    25
100
AcDbCircle
 10
702.845937548
 20
654.195776705
 30
0.0
 40
17.70000000000002
100
AcDbArc
 50
117.6465635726
 51
122.3534364274
  0
SPLINE
  5
29A
330
1F
100
AcDbEntity
  8
0
  6
Continuous
 62
     7
370
    25
100
AcDbSpline
210
0.0
220
0.0
230
1.0
 70
     8
 71
     3
 72
     9
 73
     5
 74
     0
 42
0.00000001
 43
0.00000001
 40
0.0
 40
0.0
 40
0.0
 40
0.0
 40
0.5850553834536162
 40
1.0
 40
1.0
 40
1.0
 40
1.0
 10
696.9529332207854
 20
670.4457767049812
 30
0.0
 10
696.488286649998
 20
670.4140782879425
 30
0.0
 10
695.6940941958676
 20
670.3598980890499
 30
0.0
 10
694.9440709041866
 20
670.0171373052499
 30
0.0
 10
694.6328527770191
 20
669.8749105632489
 30
0.0
  0
SPLINE
  5
29B
330
1F
100
AcDbEntity
  8
0
  6
Continuous
 62
     7
370
    25
100
AcDbSpline
210
0.0
220
0.0
230
1.0
 70
    24
 71
     3
 72
    11
 73
     7
 74
     0
 42
0.00000001
 43
0.00000001
 40
0.0
 40
0.0
 40
0.0
 40
0.0
 40
0.2328716322111479
 40
0.4710265024313248
 40
0.7311421212560302
 40
0.9999999999999999
 40
0.9999999999999999
 40
0.9999999999999999
 40
0.9999999999999999
 10
708.7389418751179
 20
670.4457767049812
 30
0.0
 10
707.8450854447975
 20
670.4457767049812
 30
0.0
 10
706.0370933589782
 20
670.4457767049812
 30
0.0
 10
703.1094206184152
 20
670.4457767049812
 30
0.0
 10
700.0223217079372
 20
670.4457767049812
 30
0.0
 10
697.987273686951
 20
670.4457767049812
 30
0.0
 10
696.9529332207854
 20
670.4457767049812
 30
0.0
  0
SPLINE
  5
29C
330
1F
100
AcDbEntity
  8
0
  6
Continuous
 62
     7
370
    25
100
AcDbSpline
210
0.0
220
0.0
230
1.0
 70
     8
 71
     3
 72
     9
 73
     5
 74
     0
 42
0.00000001
 43
0.00000001
 40
0.0
 40
0.0
 40
0.0
 40
0.0
 40
0.5841917497409234
 40
1.0
 40
1.0
 40
1.0
 40
1.0
 10
711.0590223188842
 20
669.8749105632489
 30
0.0
 10
710.6146739050254
 20
670.0659927853154
 30
0.0
 10
709.8540530745262
 20
670.3930809753682
 30
0.0
 10
709.0664385093446
 20
670.4303005138215
 30
0.0
 10
708.7389418751179
 20
670.4457767049812
 30
0.0
  0
ARC
  5
29D
330
1F
100
AcDbEntity
  8
0
  6
Continuous
 62
     7
370
    25
100
AcDbCircle
 10
702.845937548
 20
654.195776705
 30
0.0
 40
17.70000000000007
100
AcDbArc
 50
57.6465635726
 51
62.3534364274
  0
SPLINE
  5
29E
330
1F
100
AcDbEntity
  8
0
  6
Continuous
 62
     7
370
    25
100
AcDbSpline
210
0.0
220
0.0
230
1.0
 70
     8
 71
     3
 72
     9
 73
     5
 74
     0
 42
0.00000001
 43
0.00000001
 40
0.0
 40
0.0
 40
0.0
 40
0.0
 40
0.5850553834536193
 40
1.0
 40
1.0
 40
1.0
 40
1.0
 10
713.9723481958656
 20
667.4242681569187
 30
0.0
 10
713.7125732760568
 20
667.8108146824826
 30
0.0
 10
713.2685556203685
 20
668.4715154238072
 30
0.0
 10
712.5967044283361
 20
668.949674255933
 30
0.0
 10
712.317923393082
 20
669.1480836891776
 30
0.0
  0
LINE
  5
29F
330
1F
100
AcDbEntity
  8
0
  6
Continuous
 62
     7
370
    25
100
AcDbLine
 10
715.284059037
 20
665.1523183353
 30
0.0
 11
713.9723481959
 21
667.4242681569
 31
0.0
  0
SPLINE
  5
2A0
330
1F
100
AcDbEntity
  8
0
  6
Continuous
 62
     7
370
    25
100
AcDbSpline
210
0.0
220
0.0
230
1.0
 70
    24
 71
     3
 72
     9
 73
     5
 74
     0
 42
0.00000001
 43
0.00000001
 40
0.0
 40
0.0
 40
0.0
 40
0.0
 40
0.7627551292161084
 40
1.0
 40
1.0
 40
1.0
 40
1.0
 10
713.9723481958656
 20
640.9672852530435
 30
0.0
 10
714.4174077330787
 20
641.7381509838898
 30
0.0
 10
715.0008971390043
 20
642.7487842806312
 30
0.0
 10
715.610430832733
 20
643.8045276070942
 30
0.0
 10
715.7550395751401
 20
644.0549972961618
 30
0.0
  0
SPLINE
  5
2A1
330
1F
100
AcDbEntity
  8
0
  6
Continuous
 62
     7
370
    25
100
AcDbSpline
210
0.0
220
0.0
230
1.0
 70
     8
 71
     3
 72
     9
 73
     5
 74
     0
 42
0.00000001
 43
0.00000001
 40
0.0
 40
0.0
 40
0.0
 40
0.0
 40
0.5841917497409237
 40
1.0
 40
1.0
 40
1.0
 40
1.0
 10
712.317923393082
 20
639.2434697207847
 30
0.0
 10
712.7055796585325
 20
639.5327456242844
 30
0.0
 10
713.3691567556457
 20
640.0279184911179
 30
0.0
 10
713.7951971040542
 20
640.6914029437291
 30
0.0
 10
713.9723481958656
 20
640.9672852530435
 30
0.0
  0
ARC
  5
2A2
330
1F
100
AcDbEntity
  8
0
  6
Continuous
 62
     7
370
    25
100
AcDbCircle
 10
702.845937548
 20
654.195776705
 30
0.0
 40
17.70000000000007
100
AcDbArc
 50
297.6465635726
 51
302.3534364274
  0
SPLINE
  5
2A3
330
1F
100
AcDbEntity
  8
0
  6
Continuous
 62
     7
370
    25
100
AcDbSpline
210
0.0
220
0.0
230
1.0
 70
     8
 71
     3
 72
     9
 73
     5
 74
     0
 42
0.00000001
 43
0.00000001
 40
0.0
 40
0.0
 40
0.0
 40
0.0
 40
0.5850553834536171
 40
1.0
 40
1.0
 40
1.0
 40
1.0
 10
708.7389418751179
 20
637.9457767049812
 30
0.0
 10
709.2035884459052
 20
637.9774751220199
 30
0.0
 10
709.9977809000358
 20
638.0316553209124
 30
0.0
 10
710.7478041917167
 20
638.3744161047124
 30
0.0
 10
711.0590223188842
 20
638.5166428467135
 30
0.0
  0
SPLINE
  5
2A4
330
1F
100
AcDbEntity
  8
0
  6
Continuous
 62
     7
370
    25
100
AcDbSpline
210
0.0
220
0.0
230
1.0
 70
    24
 71
     3
 72
    11
 73
     7
 74
     0
 42
0.00000001
 43
0.00000001
 40
0.0
 40
0.0
 40
0.0
 40
0.0
 40
0.2328716322111485
 40
0.471026502431326
 40
0.7311421212560308
 40
1.0
 40
1.0
 40
1.0
 40
1.0
 10
696.9529332207854
 20
637.9457767049812
 30
0.0
 10
697.8467896511058
 20
637.9457767049812
 30
0.0
 10
699.6547817369252
 20
637.9457767049812
 30
0.0
 10
702.5824544774881
 20
637.9457767049812
 30
0.0
 10
705.6695533879661
 20
637.9457767049812
 30
0.0
 10
707.7046014089522
 20
637.9457767049812
 30
0.0
 10
708.7389418751179
 20
637.9457767049812
 30
0.0
  0
SPLINE
  5
2A5
330
1F
100
AcDbEntity
  8
0
  6
Continuous
 62
     7
370
    25
100
AcDbSpline
210
0.0
220
0.0
230
1.0
 70
     8
 71
     3
 72
     9
 73
     5
 74
     0
 42
0.00000001
 43
0.00000001
 40
0.0
 40
0.0
 40
0.0
 40
0.0
 40
0.5841917497409266
 40
1.0
 40
1.0
 40
1.0
 40
1.0
 10
694.6328527770191
 20
638.5166428467135
 30
0.0
 10
695.0772011908779
 20
638.325560624647
 30
0.0
 10
695.8378220213772
 20
637.9984724345942
 30
0.0
 10
696.6254365865587
 20
637.9612528961409
 30
0.0
 10
696.9529332207854
 20
637.9457767049812
 30
0.0
  0
ARC
  5
2A6
330
1F
100
AcDbEntity
  8
0
  6
Continuous
 62
     7
370
    25
100
AcDbCircle
 10
702.845937548
 20
654.195776705
 30
0.0
 40
17.70000000000002
100
AcDbArc
 50
237.6465635726
 51
242.3534364274
  0
SPLINE
  5
2A7
330
1F
100
AcDbEntity
  8
0
  6
Continuous
 62
     7
370
    25
100
AcDbSpline
210
0.0
220
0.0
230
1.0
 70
     8
 71
     3
 72
    22
 73
    18
 74
     0
 42
0.00000001
 43
0.00000001
 40
0.0
 40
0.0
 40
0.0
 40
0.0
 40
0.0572864194646092
 40
0.1229381135129736
 40
0.1889690539883536
 40
0.2549999944638645
 40
0.3212149049680316
 40
0.387433337705234
 40
0.4538274481666407
 40
0.5202215586272289
 40
0.5870010590344668
 40
0.6537806686213689
 40
0.7205436780598871
 40
0.7873066874969191
 40
0.854645852371198
 40
0.9219850172464725
 40
1.0
 40
1.0
 40
1.0
 40
1.0
 10
593.3459375479516
 20
644.8065387770346
 30
0.0
 10
592.893577459141
 20
645.2028423052643
 30
0.0
 10
591.9228012007072
 20
646.0533197586371
 30
0.0
 10
590.7307902908277
 20
647.6526217439599
 30
0.0
 10
589.7611576719964
 20
649.4909355900138
 30
0.0
 10
589.1110334007731
 20
651.4752219987457
 30
0.0
 10
588.8082940934362
 20
653.5419106480979
 30
0.0
 10
588.8492411335263
 20
655.6343931783044
 30
0.0
 10
589.2457357384063
 20
657.6911515282677
 30
0.0
 10
589.975333521069
 20
659.6609449283762
 30
0.0
 10
591.0327573327372
 20
661.4807764137247
 30
0.0
 10
592.3778182406124
 20
663.1047965593023
 30
0.0
 10
593.9799008938178
 20
664.474889029419
 30
0.0
 10
595.7889385359003
 20
665.5705837043923
 30
0.0
 10
597.7635638604842
 20
666.3368285371804
 30
0.0
 10
599.955877279983
 20
666.8194856212899
 30
0.0
 10
601.4835052102467
 20
666.7914554185638
 30
0.0
 10
602.303418976572
 20
666.7764109508419
 30
0.0
  0
ARC
  5
2A8
330
1F
100
AcDbEntity
  8
0
  6
Continuous
 62
     7
370
    25
100
AcDbCircle
 10
601.245937548
 20
654.195776705
 30
0.0
 40
12.62500000000009
100
AcDbArc
 50
350.938753047
 51
85.1952241371
  0
SPLINE
  5
2A9
330
1F
100
AcDbEntity
  8
0
  6
Continuous
 62
     7
370
    25
100
AcDbSpline
210
0.0
220
0.0
230
1.0
 70
     8
 71
     3
 72
    10
 73
     6
 74
     0
 42
0.00000001
 43
0.00000001
 40
0.0
 40
0.0
 40
0.0
 40
0.0
 40
0.4366777435309215
 40
0.8650683835413441
 40
1.0
 40
1.0
 40
1.0
 40
1.0
 10
612.0194980897262
 20
649.1543315325514
 30
0.0
 10
611.6873871623459
 20
648.5451815458617
 30
0.0
 10
611.0294679819858
 20
647.3384417883944
 30
0.0
 10
610.0439372500463
 20
646.0502528991188
 30
0.0
 10
609.3194683453892
 20
645.5194204780217
 30
0.0
 10
609.1459375479517
 20
645.3922710962518
 30
0.0
  0
SPLINE
  5
2AA
330
1F
100
AcDbEntity
  8
0
  6
Continuous
 62
     7
370
    25
100
AcDbSpline
210
0.0
220
0.0
230
1.0
 70
     8
 71
     3
 72
    10
 73
     6
 74
     0
 42
0.00000001
 43
0.00000001
 40
0.0
 40
0.0
 40
0.0
 40
0.0
 40
0.1614861643795523
 40
0.5801934759773504
 40
1.0
 40
1.0
 40
1.0
 40
1.0
 10
609.1459375479517
 20
645.1439813844397
 30
0.0
 10
609.3486476069544
 20
645.3190333968546
 30
0.0
 10
610.0769518192703
 20
645.9479667543968
 30
0.0
 10
611.0923334696664
 20
647.2853770352259
 30
0.0
 10
611.7101732398489
 20
648.5308024884047
 30
0.0
 10
612.0194980897262
 20
649.1543315325514
 30
0.0
  0
ARC
  5
2AB
330
1F
100
AcDbEntity
  8
0
  6
Continuous
 62
     7
370
    25
100
AcDbCircle
 10
702.845937548
 20
654.195776705
 30
0.0
 40
17.60000000000004
100
AcDbArc
 50
152.0468131166
 51
172.4425851413
  0
ARC
  5
2AC
330
1F
100
AcDbEntity
  8
0
  6
Continuous
 62
     7
370
    25
100
AcDbCircle
 10
702.845937548
 20
654.195776705
 30
0.0
 40
17.60000000000012
100
AcDbArc
 50
187.8782816957
 51
207.9531868834
  0
ARC
  5
2AD
330
1F
100
AcDbEntity
  8
0
  6
Continuous
 62
     7
370
    25
100
AcDbCircle
 10
702.845937548
 20
654.195776705
 30
0.0
 40
17.60000000000011
100
AcDbArc
 50
207.9531868834
 51
232.0369951862
  0
ARC
  5
2AE
330
1F
100
AcDbEntity
  8
0
  6
Continuous
 62
     7
370
    25
100
AcDbCircle
 10
702.845937548
 20
654.195776705
 30
0.0
 40
17.60000000000016
100
AcDbArc
 50
248.2606469309
 51
292.3063406281
  0
ARC
  5
2AF
330
1F
100
AcDbEntity
  8
0
  6
Continuous
 62
     7
370
    25
100
AcDbCircle
 10
702.845937548
 20
654.195776705
 30
0.0
 40
17.60000000000021
100
AcDbArc
 50
308.0632042173
 51
329.914091969
  0
ARC
  5
2B0
330
1F
100
AcDbEntity
  8
0
  6
Continuous
 62
     7
370
    25
100
AcDbCircle
 10
702.845937548
 20
654.195776705
 30
0.0
 40
17.60000000000013
100
AcDbArc
 50
33.0957362986
 51
53.9645484173
  0
ARC
  5
2B1
330
1F
100
AcDbEntity
  8
0
  6
Continuous
 62
     7
370
    25
100
AcDbCircle
 10
702.845937548
 20
654.195776705
 30
0.0
 40
17.60000000000013
100
AcDbArc
 50
67.3124341254
 51
112.3883831165
  0
ARC
  5
2B2
330
1F
100
AcDbEntity
  8
0
  6
Continuous
 62
     7
370
    25
100
AcDbCircle
 10
702.845937548
 20
654.195776705
 30
0.0
 40
17.60000000000006
100
AcDbArc
 50
127.9865052712
 51
152.0468131166
  0
ARC
  5
2B3
330
1F
100
AcDbEntity
  8
0
  6
Continuous
 62
     7
370
    25
100
AcDbCircle
 10
499.645937548
 20
654.195776705
 30
0.0
 40
17.60000000000004
100
AcDbArc
 50
7.8609848127
 51
27.9531868834
  0
ARC
  5
2B4
330
1F
100
AcDbEntity
  8
0
  6
Continuous
 62
     7
370
    25
100
AcDbCircle
 10
499.645937548
 20
654.195776705
 30
0.0
 40
17.60000000000015
100
AcDbArc
 50
332.0468131166
 51
352.641165044
  0
ARC
  5
2B5
330
1F
100
AcDbEntity
  8
0
  6
Continuous
 62
     7
370
    25
100
AcDbCircle
 10
499.645937548
 20
654.195776705
 30
0.0
 40
17.60000000000014
100
AcDbArc
 50
308.2820363926
 51
332.0468131166
  0
ARC
  5
2B6
330
1F
100
AcDbEntity
  8
0
  6
Continuous
 62
     7
370
    25
100
AcDbCircle
 10
499.645937548
 20
654.195776705
 30
0.0
 40
17.60000000000013
100
AcDbArc
 50
247.9918223872
 51
292.0443810308
  0
ARC
  5
2B7
330
1F
100
AcDbEntity
  8
0
  6
Continuous
 62
     7
370
    25
100
AcDbCircle
 10
499.645937548
 20
654.195776705
 30
0.0
 40
17.60000000000014
100
AcDbArc
 50
211.5427743269
 51
232.3788106809
  0
ARC
  5
2B8
330
1F
100
AcDbEntity
  8
0
  6
Continuous
 62
     7
370
    25
100
AcDbCircle
 10
499.645937548
 20
654.195776705
 30
0.0
 40
17.60000000000008
100
AcDbArc
 50
125.7853923865
 51
148.4572256731
  0
ARC
  5
2B9
330
1F
100
AcDbEntity
  8
0
  6
Continuous
 62
     7
370
    25
100
AcDbCircle
 10
499.645937548
 20
654.195776705
 30
0.0
 40
17.60000000000014
100
AcDbArc
 50
68.0564933062
 51
113.0220042312
  0
ARC
  5
2BA
330
1F
100
AcDbEntity
  8
0
  6
Continuous
 62
     7
370
    25
100
AcDbCircle
 10
499.645937548
 20
654.195776705
 30
0.0
 40
17.60000000000004
100
AcDbArc
 50
27.9531868834
 51
52.3118402776
  0
LWPOLYLINE
  5
2BB
330
1F
100
AcDbEntity
  8
0
  6
Continuous
 62
     7
370
    25
100
AcDbPolyline
 90
        9
 70
   128
 43
0.0
 10
522.2592079881
 20
661.395776705
 10
521.0808262396
 20
661.0574255697
 10
519.9328148748
 20
660.8515049441
 10
518.8447615428
 20
660.7833220117
 10
517.8447085966
 20
660.8546340484
 10
516.9584303591
 20
661.0636031322
 10
516.2087688425
 20
661.4048435114
 10
515.6150450417
 20
661.8695604121
 10
515.1925609756
 20
662.445776705
  0
LWPOLYLINE
  5
2BC
330
1F
100
AcDbEntity
  8
0
  6
Continuous
 62
     7
370
    25
100
AcDbPolyline
 90
        9
 70
   128
 43
0.0
 10
687.2993141203
 20
645.945776705
 10
686.8768300542
 20
646.5219929978
 10
686.2831062534
 20
646.9867098986
 10
685.5334447368
 20
647.3279502778
 10
684.6471664993
 20
647.5369193616
 10
683.6471135531
 20
647.6082313983
 10
682.5590602211
 20
647.5400484659
 10
681.4110488563
 20
647.3341278402
 10
680.2326671078
 20
646.995776705
  0
SPLINE
  5
2BD
330
1F
100
AcDbEntity
  8
0
  6
Continuous
 62
     7
370
    25
100
AcDbSpline
210
0.0
220
0.0
230
1.0
 70
     8
 71
     3
 72
    30
 73
    26
 74
     0
 42
0.00000001
 43
0.00000001
 40
0.0
 40
0.0
 40
0.0
 40
0.0
 40
0.1250000000000007
 40
0.1250000000000007
 40
0.1875000000000002
 40
0.1875000000000002
 40
0.2499999999999997
 40
0.2499999999999997
 40
0.3749999999999995
 40
0.3749999999999995
 40
0.4999999999999993
 40
0.4999999999999993
 40
0.5624999999999992
 40
0.5624999999999992
 40
0.6249999999999991
 40
0.6249999999999991
 40
0.7499999999999992
 40
0.7499999999999992
 40
0.8124999999999994
 40
0.8124999999999994
 40
0.8749999999999997
 40
0.8749999999999997
 40
0.9374999999999999
 40
0.9374999999999999
 40
1.0
 40
1.0
 40
1.0
 40
1.0
 10
680.2326671077874
 20
646.9957767049812
 30
0.0
 10
679.8395544797063
 20
647.4402548135932
 30
0.0
 10
679.5143989206249
 20
647.9348633452385
 30
0.0
 10
679.1217921999954
 20
648.7614285518628
 30
0.0
 10
679.0081113425421
 20
649.0486383564507
 30
0.0
 10
678.8137540853944
 20
649.6363921408073
 30
0.0
 10
678.7323955533726
 20
649.9383304515356
 30
0.0
 10
678.5274045119347
 20
650.8672803356247
 30
0.0
 10
678.4423526391228
 20
651.522039362526
 30
0.0
 10
678.338068720005
 20
652.8566642283264
 30
0.0
 10
678.3177060096372
 20
653.5272517374586
 30
0.0
 10
678.3177485122932
 20
654.531958541677
 30
0.0
 10
678.323200035117
 20
654.8669912394029
 30
0.0
 10
678.3465052817572
 20
655.5373258369046
 30
0.0
 10
678.3645170413789
 20
655.8743418565899
 30
0.0
 10
678.4426578829439
 20
656.8714662304967
 30
0.0
 10
678.5259421203007
 20
657.5160904166569
 30
0.0
 10
678.7313530717161
 20
658.4492665607784
 30
0.0
 10
678.8140162017954
 20
658.7564702569595
 30
0.0
 10
679.0105337490228
 20
659.349717197557
 30
0.0
 10
679.1236191117229
 20
659.6340527657118
 30
0.0
 10
679.3823886914196
 20
660.1786835942105
 30
0.0
 10
679.5280654344697
 20
660.43898022199
 30
0.0
 10
679.8545603737766
 20
660.9361123079498
 30
0.0
 10
680.0360241671165
 20
661.1734397051051
 30
0.0
 10
680.2326671077868
 20
661.3957767049815
 30
0.0
  0
LWPOLYLINE
  5
2BE
330
1F
100
AcDbEntity
  8
0
  6
Continuous
 62
     7
370
    25
100
AcDbPolyline
 90
        9
 70
   128
 43
0.0
 10
680.2326671078
 20
661.395776705
 10
681.4110488563
 20
661.0574255697
 10
682.5590602211
 20
660.851504944
 10
683.6471135531
 20
660.7833220116
 10
684.6471664993
 20
660.8546340484
 10
685.5334447368
 20
661.0636031321
 10
686.2831062534
 20
661.4048435114
 10
686.8768300542
 20
661.8695604121
 10
687.2993141203
 20
662.445776705
  0
SPLINE
  5
2BF
330
1F
100
AcDbEntity
  8
0
  6
Continuous
 62
     7
370
    25
100
AcDbSpline
210
0.0
220
0.0
230
1.0
 70
     8
 71
     3
 72
    26
 73
    22
 74
     0
 42
0.00000001
 43
0.00000001
 40
0.0
 40
0.0
 40
0.0
 40
0.0
 40
0.1250000000000003
 40
0.1250000000000003
 40
0.1875
 40
0.1875
 40
0.2499999999999997
 40
0.2499999999999997
 40
0.3749999999999996
 40
0.3749999999999996
 40
0.4374999999999996
 40
0.4374999999999996
 40
0.4999999999999997
 40
0.4999999999999997
 40
0.6249999999999998
 40
0.6249999999999998
 40
0.7499999999999998
 40
0.7499999999999998
 40
0.8749999999999999
 40
0.8749999999999999
 40
1.0
 40
1.0
 40
1.0
 40
1.0
 10
522.2592079881072
 20
661.3957767049909
 30
0.0
 10
522.6519831457085
 20
660.9516801619419
 30
0.0
 10
522.9759199033062
 20
660.4586594756192
 30
0.0
 10
523.366792595801
 20
659.6376953788634
 30
0.0
 10
523.4814687427788
 20
659.349465145129
 30
0.0
 10
523.6784165037955
 20
658.7546539536465
 30
0.0
 10
523.7607574860062
 20
658.448305587959
 30
0.0
 10
523.9659595967003
 20
657.5157516347747
 30
0.0
 10
524.0491890481973
 20
656.8715746795328
 30
0.0
 10
524.1273035827098
 20
655.8751622599161
 30
0.0
 10
524.1453169199679
 20
655.5383808262426
 30
0.0
 10
524.1686383361135
 20
654.868512189275
 30
0.0
 10
524.1741044660191
 20
654.5337122956619
 30
0.0
 10
524.1742128736838
 20
653.5297033637352
 30
0.0
 10
524.1538724947685
 20
652.8589922480309
 30
0.0
 10
524.0499907341483
 20
651.5265581385884
 30
0.0
 10
523.9668331946676
 20
650.8812411204706
 30
0.0
 10
523.6937097921541
 20
649.6370880369601
 30
0.0
 10
523.4999921944869
 20
649.034536062073
 30
0.0
 10
522.9767989320418
 20
647.9338326988831
 30
0.0
 10
522.6519109790614
 20
647.4397916518268
 30
0.0
 10
522.2592079881159
 20
646.995776704981
 30
0.0
  0
LWPOLYLINE
  5
2C0
330
1F
100
AcDbEntity
  8
0
  6
Continuous
 62
     7
370
    25
100
AcDbPolyline
 90
        9
 70
   128
 43
0.0
 10
515.1925609756
 20
645.945776705
 10
515.6150450417
 20
646.5219929978
 10
516.2087688425
 20
646.9867098986
 10
516.9584303591
 20
647.3279502778
 10
517.8447085966
 20
647.5369193616
 10
518.8447615428
 20
647.6082313983
 10
519.9328148748
 20
647.5400484659
 10
521.0808262396
 20
647.3341278402
 10
522.2592079881
 20
646.995776705
  0
LWPOLYLINE
  5
2C1
330
1F
100
AcDbEntity
  8
0
  6
Continuous
 62
     8
370
    25
100
AcDbPolyline
 90
        9
 70
   128
 43
0.0
 10
601.245937548
 20
450.3051713052
 10
602.8884399054
 20
450.2443695678
 10
604.4591570283
 20
450.0646216832
 10
605.8894410411
 20
449.7737834965
 10
607.1167816692
 20
449.3845660321
 10
608.0875382378
 20
448.9139799609
 10
608.7592840267
 20
448.3825921522
 10
609.1026605214
 20
447.8136268032
 10
609.145937548
 20
447.5227886166
  0
LWPOLYLINE
  5
2C2
330
1F
100
AcDbEntity
  8
0
  6
Continuous
 62
     8
370
    25
100
AcDbPolyline
 90
        9
 70
   128
 43
0.0
 10
593.345937548
 20
447.5227886166
 10
593.3892145745
 20
447.8136268032
 10
593.7325910692
 20
448.3825921522
 10
594.4043368581
 20
448.9139799609
 10
595.3750934267
 20
449.3845660321
 10
596.6024340548
 20
449.7737834965
 10
598.0327180677
 20
450.0646216832
 10
599.6034351905
 20
450.2443695678
 10
601.245937548
 20
450.3051713052
  0
LWPOLYLINE
  5
2C3
330
1F
100
AcDbEntity
  8
0
  6
Continuous
 62
     8
370
    25
100
AcDbPolyline
 90
        9
 70
   128
 43
0.0
 10
601.245937548
 20
634.3051713052
 10
602.8884399054
 20
634.2443695678
 10
604.4591570283
 20
634.0646216832
 10
605.8894410411
 20
633.7737834965
 10
607.1167816692
 20
633.3845660321
 10
608.0875382378
 20
632.9139799609
 10
608.7592840267
 20
632.3825921522
 10
609.1026605214
 20
631.8136268032
 10
609.145937548
 20
631.5227886166
  0
LWPOLYLINE
  5
2C4
330
1F
100
AcDbEntity
  8
0
  6
Continuous
 62
     8
370
    25
100
AcDbPolyline
 90
        9
 70
   128
 43
0.0
 10
593.345937548
 20
631.5227886166
 10
593.3892145745
 20
631.8136268032
 10
593.7325910692
 20
632.3825921522
 10
594.4043368581
 20
632.9139799609
 10
595.3750934267
 20
633.3845660321
 10
596.6024340548
 20
633.7737834965
 10
598.0327180677
 20
634.0646216832
 10
599.6034351905
 20
634.2443695678
 10
601.245937548
 20
634.3051713052
  0
ARC
  5
2C5
330
1F
100
AcDbEntity
  8
0
  6
Continuous
 62
     8
370
    25
100
AcDbCircle
 10
601.245937548
 20
400.195776705
 30
0.0
 40
8.410472292019563
100
AcDbArc
 50
159.9351921799
 51
270.0
  0
ARC
  5
2C6
330
1F
100
AcDbEntity
  8
0
  6
Continuous
 62
     8
370
    25
100
AcDbCircle
 10
601.245937548
 20
400.195776705
 30
0.0
 40
8.410472292019563
100
AcDbArc
 50
270.0
 51
20.0648078201
  0
LINE
  5
2C7
330
1F
100
AcDbEntity
  8
0
  6
Continuous
 62
     8
370
    25
100
AcDbLine
 10
593.1867037006
 20
646.6214156779
 30
0.0
 11
593.345937548
 21
646.4554798648
 31
0.0
  0
ARC
  5
2C8
330
1F
100
AcDbEntity
  8
0
  6
Continuous
 62
     8
370
    25
100
AcDbCircle
 10
601.245937548
 20
654.195776705
 30
0.0
 40
11.05993649053895
100
AcDbArc
 50
315.5850271977
 51
223.2235523034
  0
ARC
  5
2C9
330
1F
100
AcDbEntity
  8
0
  6
Continuous
 62
     8
370
    25
100
AcDbCircle
 10
601.245937548
 20
654.195776705
 30
0.0
 40
11.30993649053903
100
AcDbArc
 50
314.3068486059
 51
225.6931513941
  0
LINE
  5
2CA
330
1F
100
AcDbEntity
  8
0
  6
Continuous
 62
     8
370
    25
100
AcDbLine
 10
609.145937548
 20
641.8300403951
 30
0.0
 11
609.4031964066
 21
641.9367085139
 31
0.0
  0
ARC
  5
2CB
330
1F
100
AcDbEntity
  8
0
  6
Continuous
 62
     8
370
    25
100
AcDbCircle
 10
593.0884470411
 20
642.2807224796
 30
0.0
 40
0.3529502268445978
100
AcDbArc
 50
279.538525686
 51
316.8476542186
  0
ARC
  5
2CC
330
1F
100
AcDbEntity
  8
0
  6
Continuous
 62
     8
370
    25
100
AcDbCircle
 10
601.245937548
 20
654.195776705
 30
0.0
 40
9.375000000000025
100
AcDbArc
 50
327.4227936768
 51
212.5772063232
  0
ARC
  5
2CD
330
1F
100
AcDbEntity
  8
0
  6
Continuous
 62
     8
370
    25
100
AcDbCircle
 10
499.645937548
 20
654.195776705
 30
0.0
 40
24.80000000000007
100
AcDbArc
 50
90.0
 51
167.2098302264
  0
ARC
  5
2CE
330
1F
100
AcDbEntity
  8
0
  6
Continuous
 62
     8
370
    25
100
AcDbCircle
 10
499.645937548
 20
654.195776705
 30
0.0
 40
24.80000000000006
100
AcDbArc
 50
192.7992857454
 51
331.0614722598
  0
ARC
  5
2CF
330
1F
100
AcDbEntity
  8
0
  6
Continuous
 62
     8
370
    25
100
AcDbCircle
 10
499.645937548
 20
654.195776705
 30
0.0
 40
24.79999999999996
100
AcDbArc
 50
28.9385277402
 51
90.0
  0
ARC
  5
2D0
330
1F
100
AcDbEntity
  8
0
  6
Continuous
 62
     8
370
    25
100
AcDbCircle
 10
702.845937548
 20
654.195776705
 30
0.0
 40
24.80000000000007
100
AcDbArc
 50
270.0
 51
347.8490676901
  0
ARC
  5
2D1
330
1F
100
AcDbEntity
  8
0
  6
Continuous
 62
     8
370
    25
100
AcDbCircle
 10
702.845937548
 20
654.195776705
 30
0.0
 40
24.80000000000009
100
AcDbArc
 50
13.4017884688
 51
151.0614722598
  0
ARC
  5
2D2
330
1F
100
AcDbEntity
  8
0
  6
Continuous
 62
     8
370
    25
100
AcDbCircle
 10
702.845937548
 20
654.195776705
 30
0.0
 40
24.80000000000007
100
AcDbArc
 50
208.9385277402
 51
270.0
  0
SPLINE
  5
2D3
330
1F
100
AcDbEntity
  8
0
  6
Continuous
 62
     8
370
    25
100
AcDbSpline
210
0.0
220
0.0
230
1.0
 70
     8
 71
     3
 72
    16
 73
    12
 74
     0
 42
0.00000001
 43
0.00000001
 40
0.0
 40
0.0
 40
0.0
 40
0.0
 40
0.0961490818557367
 40
0.1898118314713863
 40
0.2837145723291145
 40
0.2938991301868718
 40
0.4289456490880268
 40
0.5643578936429551
 40
0.7523444602197986
 40
0.9406047997644947
 40
1.0
 40
1.0
 40
1.0
 40
1.0
 10
579.4656055770864
 20
654.1957767049812
 30
0.0
 10
579.5000297177253
 20
654.7263432193184
 30
0.0
 10
579.5679878204485
 20
655.7737562560319
 30
0.0
 10
580.0808746814649
 20
657.2386259732875
 30
0.0
 10
580.580274291963
 20
658.1625784221845
 30
0.0
 10
581.2696311708858
 20
659.2055310337469
 30
0.0
 10
582.2025746459188
 20
660.3183861157636
 30
0.0
 10
583.949042800685
 20
661.8265057256749
 30
0.0
 10
586.0916463966563
 20
663.1431897896067
 30
0.0
 10
587.9971765732823
 20
664.0922036980821
 30
0.0
 10
589.1376677961086
 20
664.4064991531243
 30
0.0
 10
589.4111916777337
 20
664.4818765967378
 30
0.0
  0
SPLINE
  5
2D4
330
1F
100
AcDbEntity
  8
0
  6
Continuous
 62
     8
370
    25
100
AcDbSpline
210
0.0
220
0.0
230
1.0
 70
     8
 71
     3
 72
    22
 73
    18
 74
     0
 42
0.00000001
 43
0.00000001
 40
0.0
 40
0.0
 40
0.0
 40
0.0
 40
0.0663335479292048
 40
0.1658080549069629
 40
0.2651165006618613
 40
0.3309593001234497
 40
0.3966234560455973
 40
0.4392759290857124
 40
0.481830108561745
 40
0.542412492330453
 40
0.5654977438834552
 40
0.6355595902766882
 40
0.6510991371505791
 40
0.7071405588952852
 40
0.763344838840662
 40
0.8867354697496367
 40
1.0
 40
1.0
 40
1.0
 40
1.0
 10
610.5160597089059
 20
665.2128128916265
 30
0.0
 10
611.1905043400008
 20
665.067845937705
 30
0.0
 10
612.8763534452474
 20
664.7054849694484
 30
0.0
 10
615.4744438753555
 20
663.6368595561858
 30
0.0
 10
617.9467347187245
 20
662.2526640726976
 30
0.0
 10
619.922537537015
 20
660.6806241722276
 30
0.0
 10
621.2389661923118
 20
659.2319780655303
 30
0.0
 10
622.1630245274768
 20
657.7599786007773
 30
0.0
 10
622.8286478902425
 20
656.175405731131
 30
0.0
 10
623.069286648595
 20
654.6461535149336
 30
0.0
 10
622.9610909428145
 20
652.7973783312269
 30
0.0
 10
622.576321114996
 20
651.5279275556006
 30
0.0
 10
621.8310902820057
 20
650.0619719109
 30
0.0
 10
620.994480679775
 20
648.8549858920215
 30
0.0
 10
619.1556769801232
 20
646.9861784658722
 30
0.0
 10
616.5145860324467
 20
645.178591443102
 30
0.0
 10
614.1840695330109
 20
644.2934593850187
 30
0.0
 10
613.0686708438118
 20
643.8698300575313
 30
0.0
  0
SPLINE
  5
2D5
330
1F
100
AcDbEntity
  8
0
  6
Continuous
 62
     8
370
    25
100
AcDbSpline
210
0.0
220
0.0
230
1.0
 70
     8
 71
     3
 72
    15
 73
    11
 74
     0
 42
0.00000001
 43
0.00000001
 40
0.0
 40
0.0
 40
0.0
 40
0.0
 40
0.1470288848989916
 40
0.3452979151469482
 40
0.5430476916550921
 40
0.6556896590239909
 40
0.7680052823731757
 40
0.844972886296423
 40
0.9217575037793772
 40
1.0
 40
1.0
 40
1.0
 40
1.0
 10
591.9799571206615
 20
643.1743336515366
 30
0.0
 10
591.1697261662117
 20
643.3599535561291
 30
0.0
 10
589.2668955792063
 20
643.7958826329879
 30
0.0
 10
586.396963068861
 20
645.0378393080799
 30
0.0
 10
583.8642571884017
 20
646.6021503701146
 30
0.0
 10
581.9851493375718
 20
648.2983390578077
 30
0.0
 10
580.825461804056
 20
649.7557212006866
 30
0.0
 10
580.0440224432581
 20
651.2415561230943
 30
0.0
 10
579.5612359559899
 20
652.6688769834391
 30
0.0
 10
579.4976815923134
 20
653.6836292129403
 30
0.0
 10
579.4656055770864
 20
654.1957767049812
 30
0.0
  0
SPLINE
  5
2D6
330
1F
100
AcDbEntity
  8
0
  6
Continuous
 62
     8
370
    25
100
AcDbSpline
210
0.0
220
0.0
230
1.0
 70
     8
 71
     3
 72
    14
 73
    10
 74
     0
 42
0.00000001
 43
0.00000001
 40
0.0
 40
0.0
 40
0.0
 40
0.0
 40
0.0339042694767613
 40
0.1227643379792767
 40
0.2393473976022812
 40
0.3605518550665982
 40
0.5545894037616561
 40
0.7532701287915714
 40
1.0
 40
1.0
 40
1.0
 40
1.0
 10
515.6779843068135
 20
666.1706588276193
 30
0.0
 10
515.6613977451351
 20
666.1786702476527
 30
0.0
 10
515.6013392836129
 20
666.2076788855567
 30
0.0
 10
515.8545808576213
 20
666.0860394802868
 30
0.0
 10
516.3550171337122
 20
665.8366231266417
 30
0.0
 10
517.3161181497135
 20
665.3238568670957
 30
0.0
 10
518.6547691624062
 20
664.5111144595737
 30
0.0
 10
520.434127954205
 20
663.2484233127497
 30
0.0
 10
521.6086149612743
 20
662.0561964903176
 30
0.0
 10
522.2592079881072
 20
661.3957767049909
 30
0.0
  0
SPLINE
  5
2D7
330
1F
100
AcDbEntity
  8
0
  6
Continuous
 62
     8
370
    25
100
AcDbSpline
210
0.0
220
0.0
230
1.0
 70
     8
 71
     3
 72
    13
 73
     9
 74
     0
 42
0.00000001
 43
0.00000001
 40
0.0
 40
0.0
 40
0.0
 40
0.0
 40
0.246852680036243
 40
0.4413438300474163
 40
0.639762803253569
 40
0.7569083686566879
 40
0.8776602722053083
 40
1.0
 40
1.0
 40
1.0
 40
1.0
 10
680.2326671077874
 20
661.3957767049811
 30
0.0
 10
680.8834988383954
 20
662.0563927464564
 30
0.0
 10
682.0471101415449
 20
663.2374972574245
 30
0.0
 10
683.8228622151565
 20
664.5022817822157
 30
0.0
 10
685.1620826579673
 20
665.3154091524532
 30
0.0
 10
686.1143509281958
 20
665.8256499936437
 30
0.0
 10
686.738900018609
 20
666.1356588887849
 30
0.0
 10
686.804769532239
 20
666.1666227775786
 30
0.0
 10
686.8379194120722
 20
666.1822058468332
 30
0.0
  0
SPLINE
  5
2D8
330
1F
100
AcDbEntity
  8
0
  6
Continuous
 62
     8
370
    25
100
AcDbSpline
210
0.0
220
0.0
230
1.0
 70
     8
 71
     3
 72
    13
 73
     9
 74
     0
 42
0.00000001
 43
0.00000001
 40
0.0
 40
0.0
 40
0.0
 40
0.0
 40
0.3086823418642293
 40
0.5142883665868363
 40
0.7190962927525687
 40
0.8856156044667604
 40
0.9383723368522264
 40
1.0
 40
1.0
 40
1.0
 40
1.0
 10
522.2592079881159
 20
646.995776704981
 30
0.0
 10
521.4405418620502
 20
646.1845334730824
 30
0.0
 10
520.0765815453972
 20
644.8329402652619
 30
0.0
 10
518.0872991766447
 20
643.5208086230764
 30
0.0
 10
516.6621732321986
 20
642.7052217488474
 30
0.0
 10
515.9118759855398
 20
642.3339996445037
 30
0.0
 10
515.6599019108237
 20
642.2120002433292
 30
0.0
 10
515.6387619121514
 20
642.2019093271348
 30
0.0
 10
515.6273721704732
 20
642.1964725751969
 30
0.0
  0
SPLINE
  5
2D9
330
1F
100
AcDbEntity
  8
0
  6
Continuous
 62
     8
370
    25
100
AcDbSpline
210
0.0
220
0.0
230
1.0
 70
     8
 71
     3
 72
    13
 73
     9
 74
     0
 42
0.00000001
 43
0.00000001
 40
0.0
 40
0.0
 40
0.0
 40
0.0
 40
0.0616929045226106
 40
0.2371799121155972
 40
0.280726215020047
 40
0.4874085834414771
 40
0.6949080054232472
 40
1.0
 40
1.0
 40
1.0
 40
1.0
 10
686.8645507009533
 20
642.1964496018802
 30
0.0
 10
686.8524443096197
 20
642.2022386674821
 30
0.0
 10
686.8059009858013
 20
642.2244948747606
 30
0.0
 10
686.3738977354781
 20
642.4337811544497
 30
0.0
 10
685.5223729257027
 20
642.8801523756216
 30
0.0
 10
684.3904831620412
 20
643.5293742240117
 30
0.0
 10
682.3995710903885
 20
644.8453830211962
 30
0.0
 10
681.0411769162355
 20
646.1934271780409
 30
0.0
 10
680.2326671077874
 20
646.9957767049812
 30
0.0
  0
ENDSEC
  0
SECTION
  2
OBJECTS
  0
DICTIONARY
  5
C
330
0
100
AcDbDictionary
281
     1
  3
ACAD_GROUP
350
D
  3
ACAD_LAYOUT
350
1A
  3
ACAD_MLINESTYLE
350
17
  3
ACAD_PLOTSETTINGS
350
19
  3
ACAD_PLOTSTYLENAME
350
E
  3
ACAD_SCALELIST
350
47
  3
DWGPROPS
350
2DA
  0
DICTIONARY
  5
D
102
{ACAD_REACTORS
330
C
102
}
330
C
100
AcDbDictionary
281
     1
  0
DICTIONARY
  5
1A
102
{ACAD_REACTORS
330
C
102
}
330
C
100
AcDbDictionary
281
     1
  3
Layout1
350
1E
  3
Layout2
350
26
  3
Model
350
22
  0
DICTIONARY
  5
17
102
{ACAD_REACTORS
330
C
102
}
330
C
100
AcDbDictionary
281
     1
  3
Standard
350
18
  0
DICTIONARY
  5
19
102
{ACAD_REACTORS
330
C
102
}
330
C
100
AcDbDictionary
281
     1
  0
ACDBDICTIONARYWDFLT
  5
E
102
{ACAD_REACTORS
330
C
102
}
330
C
100
AcDbDictionary
281
     1
  3
Normal
350
F
100
AcDbDictionaryWithDefault
340
F
  0
DICTIONARY
  5
47
102
{ACAD_REACTORS
330
C
102
}
330
C
100
AcDbDictionary
281
     1
  3
A0
350
48
  3
A1
350
49
  3
A2
350
4A
  3
A3
350
4B
  3
A4
350
4C
  3
A5
350
4D
  3
A6
350
4E
  3
A7
350
4F
  3
A8
350
50
  3
A9
350
51
  3
B0
350
52
  3
B1
350
53
  3
B2
350
54
  3
B3
350
55
  3
B4
350
56
  3
B5
350
57
  3
B6
350
58
  3
B7
350
59
  3
B8
350
5A
  3
B9
350
5B
  3
C0
350
5C
  3
C1
350
5D
  3
C2
350
5E
  3
C3
350
5F
  3
C4
350
60
  3
C5
350
61
  3
C6
350
62
  3
C7
350
63
  3
C8
350
64
  3
C9
350
65
  3
D0
350
66
  3
D1
350
67
  3
D2
350
68
  0
XRECORD
  5
2DA
102
{ACAD_REACTORS
330
C
102
}
330
C
100
AcDbXrecord
280
     1
  1
DWGPROPS COOKIE
  2

  3

  4

  6

  7

  8
designer5
  9

300
=
301
=
302
=
303
=
304
=
305
=
306
=
307
=
308
=
309
=
 40
0.0
 41
2460383.353618472
 42
2460383.353618993
  1

 90
        0
  0
LAYOUT
  5
1E
102
{ACAD_REACTORS
330
1A
102
}
330
1A
100
AcDbPlotSettings
  1

  2
none_device
  4

  6

 40
0.0
 41
0.0
 42
0.0
 43
0.0
 44
0.0
 45
0.0
 46
0.0
 47
0.0
 48
0.0
 49
0.0
140
0.0
141
0.0
142
1.0
143
1.0
 70
   688
 72
     1
 73
     0
 74
     5
  7

 75
    16
147
1.0
148
0.0
149
0.0
100
AcDbLayout
  1
Layout1
 70
     1
 71
     1
 10
0.0
 20
0.0
 11
420.0
 21
297.0
 12
0.0
 22
0.0
 32
0.0
 14
1.0000000000E+20
 24
1.0000000000E+20
 34
1.0000000000E+20
 15
-1.0000000000E+20
 25
-1.0000000000E+20
 35
-1.0000000000E+20
146
0.0
 13
0.0
 23
0.0
 33
0.0
 16
1.0
 26
0.0
 36
0.0
 17
0.0
 27
1.0
 37
0.0
 76
     0
330
1B
  0
LAYOUT
  5
26
102
{ACAD_REACTORS
330
1A
102
}
330
1A
100
AcDbPlotSettings
  1

  2
none_device
  4

  6

 40
0.0
 41
0.0
 42
0.0
 43
0.0
 44
0.0
 45
0.0
 46
0.0
 47
0.0
 48
0.0
 49
0.0
140
0.0
141
0.0
142
1.0
143
1.0
 70
   688
 72
     1
 73
     0
 74
     5
  7

 75
    16
147
1.0
148
0.0
149
0.0
100
AcDbLayout
  1
Layout2
 70
     1
 71
     2
 10
0.0
 20
0.0
 11
0.0
 21
0.0
 12
0.0
 22
0.0
 32
0.0
 14
0.0
 24
0.0
 34
0.0
 15
0.0
 25
0.0
 35
0.0
146
0.0
 13
0.0
 23
0.0
 33
0.0
 16
1.0
 26
0.0
 36
0.0
 17
0.0
 27
1.0
 37
0.0
 76
     0
330
23
  0
LAYOUT
  5
22
102
{ACAD_REACTORS
330
1A
102
}
330
1A
100
AcDbPlotSettings
  1

  2
none_device
  4
Letter_(8.50_x_11.00_Inches)
  6

 40
6.35
 41
6.35
 42
6.35000508
 43
6.35000508
 44
215.9
 45
279.4
 46
0.0
 47
0.0
 48
0.0
 49
0.0
140
0.0
141
0.0
142
1.0
143
1.0
 70
  1712
 72
     1
 73
     0
 74
     0
  7

 75
     0
147
1.0
148
0.0
149
0.0
100
AcDbLayout
  1
Model
 70
     1
 71
     0
 10
0.0
 20
0.0
 11
1189.0
 21
841.0
 12
0.0
 22
0.0
 32
0.0
 14
0.0
 24
0.0
 34
0.0
 15
1189.0
 25
841.0
 35
0.0
146
0.0
 13
0.0
 23
0.0
 33
0.0
 16
1.0
 26
0.0
 36
0.0
 17
0.0
 27
1.0
 37
0.0
 76
     0
330
1F
331
29
  0
MLINESTYLE
  5
18
102
{ACAD_REACTORS
330
17
102
}
330
17
100
AcDbMlineStyle
  2
Standard
 70
     0
  3

 62
   256
 51
90.0
 52
90.0
 71
     2
 49
0.5
 62
   256
  6
BYLAYER
 49
-0.5
 62
   256
  6
BYLAYER
  0
ACDBPLACEHOLDER
  5
F
102
{ACAD_REACTORS
330
E
102
}
330
E
  0
SCALE
  5
48
102
{ACAD_REACTORS
330
47
102
}
330
47
100
AcDbScale
 70
     0
300
1:1
140
1.0
141
1.0
290
     1
  0
SCALE
  5
49
102
{ACAD_REACTORS
330
47
102
}
330
47
100
AcDbScale
 70
     0
300
1:2
140
1.0
141
2.0
290
     0
  0
SCALE
  5
4A
102
{ACAD_REACTORS
330
47
102
}
330
47
100
AcDbScale
 70
     0
300
1:4
140
1.0
141
4.0
290
     0
  0
SCALE
  5
4B
102
{ACAD_REACTORS
330
47
102
}
330
47
100
AcDbScale
 70
     0
300
1:5
140
1.0
141
5.0
290
     0
  0
SCALE
  5
4C
102
{ACAD_REACTORS
330
47
102
}
330
47
100
AcDbScale
 70
     0
300
1:8
140
1.0
141
8.0
290
     0
  0
SCALE
  5
4D
102
{ACAD_REACTORS
330
47
102
}
330
47
100
AcDbScale
 70
     0
300
1:10
140
1.0
141
10.0
290
     0
  0
SCALE
  5
4E
102
{ACAD_REACTORS
330
47
102
}
330
47
100
AcDbScale
 70
     0
300
1:16
140
1.0
141
16.0
290
     0
  0
SCALE
  5
4F
102
{ACAD_REACTORS
330
47
102
}
330
47
100
AcDbScale
 70
     0
300
1:20
140
1.0
141
20.0
290
     0
  0
SCALE
  5
50
102
{ACAD_REACTORS
330
47
102
}
330
47
100
AcDbScale
 70
     0
300
1:30
140
1.0
141
30.0
290
     0
  0
SCALE
  5
51
102
{ACAD_REACTORS
330
47
102
}
330
47
100
AcDbScale
 70
     0
300
1:40
140
1.0
141
40.0
290
     0
  0
SCALE
  5
52
102
{ACAD_REACTORS
330
47
102
}
330
47
100
AcDbScale
 70
     0
300
1:50
140
1.0
141
50.0
290
     0
  0
SCALE
  5
53
102
{ACAD_REACTORS
330
47
102
}
330
47
100
AcDbScale
 70
     0
300
1:100
140
1.0
141
100.0
290
     0
  0
SCALE
  5
54
102
{ACAD_REACTORS
330
47
102
}
330
47
100
AcDbScale
 70
     0
300
2:1
140
2.0
141
1.0
290
     0
  0
SCALE
  5
55
102
{ACAD_REACTORS
330
47
102
}
330
47
100
AcDbScale
 70
     0
300
4:1
140
4.0
141
1.0
290
     0
  0
SCALE
  5
56
102
{ACAD_REACTORS
330
47
102
}
330
47
100
AcDbScale
 70
     0
300
8:1
140
8.0
141
1.0
290
     0
  0
SCALE
  5
57
102
{ACAD_REACTORS
330
47
102
}
330
47
100
AcDbScale
 70
     0
300
10:1
140
10.0
141
1.0
290
     0
  0
SCALE
  5
58
102
{ACAD_REACTORS
330
47
102
}
330
47
100
AcDbScale
 70
     0
300
100:1
140
100.0
141
1.0
290
     0
  0
SCALE
  5
59
102
{ACAD_REACTORS
330
47
102
}
330
47
100
AcDbScale
 70
     0
300
1/128" = 1'-0"
140
0.0078125
141
12.0
290
     0
  0
SCALE
  5
5A
102
{ACAD_REACTORS
330
47
102
}
330
47
100
AcDbScale
 70
     0
300
1/64" = 1'-0"
140
0.015625
141
12.0
290
     0
  0
SCALE
  5
5B
102
{ACAD_REACTORS
330
47
102
}
330
47
100
AcDbScale
 70
     0
300
1/32" = 1'-0"
140
0.03125
141
12.0
290
     0
  0
SCALE
  5
5C
102
{ACAD_REACTORS
330
47
102
}
330
47
100
AcDbScale
 70
     0
300
1/16" = 1'-0"
140
0.0625
141
12.0
290
     0
  0
SCALE
  5
5D
102
{ACAD_REACTORS
330
47
102
}
330
47
100
AcDbScale
 70
     0
300
3/32" = 1'-0"
140
0.09375
141
12.0
290
     0
  0
SCALE
  5
5E
102
{ACAD_REACTORS
330
47
102
}
330
47
100
AcDbScale
 70
     0
300
1/8" = 1'-0"
140
0.125
141
12.0
290
     0
  0
SCALE
  5
5F
102
{ACAD_REACTORS
330
47
102
}
330
47
100
AcDbScale
 70
     0
300
3/16" = 1'-0"
140
0.1875
141
12.0
290
     0
  0
SCALE
  5
60
102
{ACAD_REACTORS
330
47
102
}
330
47
100
AcDbScale
 70
     0
300
1/4" = 1'-0"
140
0.25
141
12.0
290
     0
  0
SCALE
  5
61
102
{ACAD_REACTORS
330
47
102
}
330
47
100
AcDbScale
 70
     0
300
3/8" = 1'-0"
140
0.375
141
12.0
290
     0
  0
SCALE
  5
62
102
{ACAD_REACTORS
330
47
102
}
330
47
100
AcDbScale
 70
     0
300
1/2" = 1'-0"
140
0.5
141
12.0
290
     0
  0
SCALE
  5
63
102
{ACAD_REACTORS
330
47
102
}
330
47
100
AcDbScale
 70
     0
300
3/4" = 1'-0"
140
0.75
141
12.0
290
     0
  0
SCALE
  5
64
102
{ACAD_REACTORS
330
47
102
}
330
47
100
AcDbScale
 70
     0
300
1" = 1'-0"
140
1.0
141
12.0
290
     0
  0
SCALE
  5
65
102
{ACAD_REACTORS
330
47
102
}
330
47
100
AcDbScale
 70
     0
300
1-1/2" = 1'-0"
140
1.5
141
12.0
290
     0
  0
SCALE
  5
66
102
{ACAD_REACTORS
330
47
102
}
330
47
100
AcDbScale
 70
     0
300
3" = 1'-0"
140
3.0
141
12.0
290
     0
  0
SCALE
  5
67
102
{ACAD_REACTORS
330
47
102
}
330
47
100
AcDbScale
 70
     0
300
6" = 1'-0"
140
6.0
141
12.0
290
     0
  0
SCALE
  5
68
102
{ACAD_REACTORS
330
47
102
}
330
47
100
AcDbScale
 70
     0
300
1'-0" = 1'-0"
140
12.0
141
12.0
290
     0
  0
ENDSEC
  0
EOF
