  0
SECTION
  2
HEADER
  9
$ACADVER
  1
AC1015
  9
$ACADMAINTVER
 70
     6
  9
$DWGCODEPAGE
  3
ANSI_1252
  9
$INSBASE
 10
0.0
 20
0.0
 30
0.0
  9
$EXTMIN
 10
0.0
 20
0.0
 30
0.0
  9
$EXTMAX
 10
1189.0
 20
841.0
 30
0.0
  9
$LIMMIN
 10
0.0
 20
0.0
  9
$LIMMAX
 10
1189.0
 20
841.0
  9
$ORTHOMODE
 70
     0
  9
$REGENMODE
 70
     1
  9
$FILLMODE
 70
     1
  9
$QTEXTMODE
 70
     0
  9
$MIRRTEXT
 70
     1
  9
$LTSCALE
 40
1.0
  9
$ATTMODE
 70
     1
  9
$TEXTSIZE
 40
3.5
  9
$TRACEWID
 40
1.0
  9
$TEXTSTYLE
  7
Standard
  9
$CLAYER
  8
0
  9
$CELTYPE
  6
ByLayer
  9
$CECOLOR
 62
   256
  9
$CELTSCALE
 40
1.0
  9
$DISPSILH
 70
     0
  9
$DIMSCALE
 40
1.0
  9
$DIMASZ
 40
3.302
  9
$DIMEXO
 40
1.0
  9
$DIMDLI
 40
3.75
  9
$DIMRND
 40
0.0
  9
$DIMDLE
 40
0.0
  9
$DIMEXE
 40
1.0
  9
$DIMTP
 40
0.0
  9
$DIMTM
 40
0.0
  9
$DIMTXT
 40
3.5
  9
$DIMCEN
 40
2.5
  9
$DIMTSZ
 40
0.0
  9
$DIMTOL
 70
     0
  9
$DIMLIM
 70
     0
  9
$DIMTIH
 70
     1
  9
$DIMTOH
 70
     1
  9
$DIMSE1
 70
     0
  9
$DIMSE2
 70
     0
  9
$DIMTAD
 70
     1
  9
$DIMZIN
 70
     1
  9
$DIMBLK
  1

  9
$DIMASO
 70
     1
  9
$DIMSHO
 70
     1
  9
$DIMPOST
  1

  9
$DIMAPOST
  1

  9
$DIMALT
 70
     0
  9
$DIMALTD
 70
     3
  9
$DIMALTF
 40
0.0393700787
  9
$DIMLFAC
 40
2.0
  9
$DIMTOFL
 70
     1
  9
$DIMTVP
 40
0.0
  9
$DIMTIX
 70
     0
  9
$DIMSOXD
 70
     0
  9
$DIMSAH
 70
     0
  9
$DIMBLK1
  1

  9
$DIMBLK2
  1

  9
$DIMSTYLE
  2
ISO-25
  9
$DIMCLRD
 70
     0
  9
$DIMCLRE
 70
     0
  9
$DIMCLRT
 70
     0
  9
$DIMTFAC
 40
1.0
  9
$DIMGAP
 40
1.524
  9
$DIMJUST
 70
     0
  9
$DIMSD1
 70
     0
  9
$DIMSD2
 70
     0
  9
$DIMTOLJ
 70
     0
  9
$DIMTZIN
 70
     1
  9
$DIMALTZ
 70
     0
  9
$DIMALTTZ
 70
     0
  9
$DIMUPT
 70
     0
  9
$DIMDEC
 70
     2
  9
$DIMTDEC
 70
     2
  9
$DIMALTU
 70
     2
  9
$DIMALTTD
 70
     3
  9
$DIMTXSTY
  7
Standard
  9
$DIMAUNIT
 70
     0
  9
$DIMADEC
 70
     2
  9
$DIMALTRND
 40
0.0
  9
$DIMAZIN
 70
     0
  9
$DIMDSEP
 70
    44
  9
$DIMATFIT
 70
     3
  9
$DIMFRAC
 70
     0
  9
$DIMLDRBLK
  1

  9
$DIMLUNIT
 70
     2
  9
$DIMLWD
 70
    -2
  9
$DIMLWE
 70
    -2
  9
$DIMTMOVE
 70
     0
  9
$LUNITS
 70
     2
  9
$LUPREC
 70
     2
  9
$SKETCHINC
 40
1.0
  9
$FILLETRAD
 40
10.0
  9
$AUNITS
 70
     0
  9
$AUPREC
 70
     2
  9
$MENU
  1
.
  9
$ELEVATION
 40
0.0
  9
$PELEVATION
 40
0.0
  9
$THICKNESS
 40
0.0
  9
$LIMCHECK
 70
     0
  9
$CHAMFERA
 40
0.0
  9
$CHAMFERB
 40
0.0
  9
$CHAMFERC
 40
0.0
  9
$CHAMFERD
 40
0.0
  9
$SKPOLY
 70
     0
  9
$TDCREATE
 40
2460383.452615463
  9
$TDUCREATE
 40
2460383.223448796
  9
$TDUPDATE
 40
2460383.452615926
  9
$TDUUPDATE
 40
2460383.223449259
  9
$TDINDWG
 40
0.0000000116
  9
$TDUSRTIMER
 40
0.0000000116
  9
$USRTIMER
 70
     1
  9
$ANGBASE
 50
0.0
  9
$ANGDIR
 70
     0
  9
$PDMODE
 70
     0
  9
$PDSIZE
 40
-1.0
  9
$PLINEWID
 40
0.0
  9
$SPLFRAME
 70
     0
  9
$SPLINETYPE
 70
     6
  9
$SPLINESEGS
 70
     8
  9
$HANDSEED
  5
2D9
  9
$SURFTAB1
 70
     6
  9
$SURFTAB2
 70
     6
  9
$SURFTYPE
 70
     6
  9
$SURFU
 70
     6
  9
$SURFV
 70
     6
  9
$UCSBASE
  2

  9
$UCSNAME
  2

  9
$UCSORG
 10
0.0
 20
0.0
 30
0.0
  9
$UCSXDIR
 10
1.0
 20
0.0
 30
0.0
  9
$UCSYDIR
 10
0.0
 20
1.0
 30
0.0
  9
$UCSORTHOREF
  2

  9
$UCSORTHOVIEW
 70
     0
  9
$UCSORGTOP
 10
0.0
 20
0.0
 30
0.0
  9
$UCSORGBOTTOM
 10
0.0
 20
0.0
 30
0.0
  9
$UCSORGLEFT
 10
0.0
 20
0.0
 30
0.0
  9
$UCSORGRIGHT
 10
0.0
 20
0.0
 30
0.0
  9
$UCSORGFRONT
 10
0.0
 20
0.0
 30
0.0
  9
$UCSORGBACK
 10
0.0
 20
0.0
 30
0.0
  9
$PUCSBASE
  2

  9
$PUCSNAME
  2

  9
$PUCSORG
 10
0.0
 20
0.0
 30
0.0
  9
$PUCSXDIR
 10
1.0
 20
0.0
 30
0.0
  9
$PUCSYDIR
 10
0.0
 20
1.0
 30
0.0
  9
$PUCSORTHOREF
  2

  9
$PUCSORTHOVIEW
 70
     0
  9
$PUCSORGTOP
 10
0.0
 20
0.0
 30
0.0
  9
$PUCSORGBOTTOM
 10
0.0
 20
0.0
 30
0.0
  9
$PUCSORGLEFT
 10
0.0
 20
0.0
 30
0.0
  9
$PUCSORGRIGHT
 10
0.0
 20
0.0
 30
0.0
  9
$PUCSORGFRONT
 10
0.0
 20
0.0
 30
0.0
  9
$PUCSORGBACK
 10
0.0
 20
0.0
 30
0.0
  9
$USERI1
 70
     0
  9
$USERI2
 70
     0
  9
$USERI3
 70
     0
  9
$USERI4
 70
     0
  9
$USERI5
 70
     0
  9
$USERR1
 40
0.0
  9
$USERR2
 40
0.0
  9
$USERR3
 40
0.0
  9
$USERR4
 40
0.0
  9
$USERR5
 40
0.0
  9
$WORLDVIEW
 70
     1
  9
$SHADEDGE
 70
     3
  9
$SHADEDIF
 70
    70
  9
$TILEMODE
 70
     1
  9
$MAXACTVP
 70
    64
  9
$PINSBASE
 10
0.0
 20
0.0
 30
0.0
  9
$PLIMCHECK
 70
     0
  9
$PEXTMIN
 10
1.0000000000E+20
 20
1.0000000000E+20
 30
1.0000000000E+20
  9
$PEXTMAX
 10
-1.0000000000E+20
 20
-1.0000000000E+20
 30
-1.0000000000E+20
  9
$PLIMMIN
 10
0.0
 20
0.0
  9
$PLIMMAX
 10
420.0
 20
297.0
  9
$UNITMODE
 70
     0
  9
$VISRETAIN
 70
     1
  9
$PLINEGEN
 70
     0
  9
$PSLTSCALE
 70
     1
  9
$TREEDEPTH
 70
  3020
  9
$CMLSTYLE
  2
Standard
  9
$CMLJUST
 70
     0
  9
$CMLSCALE
 40
20.0
  9
$PROXYGRAPHICS
 70
     1
  9
$MEASUREMENT
 70
     1
  9
$CELWEIGHT
370
    -1
  9
$ENDCAPS
280
     0
  9
$JOINSTYLE
280
     0
  9
$LWDISPLAY
290
     1
  9
$INSUNITS
 70
     4
  9
$HYPERLINKBASE
  1

  9
$STYLESHEET
  1

  9
$XEDIT
290
     1
  9
$CEPSNTYPE
380
     0
  9
$PSTYLEMODE
290
     1
  9
$FINGERPRINTGUID
  2
{504eb532-08cd-434f-bf24-2abbc173d110}
  9
$VERSIONGUID
  2
{FAEB1C32-E019-11D5-929B-00C0DF256EC4}
  9
$EXTNAMES
290
     1
  9
$PSVPSCALE
 40
0.0
  9
$OLESTARTUP
290
     0
  0
ENDSEC
  0
SECTION
  2
CLASSES
  0
CLASS
  1
ACDBDICTIONARYWDFLT
  2
AcDbDictionaryWithDefault
  3
ObjectDBX Classes
 90
        0
280
     0
281
     0
  0
CLASS
  1
VISUALSTYLE
  2
AcDbVisualStyle
  3
ObjectDBX Classes
 90
     4095
280
     0
281
     0
  0
CLASS
  1
MATERIAL
  2
AcDbMaterial
  3
ObjectDBX Classes
 90
     1153
280
     0
281
     0
  0
CLASS
  1
SCALE
  2
AcDbScale
  3
ObjectDBX Classes
 90
     1153
280
     0
281
     0
  0
CLASS
  1
TABLESTYLE
  2
AcDbTableStyle
  3
ObjectDBX Classes
 90
     4095
280
     0
281
     0
  0
CLASS
  1
MLEADERSTYLE
  2
AcDbMLeaderStyle
  3
ACDB_MLEADERSTYLE_CLASS
 90
     4095
280
     0
281
     0
  0
CLASS
  1
SUN
  2
AcDbSun
  3
SCENEOE
 90
     1153
280
     0
281
     0
  0
CLASS
  1
ACDBPLACEHOLDER
  2
AcDbPlaceHolder
  3
ObjectDBX Classes
 90
        0
280
     0
281
     0
  0
CLASS
  1
LAYOUT
  2
AcDbLayout
  3
ObjectDBX Classes
 90
        0
280
     0
281
     0
  0
ENDSEC
  0
SECTION
  2
TABLES
  0
TABLE
  2
VPORT
  5
8
330
0
100
AcDbSymbolTable
 70
     1
  0
VPORT
  5
29
330
8
100
AcDbSymbolTableRecord
100
AcDbViewportTableRecord
  2
*Active
 70
     0
 10
0.0
 20
0.0
 11
1.0
 21
1.0
 12
594.5
 22
420.5
 13
0.0
 23
0.0
 14
10.0
 24
10.0
 15
10.0
 25
10.0
 16
0.0
 26
0.0
 36
1.0
 17
0.0
 27
0.0
 37
0.0
 40
841.0
 41
1.4137931034
 42
50.0
 43
0.0
 44
0.0
 50
0.0
 51
0.0
 71
     0
 72
  2000
 73
     1
 74
     3
 75
     0
 76
     0
 77
     0
 78
     0
281
     0
 65
     1
110
0.0
120
0.0
130
0.0
111
1.0
121
0.0
131
0.0
112
0.0
122
1.0
132
0.0
 79
     0
146
0.0
  0
ENDTAB
  0
TABLE
  2
LTYPE
  5
5
330
0
100
AcDbSymbolTable
 70
     6
  0
LTYPE
  5
14
330
5
100
AcDbSymbolTableRecord
100
AcDbLinetypeTableRecord
  2
ByBlock
 70
     0
  3

 72
    65
 73
     0
 40
0.0
  0
LTYPE
  5
15
330
5
100
AcDbSymbolTableRecord
100
AcDbLinetypeTableRecord
  2
ByLayer
 70
     0
  3

 72
    65
 73
     0
 40
0.0
  0
LTYPE
  5
16
330
5
100
AcDbSymbolTableRecord
100
AcDbLinetypeTableRecord
  2
Continuous
 70
     0
  3
Solid line
 72
    65
 73
     0
 40
0.0
  0
LTYPE
  5
6E
330
5
100
AcDbSymbolTableRecord
100
AcDbLinetypeTableRecord
  2
HIDDEN
 70
     0
  3
Hidden __ __ __ __ __ __ __ __ __ __ __ __ __ __
 72
    65
 73
     2
 40
1.905
 49
1.27
 74
     0
 49
-0.635
 74
     0
  0
LTYPE
  5
6F
330
5
100
AcDbSymbolTableRecord
100
AcDbLinetypeTableRecord
  2
PHANTOM
 70
     0
  3
Phantom ______  __  __  ______  __  __  ______
 72
    65
 73
     6
 40
12.7
 49
6.35
 74
     0
 49
-1.27
 74
     0
 49
1.27
 74
     0
 49
-1.27
 74
     0
 49
1.27
 74
     0
 49
-1.27
 74
     0
  0
LTYPE
  5
70
330
5
100
AcDbSymbolTableRecord
100
AcDbLinetypeTableRecord
  2
CENTER
 70
     0
  3
Center ____ _ ____ _ ____ _ ____ _ ____ _ ____
 72
    65
 73
     4
 40
10.16
 49
6.35
 74
     0
 49
-1.27
 74
     0
 49
1.27
 74
     0
 49
-1.27
 74
     0
  0
LTYPE
  5
71
330
5
100
AcDbSymbolTableRecord
100
AcDbLinetypeTableRecord
  2
CENTERX2
 70
     0
  3
Center (2x) ________  __  ________  __  _____
 72
    65
 73
     4
 40
20.32
 49
12.7
 74
     0
 49
-2.54
 74
     0
 49
2.54
 74
     0
 49
-2.54
 74
     0
  0
LTYPE
  5
72
330
5
100
AcDbSymbolTableRecord
100
AcDbLinetypeTableRecord
  2
DOT2
 70
     0
  3
Dot (.5x) ........................................
 72
    65
 73
     2
 40
0.635
 49
0.0
 74
     0
 49
-0.635
 74
     0
  0
ENDTAB
  0
TABLE
  2
LAYER
  5
2
330
0
100
AcDbSymbolTable
 70
     1
  0
LAYER
  5
10
330
2
100
AcDbSymbolTableRecord
100
AcDbLayerTableRecord
  2
0
 70
     0
 62
     7
  6
Continuous
370
    -3
390
F
  0
ENDTAB
  0
TABLE
  2
STYLE
  5
3
330
0
100
AcDbSymbolTable
 70
     1
  0
STYLE
  5
11
330
3
100
AcDbSymbolTableRecord
100
AcDbTextStyleTableRecord
  2
Standard
 70
     0
 40
0.0
 41
1.0
 50
0.0
 71
     0
 42
3.5
  3
txt
  4

  0
ENDTAB
  0
TABLE
  2
VIEW
  5
6
330
0
100
AcDbSymbolTable
 70
     0
  0
ENDTAB
  0
TABLE
  2
UCS
  5
7
330
0
100
AcDbSymbolTable
 70
     0
  0
ENDTAB
  0
TABLE
  2
APPID
  5
9
330
0
100
AcDbSymbolTable
 70
     1
  0
APPID
  5
12
330
9
100
AcDbSymbolTableRecord
100
AcDbRegAppTableRecord
  2
ACAD
 70
     0
  0
ENDTAB
  0
TABLE
  2
DIMSTYLE
  5
A
330
0
100
AcDbSymbolTable
 70
     1
100
AcDbDimStyleTable
  0
DIMSTYLE
105
27
330
A
100
AcDbSymbolTableRecord
100
AcDbDimStyleTableRecord
  2
ISO-25
 70
     0
 41
2.5
 42
0.625
 43
3.75
 44
1.25
 73
     0
 74
     0
 77
     1
 78
     8
140
2.5
141
2.5
143
0.0393700787
147
0.625
171
     3
172
     1
178
     0
271
     2
272
     2
274
     3
278
    44
283
     0
284
     8
340
11
  0
ENDTAB
  0
TABLE
  2
BLOCK_RECORD
  5
1
330
0
100
AcDbSymbolTable
 70
     1
  0
BLOCK_RECORD
  5
1F
330
1
100
AcDbSymbolTableRecord
100
AcDbBlockTableRecord
  2
*Model_Space
340
22
  0
BLOCK_RECORD
  5
1B
330
1
100
AcDbSymbolTableRecord
100
AcDbBlockTableRecord
  2
*Paper_Space
340
1E
  0
BLOCK_RECORD
  5
23
330
1
100
AcDbSymbolTableRecord
100
AcDbBlockTableRecord
  2
*Paper_Space0
340
26
  0
ENDTAB
  0
ENDSEC
  0
SECTION
  2
BLOCKS
  0
BLOCK
  5
20
330
1F
100
AcDbEntity
  8
0
100
AcDbBlockBegin
  2
*Model_Space
 70
     0
 10
0.0
 20
0.0
 30
0.0
  3
*Model_Space
  1

  0
ENDBLK
  5
21
330
1F
100
AcDbEntity
  8
0
100
AcDbBlockEnd
  0
BLOCK
  5
1C
330
1B
100
AcDbEntity
 67
     1
  8
0
100
AcDbBlockBegin
  2
*Paper_Space
 70
     0
 10
0.0
 20
0.0
 30
0.0
  3
*Paper_Space
  1

  0
ENDBLK
  5
1D
330
1B
100
AcDbEntity
 67
     1
  8
0
100
AcDbBlockEnd
  0
BLOCK
  5
24
330
23
100
AcDbEntity
  8
0
100
AcDbBlockBegin
  2
*Paper_Space0
 70
     0
 10
0.0
 20
0.0
 30
0.0
  3
*Paper_Space0
  1

  0
ENDBLK
  5
25
330
23
100
AcDbEntity
  8
0
100
AcDbBlockEnd
  0
ENDSEC
  0
SECTION
  2
ENTITIES
  0
SPLINE
  5
73
330
1F
100
AcDbEntity
  8
0
  6
Continuous
 62
     7
370
    25
100
AcDbSpline
210
0.0
220
0.0
230
1.0
 70
     8
 71
     3
 72
    12
 73
     8
 74
     0
 42
0.00000001
 43
0.00000001
 40
0.0
 40
0.0
 40
0.0
 40
0.0
 40
0.010111213567807
 40
0.2471911270340457
 40
0.4435553485533592
 40
0.7066495735705471
 40
1.0
 40
1.0
 40
1.0
 40
1.0
 10
687.0759121991094
 20
632.4401439492399
 30
0.0
 10
687.0625508198399
 20
632.4304933496885
 30
0.0
 10
686.7359021561339
 20
632.1945629577872
 30
0.0
 10
686.1019580158745
 20
631.8316784968429
 30
0.0
 10
685.0528524698068
 20
631.3893429231107
 30
0.0
 10
683.8570806021893
 20
631.061021228627
 30
0.0
 10
682.9459340055869
 20
631.0216930709429
 30
0.0
 10
682.4655892993197
 20
631.0009597746531
 30
0.0
  0
SPLINE
  5
74
330
1F
100
AcDbEntity
  8
0
  6
Continuous
 62
     7
370
    25
100
AcDbSpline
210
0.0
220
0.0
230
1.0
 70
     8
 71
     3
 72
    14
 73
    10
 74
     0
 42
0.00000001
 43
0.00000001
 40
0.0
 40
0.0
 40
0.0
 40
0.0
 40
0.110392003749533
 40
0.3215458028786831
 40
0.5131485595554145
 40
0.6823365456853135
 40
0.8252270634682551
 40
0.9368059708259731
 40
1.0
 40
1.0
 40
1.0
 40
1.0
 10
682.4938685953183
 20
606.9773816932005
 30
0.0
 10
682.6794194513187
 20
606.9816915641686
 30
0.0
 10
683.219885218231
 20
606.9942451991575
 30
0.0
 10
684.0762946732737
 20
606.8572814423139
 30
0.0
 10
685.0058650995567
 20
606.6123606640316
 30
0.0
 10
685.794432621458
 20
606.2992060439199
 30
0.0
 10
686.4263847440651
 20
605.9736335957637
 30
0.0
 10
686.8836049643845
 20
605.6920339930431
 30
0.0
 10
687.1171460149254
 20
605.5249435202599
 30
0.0
 10
687.2015892946122
 20
605.4645273000984
 30
0.0
  0
SPLINE
  5
75
330
1F
100
AcDbEntity
  8
0
  6
Continuous
 62
     7
370
    25
100
AcDbSpline
210
0.0
220
0.0
230
1.0
 70
     8
 71
     3
 72
    13
 73
     9
 74
     0
 42
0.00000001
 43
0.00000001
 40
0.0
 40
0.0
 40
0.0
 40
0.0
 40
0.2245277801877857
 40
0.4326004429281387
 40
0.6194870271029321
 40
0.7818100676624089
 40
0.9152378004374497
 40
0.9999999999999999
 40
0.9999999999999999
 40
0.9999999999999999
 40
0.9999999999999999
 10
511.2945630217892
 20
630.9956179359342
 30
0.0
 10
510.9262740061611
 20
631.008277110946
 30
0.0
 10
510.2166870180695
 20
631.032667699552
 30
0.0
 10
509.218736068783
 20
631.240688962344
 30
0.0
 10
508.3495434743484
 20
631.5256244032355
 30
0.0
 10
507.6290995385248
 20
631.8547220828465
 30
0.0
 10
507.0846048568426
 20
632.1606056036172
 30
0.0
 10
506.7896870046675
 20
632.3625729373372
 30
0.0
 10
506.675117622053
 20
632.441032998544
 30
0.0
  0
SPLINE
  5
76
330
1F
100
AcDbEntity
  8
0
  6
Continuous
 62
     7
370
    25
100
AcDbSpline
210
0.0
220
0.0
230
1.0
 70
     8
 71
     3
 72
    13
 73
     9
 74
     0
 42
0.00000001
 43
0.00000001
 40
0.0
 40
0.0
 40
0.0
 40
0.0
 40
0.0841652697808864
 40
0.1931522504184889
 40
0.389721598124001
 40
0.5847071704246675
 40
0.9005282885255913
 40
1.0
 40
1.0
 40
1.0
 40
1.0
 10
506.5488835745555
 20
605.4644226013493
 30
0.0
 10
506.6622257927687
 20
605.5448394642592
 30
0.0
 10
506.922336698042
 20
605.7293894346102
 30
0.0
 10
507.4860619429715
 20
606.0665990003148
 30
0.0
 10
508.2443125316106
 20
606.4326526713642
 30
0.0
 10
509.3729782589735
 20
606.8020021528388
 30
0.0
 10
510.3916716757773
 20
607.0081417552207
 30
0.0
 10
511.0888855349247
 20
606.977465138539
 30
0.0
 10
511.255883496108
 20
606.9701174182167
 30
0.0
  0
LINE
  5
77
330
1F
100
AcDbEntity
  8
0
  6
Continuous
 62
     7
370
    25
100
AcDbLine
 10
586.2921942981
 20
630.9969612004
 30
0.0
 11
511.3067873379
 21
630.9969612004
 31
0.0
  0
LINE
  5
78
330
1F
100
AcDbEntity
  8
0
  6
Continuous
 62
     7
370
    25
100
AcDbLine
 10
682.4663495924
 20
630.9969612004
 30
0.0
 11
605.221496568
 21
630.9969612004
 31
0.0
  0
LINE
  5
79
330
1F
100
AcDbEntity
  8
0
  6
Continuous
 62
     7
370
    25
100
AcDbLine
 10
607.4582047866
 20
606.9969612004
 30
0.0
 11
682.495212058
 21
606.9969612004
 31
0.0
  0
LINE
  5
7A
330
1F
100
AcDbEntity
  8
0
  6
Continuous
 62
     7
370
    25
100
AcDbLine
 10
511.2551870267
 20
606.9969612004
 30
0.0
 11
588.5289025166
 21
606.9969612004
 31
0.0
  0
LINE
  5
7B
330
1F
100
AcDbEntity
  8
0
  6
Continuous
 62
     7
370
    25
100
AcDbLine
 10
588.9751995423
 20
361.323973112
 30
0.0
 11
588.9751995423
 21
313.9969612004
 31
0.0
  0
LINE
  5
7C
330
1F
100
AcDbEntity
  8
0
  6
Continuous
 62
     7
370
    25
100
AcDbLine
 10
604.7751995423
 20
313.9969612004
 30
0.0
 11
604.7751995423
 21
361.323973112
 31
0.0
  0
LINE
  5
7D
330
1F
100
AcDbEntity
  8
0
  6
Continuous
 62
     7
370
    25
100
AcDbLine
 10
604.7751995423
 20
361.323973112
 30
0.0
 11
604.7751995423
 21
596.323973112
 31
0.0
  0
LINE
  5
7E
330
1F
100
AcDbEntity
  8
0
  6
Continuous
 62
     7
370
    25
100
AcDbLine
 10
588.9751995423
 20
596.323973112
 30
0.0
 11
588.9751995423
 21
361.323973112
 31
0.0
  0
LINE
  5
7F
330
1F
100
AcDbEntity
  8
0
  6
Continuous
 62
     7
370
    25
100
AcDbLine
 10
588.9751995423
 20
618.9969612004
 30
0.0
 11
588.9751995423
 21
596.323973112
 31
0.0
  0
LINE
  5
80
330
1F
100
AcDbEntity
  8
0
  6
Continuous
 62
     7
370
    25
100
AcDbLine
 10
604.7751995423
 20
596.323973112
 30
0.0
 11
604.7751995423
 21
618.9969612004
 31
0.0
  0
SPLINE
  5
81
330
1F
100
AcDbEntity
  8
0
  6
Continuous
 62
     7
370
    25
100
AcDbSpline
210
0.0
220
0.0
230
1.0
 70
     8
 71
     3
 72
    17
 73
    13
 74
     0
 42
0.00000001
 43
0.00000001
 40
0.0
 40
0.0
 40
0.0
 40
0.0
 40
0.1727939157605296
 40
0.4670908646424595
 40
0.5836036464445749
 40
0.6237329378319906
 40
0.6617158152047107
 40
0.7176264960718011
 40
0.7837734229449181
 40
0.8640117675634507
 40
0.9541263261861291
 40
1.0
 40
1.0
 40
1.0
 40
1.0
 10
438.8576578236613
 20
622.3036982507268
 30
0.0
 10
438.7738642207914
 20
622.297721080668
 30
0.0
 10
438.5473560926338
 20
622.2815637899517
 30
0.0
 10
438.3687517226056
 20
622.2647896470473
 30
0.0
 10
438.286783739652
 20
622.254872356779
 30
0.0
 10
438.2249528107968
 20
622.2423399668204
 30
0.0
 10
438.1563252247067
 20
622.221718806059
 30
0.0
 10
438.0632055696089
 20
622.1756223643878
 30
0.0
 10
437.9609653285883
 20
622.0895087242151
 30
0.0
 10
437.8762667001592
 20
621.9578718777019
 30
0.0
 10
437.8330746614091
 20
621.8160834116783
 30
0.0
 10
437.848132300647
 20
621.7273455624096
 30
0.0
 10
437.8532117786167
 20
621.6974111255884
 30
0.0
  0
SPLINE
  5
82
330
1F
100
AcDbEntity
  8
0
  6
Continuous
 62
     7
370
    25
100
AcDbSpline
210
0.0
220
0.0
230
1.0
 70
     8
 71
     3
 72
    10
 73
     6
 74
     0
 42
0.00000001
 43
0.00000001
 40
0.0
 40
0.0
 40
0.0
 40
0.0
 40
0.270519767274804
 40
0.6900585277324287
 40
1.0
 40
1.0
 40
1.0
 40
1.0
 10
437.8532616703513
 20
616.1943885642467
 30
0.0
 10
437.8544006807085
 20
616.1618823739054
 30
0.0
 10
437.8573061386648
 20
616.0789635762328
 30
0.0
 10
437.9137242319493
 20
615.9681074947027
 30
0.0
 10
437.9730917347756
 20
615.9049577083099
 30
0.0
 10
437.9983157921322
 20
615.8781266347729
 30
0.0
  0
LINE
  5
83
330
1F
100
AcDbEntity
  8
0
  6
Continuous
 62
     7
370
    25
100
AcDbLine
 10
442.3409785145
 20
622.5458657791
 30
0.0
 11
438.8576578237
 21
622.3036982507
 31
0.0
  0
LINE
  5
84
330
1F
100
AcDbEntity
  8
0
  6
Continuous
 62
     7
370
    25
100
AcDbLine
 10
438.8576578237
 20
615.69022415
 30
0.0
 11
442.3409785145
 21
615.4480566217
 31
0.0
  0
ARC
  5
85
330
1F
100
AcDbEntity
  8
0
  6
Continuous
 62
     7
370
    25
100
AcDbCircle
 10
495.2751995423
 20
618.9969612004
 30
0.0
 40
9.14119630351394
100
AcDbArc
 50
295.4997205711
 51
0.0
  0
ARC
  5
86
330
1F
100
AcDbEntity
  8
0
  6
Continuous
 62
     7
370
    25
100
AcDbCircle
 10
495.2751995423
 20
618.9969612004
 30
0.0
 40
9.141196303513942
100
AcDbArc
 50
0.0
 51
64.520479159
  0
SPLINE
  5
87
330
1F
100
AcDbEntity
  8
0
  6
Continuous
 62
     7
370
    25
100
AcDbSpline
210
0.0
220
0.0
230
1.0
 70
     8
 71
     3
 72
    17
 73
    13
 74
     0
 42
0.00000001
 43
0.00000001
 40
0.0
 40
0.0
 40
0.0
 40
0.0
 40
0.1727939157605292
 40
0.4670908646424644
 40
0.583603646444573
 40
0.6237329378319886
 40
0.6617158152047128
 40
0.7176264960718008
 40
0.7837734229449179
 40
0.864011767563451
 40
0.9541263261861292
 40
1.0
 40
1.0
 40
1.0
 40
1.0
 10
754.8927412610077
 20
615.9356454388638
 30
0.0
 10
754.9765348638775
 20
615.9416226089227
 30
0.0
 10
755.2030429920351
 20
615.9577798996388
 30
0.0
 10
755.3816473620634
 20
615.9745540425433
 30
0.0
 10
755.4636153450169
 20
615.9844713328117
 30
0.0
 10
755.5254462738723
 20
615.9970037227703
 30
0.0
 10
755.5940738599622
 20
616.0176248835317
 30
0.0
 10
755.6871935150602
 20
616.0637213252029
 30
0.0
 10
755.7894337560806
 20
616.1498349653756
 30
0.0
 10
755.8741323845097
 20
616.2814718118888
 30
0.0
 10
755.91732442326
 20
616.4232602779123
 30
0.0
 10
755.902266784022
 20
616.5119981271811
 30
0.0
 10
755.8971873060523
 20
616.5419325640022
 30
0.0
  0
SPLINE
  5
88
330
1F
100
AcDbEntity
  8
0
  6
Continuous
 62
     7
370
    25
100
AcDbSpline
210
0.0
220
0.0
230
1.0
 70
     8
 71
     3
 72
    10
 73
     6
 74
     0
 42
0.00000001
 43
0.00000001
 40
0.0
 40
0.0
 40
0.0
 40
0.0
 40
0.2705197672748134
 40
0.6900585277324403
 40
1.0
 40
1.0
 40
1.0
 40
1.0
 10
755.8971374143177
 20
622.044955125344
 30
0.0
 10
755.8959984039604
 20
622.0774613156852
 30
0.0
 10
755.8930929460042
 20
622.1603801133579
 30
0.0
 10
755.8366748527196
 20
622.2712361948879
 30
0.0
 10
755.7773073498935
 20
622.3343859812808
 30
0.0
 10
755.7520832925368
 20
622.3612170548178
 30
0.0
  0
LINE
  5
89
330
1F
100
AcDbEntity
  8
0
  6
Continuous
 62
     7
370
    25
100
AcDbLine
 10
751.4094205701
 20
615.6934779105
 30
0.0
 11
754.892741261
 21
615.9356454389
 31
0.0
  0
LINE
  5
8A
330
1F
100
AcDbEntity
  8
0
  6
Continuous
 62
     7
370
    25
100
AcDbLine
 10
754.892741261
 20
622.5491195396
 30
0.0
 11
751.4094205701
 21
622.7912870679
 31
0.0
  0
ARC
  5
8B
330
1F
100
AcDbEntity
  8
0
  6
Continuous
 62
     7
370
    25
100
AcDbCircle
 10
706.5842147476
 20
616.2704880134
 30
0.0
 40
8.999995138923122
100
AcDbArc
 50
257.1419190681
 51
270.0
  0
ARC
  5
8C
330
1F
100
AcDbEntity
  8
0
  6
Continuous
 62
     7
370
    25
100
AcDbCircle
 10
706.5842147476
 20
616.2704880134
 30
0.0
 40
8.999995138923055
100
AcDbArc
 50
270.0
 51
305.1719294169
  0
SPLINE
  5
8D
330
1F
100
AcDbEntity
  8
0
  6
Continuous
 62
     7
370
    25
100
AcDbSpline
210
0.0
220
0.0
230
1.0
 70
     8
 71
     3
 72
    22
 73
    18
 74
     0
 42
0.00000001
 43
0.00000001
 40
0.0
 40
0.0
 40
0.0
 40
0.0
 40
0.0572864194646081
 40
0.1229381135129725
 40
0.1889690539883527
 40
0.2549999944638637
 40
0.3212149049680308
 40
0.3874333377052333
 40
0.4538274481666401
 40
0.5202215586272284
 40
0.5870010590344663
 40
0.6537806686213684
 40
0.7205436780598867
 40
0.7873066874969189
 40
0.8546458523711977
 40
0.9219850172464724
 40
1.0
 40
1.0
 40
1.0
 40
1.0
 10
588.9751995423345
 20
609.6077232724346
 30
0.0
 10
588.5228394535239
 20
610.0040268006643
 30
0.0
 10
587.55206319509
 20
610.8545042540371
 30
0.0
 10
586.3600522852106
 20
612.4538062393599
 30
0.0
 10
585.3904196663793
 20
614.2921200854138
 30
0.0
 10
584.740295395156
 20
616.2764064941457
 30
0.0
 10
584.437556087819
 20
618.3430951434979
 30
0.0
 10
584.4785031279092
 20
620.4355776737044
 30
0.0
 10
584.8749977327892
 20
622.4923360236676
 30
0.0
 10
585.6045955154518
 20
624.4621294237762
 30
0.0
 10
586.66201932712
 20
626.2819609091247
 30
0.0
 10
588.0070802349952
 20
627.9059810547022
 30
0.0
 10
589.6091628882007
 20
629.276073524819
 30
0.0
 10
591.4182005302831
 20
630.3717681997923
 30
0.0
 10
593.3928258548669
 20
631.1380130325804
 30
0.0
 10
595.5851392743658
 20
631.6206701166899
 30
0.0
 10
597.1127672046294
 20
631.5926399139637
 30
0.0
 10
597.9326809709547
 20
631.5775954462418
 30
0.0
  0
ARC
  5
8E
330
1F
100
AcDbEntity
  8
0
  6
Continuous
 62
     7
370
    25
100
AcDbCircle
 10
596.8751995423
 20
618.9969612004
 30
0.0
 40
12.62499999999998
100
AcDbArc
 50
350.938753047
 51
85.1952241371
  0
LINE
  5
8F
330
1F
100
AcDbEntity
  8
0
  6
Continuous
 62
     7
370
    25
100
AcDbLine
 10
608.7699789087
 20
618.9969612004
 30
0.0
 11
608.7012077251
 21
618.4715173505
 31
0.0
  0
SPLINE
  5
90
330
1F
100
AcDbEntity
  8
0
  6
Continuous
 62
     7
370
    25
100
AcDbSpline
210
0.0
220
0.0
230
1.0
 70
     8
 71
     3
 72
    10
 73
     6
 74
     0
 42
0.00000001
 43
0.00000001
 40
0.0
 40
0.0
 40
0.0
 40
0.0
 40
0.4366777435309245
 40
0.8650683835413501
 40
1.0
 40
1.0
 40
1.0
 40
1.0
 10
607.6487600841091
 20
613.9555160279514
 30
0.0
 10
607.3166491567287
 20
613.3463660412617
 30
0.0
 10
606.6587299763686
 20
612.1396262837943
 30
0.0
 10
605.673199244429
 20
610.8514373945188
 30
0.0
 10
604.948730339772
 20
610.3206049734217
 30
0.0
 10
604.7751995423345
 20
610.1934555916517
 30
0.0
  0
SPLINE
  5
91
330
1F
100
AcDbEntity
  8
0
  6
Continuous
 62
     7
370
    25
100
AcDbSpline
210
0.0
220
0.0
230
1.0
 70
     8
 71
     3
 72
    10
 73
     6
 74
     0
 42
0.00000001
 43
0.00000001
 40
0.0
 40
0.0
 40
0.0
 40
0.0
 40
0.1614861643795461
 40
0.5801934759773473
 40
1.0
 40
1.0
 40
1.0
 40
1.0
 10
604.7751995423345
 20
609.9451658798397
 30
0.0
 10
604.9779096013373
 20
610.1202178922547
 30
0.0
 10
605.7062138136533
 20
610.7491512497969
 30
0.0
 10
606.7215954640493
 20
612.0865615306259
 30
0.0
 10
607.3394352342317
 20
613.3319869838045
 30
0.0
 10
607.6487600841091
 20
613.9555160279514
 30
0.0
  0
ARC
  5
92
330
1F
100
AcDbEntity
  8
0
  6
Continuous
 62
     7
370
    25
100
AcDbCircle
 10
698.4751995423
 20
618.9969612004
 30
0.0
 40
17.60000000000019
100
AcDbArc
 50
152.0468131166
 51
172.4710217602
  0
ARC
  5
93
330
1F
100
AcDbEntity
  8
0
  6
Continuous
 62
     7
370
    25
100
AcDbCircle
 10
698.4751995423
 20
618.9969612004
 30
0.0
 40
17.60000000000019
100
AcDbArc
 50
187.7001886922
 51
207.9531868834
  0
ARC
  5
94
330
1F
100
AcDbEntity
  8
0
  6
Continuous
 62
     7
370
    25
100
AcDbCircle
 10
698.4751995423
 20
618.9969612004
 30
0.0
 40
17.60000000000019
100
AcDbArc
 50
207.9531868834
 51
231.9423049492
  0
ARC
  5
95
330
1F
100
AcDbEntity
  8
0
  6
Continuous
 62
     7
370
    25
100
AcDbCircle
 10
698.4751995423
 20
618.9969612004
 30
0.0
 40
17.60000000000023
100
AcDbArc
 50
248.3662117989
 51
292.6012741774
  0
ARC
  5
96
330
1F
100
AcDbEntity
  8
0
  6
Continuous
 62
     7
370
    25
100
AcDbCircle
 10
698.4751995423
 20
618.9969612004
 30
0.0
 40
17.60000000000021
100
AcDbArc
 50
307.4387102895
 51
329.914091969
  0
ARC
  5
97
330
1F
100
AcDbEntity
  8
0
  6
Continuous
 62
     7
370
    25
100
AcDbCircle
 10
698.4751995423
 20
618.9969612004
 30
0.0
 40
17.6000000000001
100
AcDbArc
 50
32.8335159483
 51
52.0595698702
  0
ARC
  5
98
330
1F
100
AcDbEntity
  8
0
  6
Continuous
 62
     7
370
    25
100
AcDbCircle
 10
698.4751995423
 20
618.9969612004
 30
0.0
 40
17.60000000000004
100
AcDbArc
 50
68.2372110924
 51
112.1945424058
  0
ARC
  5
99
330
1F
100
AcDbEntity
  8
0
  6
Continuous
 62
     7
370
    25
100
AcDbCircle
 10
698.4751995423
 20
618.9969612004
 30
0.0
 40
17.60000000000019
100
AcDbArc
 50
128.1352663927
 51
152.0468131166
  0
ARC
  5
9A
330
1F
100
AcDbEntity
  8
0
  6
Continuous
 62
     7
370
    25
100
AcDbCircle
 10
495.2751995423
 20
618.9969612004
 30
0.0
 40
17.60000000000004
100
AcDbArc
 50
7.8284686027
 51
27.9531868834
  0
ARC
  5
9B
330
1F
100
AcDbEntity
  8
0
  6
Continuous
 62
     7
370
    25
100
AcDbCircle
 10
495.2751995423
 20
618.9969612004
 30
0.0
 40
17.60000000000018
100
AcDbArc
 50
332.0468131166
 51
352.9126000189
  0
ARC
  5
9C
330
1F
100
AcDbEntity
  8
0
  6
Continuous
 62
     7
370
    25
100
AcDbCircle
 10
495.2751995423
 20
618.9969612004
 30
0.0
 40
17.60000000000015
100
AcDbArc
 50
308.3524775834
 51
332.0468131166
  0
ARC
  5
9D
330
1F
100
AcDbEntity
  8
0
  6
Continuous
 62
     7
370
    25
100
AcDbCircle
 10
495.2751995423
 20
618.9969612004
 30
0.0
 40
17.60000000000015
100
AcDbArc
 50
247.7053216207
 51
291.9394873066
  0
ARC
  5
9E
330
1F
100
AcDbEntity
  8
0
  6
Continuous
 62
     7
370
    25
100
AcDbCircle
 10
495.2751995423
 20
618.9969612004
 30
0.0
 40
17.60000000000014
100
AcDbArc
 50
211.5427743269
 51
233.2869514371
  0
ARC
  5
9F
330
1F
100
AcDbEntity
  8
0
  6
Continuous
 62
     7
370
    25
100
AcDbCircle
 10
495.2751995423
 20
618.9969612004
 30
0.0
 40
17.60000000000011
100
AcDbArc
 50
128.2989892036
 51
148.4572256731
  0
ARC
  5
A0
330
1F
100
AcDbEntity
  8
0
  6
Continuous
 62
     7
370
    25
100
AcDbCircle
 10
495.2751995423
 20
618.9969612004
 30
0.0
 40
17.60000000000018
100
AcDbArc
 50
68.0922381153
 51
112.0468846828
  0
ARC
  5
A1
330
1F
100
AcDbEntity
  8
0
  6
Continuous
 62
     7
370
    25
100
AcDbCircle
 10
495.2751995423
 20
618.9969612004
 30
0.0
 40
17.60000000000009
100
AcDbArc
 50
27.9531868834
 51
52.2965225843
  0
LWPOLYLINE
  5
A2
330
1F
100
AcDbEntity
  8
0
  6
Continuous
 62
     7
370
    25
100
AcDbPolyline
 90
        9
 70
   128
 43
0.0
 10
675.8619291022
 20
626.1969612004
 10
677.0403108506
 20
625.8586100651
 10
678.1883222154
 20
625.6526894394
 10
679.2763755475
 20
625.584506507
 10
680.2764284937
 20
625.6558185438
 10
681.1627067312
 20
625.8647876275
 10
681.9123682478
 20
626.2060280068
 10
682.5060920486
 20
626.6707449075
 10
682.9285761147
 20
627.2469612004
  0
LWPOLYLINE
  5
A3
330
1F
100
AcDbEntity
  8
0
  6
Continuous
 62
     7
370
    25
100
AcDbPolyline
 90
        9
 70
   128
 43
0.0
 10
682.9285761147
 20
610.7469612004
 10
682.5060920486
 20
611.3231774932
 10
681.9123682478
 20
611.787894394
 10
681.1627067312
 20
612.1291347732
 10
680.2764284937
 20
612.338103857
 10
679.2763755475
 20
612.4094158937
 10
678.1883222154
 20
612.3412329613
 10
677.0403108506
 20
612.1353123356
 10
675.8619291022
 20
611.7969612004
  0
LWPOLYLINE
  5
A4
330
1F
100
AcDbEntity
  8
0
  6
Continuous
 62
     7
370
    25
100
AcDbPolyline
 90
        9
 70
   128
 43
0.0
 10
517.8884699825
 20
626.1969612004
 10
516.710088234
 20
625.8586100651
 10
515.5620768692
 20
625.6526894395
 10
514.4740235371
 20
625.5845065071
 10
513.4739705909
 20
625.6558185438
 10
512.5876923535
 20
625.8647876276
 10
511.8380308369
 20
626.2060280068
 10
511.2443070361
 20
626.6707449075
 10
510.8218229699
 20
627.2469612004
  0
SPLINE
  5
A5
330
1F
100
AcDbEntity
  8
0
  6
Continuous
 62
     7
370
    25
100
AcDbSpline
210
0.0
220
0.0
230
1.0
 70
     8
 71
     3
 72
    11
 73
     7
 74
     0
 42
0.00000001
 43
0.00000001
 40
0.0
 40
0.0
 40
0.0
 40
0.0
 40
0.099369828463161
 40
0.5483730058890408
 40
0.99755994314971
 40
1.0
 40
1.0
 40
1.0
 40
1.0
 10
506.7609952826382
 20
632.3299022225901
 30
0.0
 10
506.7936730252455
 20
632.3027719529626
 30
0.0
 10
506.974005347605
 20
632.153053394158
 30
0.0
 10
507.6159706663674
 20
631.5461991371773
 30
0.0
 10
508.21983126406
 20
630.9720030068256
 30
0.0
 10
508.5675524434573
 20
630.5322832171174
 30
0.0
 10
508.5694311164704
 20
630.5299074926832
 30
0.0
  0
LWPOLYLINE
  5
A6
330
1F
100
AcDbEntity
  8
0
  6
Continuous
 62
     7
370
    25
100
AcDbPolyline
 90
        9
 70
   128
 43
0.0
 10
510.8218229699
 20
610.7469612004
 10
511.2443070361
 20
611.3231774932
 10
511.8380308369
 20
611.787894394
 10
512.5876923535
 20
612.1291347732
 10
513.4739705909
 20
612.338103857
 10
514.4740235371
 20
612.4094158937
 10
515.5620768692
 20
612.3412329613
 10
516.710088234
 20
612.1353123356
 10
517.8884699825
 20
611.7969612004
  0
SPLINE
  5
A7
330
1F
100
AcDbEntity
  8
0
  6
Continuous
 62
     7
370
    25
100
AcDbSpline
210
0.0
220
0.0
230
1.0
 70
     8
 71
     3
 72
    26
 73
    22
 74
     0
 42
0.00000001
 43
0.00000001
 40
0.0
 40
0.0
 40
0.0
 40
0.0
 40
0.1250000000000003
 40
0.1250000000000003
 40
0.1875
 40
0.1875
 40
0.2499999999999997
 40
0.2499999999999997
 40
0.3749999999999996
 40
0.3749999999999996
 40
0.4374999999999996
 40
0.4374999999999996
 40
0.4999999999999997
 40
0.4999999999999997
 40
0.6249999999999998
 40
0.6249999999999998
 40
0.7499999999999998
 40
0.7499999999999998
 40
0.8749999999999999
 40
0.8749999999999999
 40
1.0
 40
1.0
 40
1.0
 40
1.0
 10
517.88846998249
 20
626.1969612003908
 30
0.0
 10
518.2812451400913
 20
625.7528646573419
 30
0.0
 10
518.6051818976891
 20
625.2598439710193
 30
0.0
 10
518.9960545901838
 20
624.4388798742634
 30
0.0
 10
519.1107307371616
 20
624.1506496405291
 30
0.0
 10
519.3076784981782
 20
623.5558384490465
 30
0.0
 10
519.3900194803891
 20
623.249490083359
 30
0.0
 10
519.595221591083
 20
622.3169361301747
 30
0.0
 10
519.67845104258
 20
621.6727591749328
 30
0.0
 10
519.7565655770927
 20
620.6763467553161
 30
0.0
 10
519.7745789143509
 20
620.3395653216426
 30
0.0
 10
519.7979003304964
 20
619.6696966846749
 30
0.0
 10
519.8033664604019
 20
619.3348967910619
 30
0.0
 10
519.8034748680667
 20
618.3308878591351
 30
0.0
 10
519.7831344891514
 20
617.6601767434308
 30
0.0
 10
519.6792527285312
 20
616.3277426339884
 30
0.0
 10
519.5960951890505
 20
615.6824256158706
 30
0.0
 10
519.322971786537
 20
614.4382725323601
 30
0.0
 10
519.1292541888698
 20
613.8357205574729
 30
0.0
 10
518.6060609264244
 20
612.735017194283
 30
0.0
 10
518.2811729734442
 20
612.2409761472268
 30
0.0
 10
517.8884699824987
 20
611.796961200381
 30
0.0
  0
SPLINE
  5
A8
330
1F
100
AcDbEntity
  8
0
  6
Continuous
 62
     7
370
    25
100
AcDbSpline
210
0.0
220
0.0
230
1.0
 70
     8
 71
     3
 72
    30
 73
    26
 74
     0
 42
0.00000001
 43
0.00000001
 40
0.0
 40
0.0
 40
0.0
 40
0.0
 40
0.1250000000000007
 40
0.1250000000000007
 40
0.1875000000000002
 40
0.1875000000000002
 40
0.2499999999999997
 40
0.2499999999999997
 40
0.3749999999999995
 40
0.3749999999999995
 40
0.4999999999999993
 40
0.4999999999999993
 40
0.5624999999999992
 40
0.5624999999999992
 40
0.6249999999999991
 40
0.6249999999999991
 40
0.7499999999999992
 40
0.7499999999999992
 40
0.8124999999999994
 40
0.8124999999999994
 40
0.8749999999999997
 40
0.8749999999999997
 40
0.9374999999999999
 40
0.9374999999999999
 40
1.0
 40
1.0
 40
1.0
 40
1.0
 10
675.8619291021703
 20
611.796961200381
 30
0.0
 10
675.4688164740892
 20
612.2414393089932
 30
0.0
 10
675.1436609150078
 20
612.7360478406384
 30
0.0
 10
674.7510541943783
 20
613.5626130472629
 30
0.0
 10
674.6373733369248
 20
613.8498228518507
 30
0.0
 10
674.4430160797773
 20
614.4375766362073
 30
0.0
 10
674.3616575477556
 20
614.7395149469356
 30
0.0
 10
674.1566665063176
 20
615.6684648310247
 30
0.0
 10
674.0716146335055
 20
616.3232238579259
 30
0.0
 10
673.9673307143879
 20
617.6578487237264
 30
0.0
 10
673.9469680040199
 20
618.3284362328585
 30
0.0
 10
673.9470105066761
 20
619.333143037077
 30
0.0
 10
673.9524620294999
 20
619.6681757348028
 30
0.0
 10
673.97576727614
 20
620.3385103323045
 30
0.0
 10
673.9937790357617
 20
620.6755263519899
 30
0.0
 10
674.0719198773268
 20
621.6726507258967
 30
0.0
 10
674.1552041146836
 20
622.3172749120569
 30
0.0
 10
674.360615066099
 20
623.2504510561785
 30
0.0
 10
674.4432781961782
 20
623.5576547523594
 30
0.0
 10
674.6397957434056
 20
624.150901692957
 30
0.0
 10
674.7528811061056
 20
624.4352372611118
 30
0.0
 10
675.0116506858024
 20
624.9798680896105
 30
0.0
 10
675.1573274288525
 20
625.2401647173901
 30
0.0
 10
675.4838223681595
 20
625.7372968033498
 30
0.0
 10
675.6652861614994
 20
625.9746242005051
 30
0.0
 10
675.8619291021697
 20
626.1969612003815
 30
0.0
  0
ARC
  5
A9
330
1F
100
AcDbEntity
  8
0
  6
Continuous
 62
     7
370
    25
100
AcDbCircle
 10
596.8751995423
 20
618.9969612004
 30
0.0
 40
9.599999999999946
100
AcDbArc
 50
0.0
 51
214.6221618397
  0
ARC
  5
AA
330
1F
100
AcDbEntity
  8
0
  6
Continuous
 62
     7
370
    25
100
AcDbCircle
 10
596.8751995423
 20
618.9969612004
 30
0.0
 40
9.60000000000001
100
AcDbArc
 50
325.3778381603
 51
0.0
  0
ARC
  5
AB
330
1F
100
AcDbEntity
  8
0
  6
Continuous
 62
     7
370
    25
100
AcDbCircle
 10
596.8751995423
 20
618.9969612004
 30
0.0
 40
10.5
100
AcDbArc
 50
0.0
 51
221.2029536038
  0
ARC
  5
AC
330
1F
100
AcDbEntity
  8
0
  6
Continuous
 62
     7
370
    25
100
AcDbCircle
 10
596.8751995423
 20
618.9969612004
 30
0.0
 40
10.5
100
AcDbArc
 50
318.7970463962
 51
0.0
  0
ARC
  5
AD
330
1F
100
AcDbEntity
  8
0
  6
Continuous
 62
     7
370
    25
100
AcDbCircle
 10
596.8751995423
 20
313.9969612004
 30
0.0
 40
11.55000000000002
100
AcDbArc
 50
133.1556534408
 51
274.9657006069
  0
ARC
  5
AE
330
1F
100
AcDbEntity
  8
0
  6
Continuous
 62
     7
370
    25
100
AcDbCircle
 10
596.8751995423
 20
313.9969612004
 30
0.0
 40
11.55000000000002
100
AcDbArc
 50
274.9657006069
 51
46.8443465592
  0
ARC
  5
AF
330
1F
100
AcDbEntity
  8
0
  6
Continuous
 62
     7
370
    25
100
AcDbCircle
 10
596.8751995423
 20
618.9969612004
 30
0.0
 40
14.22500000000008
100
AcDbArc
 50
303.7355336397
 51
223.2235523034
  0
LWPOLYLINE
  5
B0
330
1F
100
AcDbEntity
  8
0
  6
Continuous
 62
     7
370
    25
100
AcDbPolyline
 90
        3
 70
   128
 43
0.0
 10
588.9751995423
 20
607.167310952
 10
588.1612177954
 20
607.7534231845
 10
586.5096245161
 20
609.255016868
  0
LINE
  5
B1
330
1F
100
AcDbEntity
  8
0
  6
Continuous
 62
     7
370
    25
100
AcDbLine
 10
604.7499794563
 20
631.1336172879
 30
0.0
 11
604.6179472752
 21
630.9301285312
 31
0.0
  0
SPLINE
  5
B2
330
1F
100
AcDbEntity
  8
0
  6
Continuous
 62
     7
370
    25
100
AcDbSpline
210
0.0
220
0.0
230
1.0
 70
     8
 71
     3
 72
    11
 73
     7
 74
     0
 42
0.00000001
 43
0.00000001
 40
0.0
 40
0.0
 40
0.0
 40
0.0
 40
0.1446702591042557
 40
0.3907520209323692
 40
0.5962314811354859
 40
0.9999999999999999
 40
0.9999999999999999
 40
0.9999999999999999
 40
0.9999999999999999
 10
609.4765291705049
 20
626.1044974319914
 30
0.0
 10
609.2774112739897
 20
626.3719953919868
 30
0.0
 10
608.7395970684381
 20
627.0945030387603
 30
0.0
 10
607.8500191144861
 20
628.1442971508253
 30
0.0
 10
606.5072118284012
 20
629.590943001714
 30
0.0
 10
605.4503778344678
 20
630.5187375570395
 30
0.0
 10
604.7499794563407
 20
631.1336172879294
 30
0.0
  0
LINE
  5
B3
330
1F
100
AcDbEntity
  8
0
  6
Continuous
 62
     7
370
    25
100
AcDbLine
 10
609.2652494835
 20
625.9853292113
 30
0.0
 11
609.4765291705
 21
626.104497432
 31
0.0
  0
LINE
  5
B4
330
1F
100
AcDbEntity
  8
0
  6
Continuous
 62
     7
370
    25
100
AcDbLine
 10
590.3019370105
 20
631.8850486989
 30
0.0
 11
590.4121473527
 21
631.6689610976
 31
0.0
  0
SPLINE
  5
B5
330
1F
100
AcDbEntity
  8
0
  6
Continuous
 62
     7
370
    25
100
AcDbSpline
210
0.0
220
0.0
230
1.0
 70
     8
 71
     3
 72
    11
 73
     7
 74
     0
 42
0.00000001
 43
0.00000001
 40
0.0
 40
0.0
 40
0.0
 40
0.0
 40
0.1446702591042559
 40
0.390752020932366
 40
0.5962314811354593
 40
1.0
 40
1.0
 40
1.0
 40
1.0
 10
597.0205574215267
 20
633.4638008956432
 30
0.0
 10
596.6893384444526
 20
633.4251087189108
 30
0.0
 10
595.7947213651424
 20
633.3206017777737
 30
0.0
 10
594.4407840183749
 20
633.0751017270372
 30
0.0
 10
592.5165483181835
 20
632.635519430345
 30
0.0
 10
591.1846376668119
 20
632.1841716216785
 30
0.0
 10
590.3019370105255
 20
631.8850486988961
 30
0.0
  0
LINE
  5
B6
330
1F
100
AcDbEntity
  8
0
  6
Continuous
 62
     7
370
    25
100
AcDbLine
 10
597.0205574215
 20
633.4638008956
 30
0.0
 11
597.0181202845
 21
633.221243209
 31
0.0
  0
LINE
  5
B7
330
1F
100
AcDbEntity
  8
0
  6
Continuous
 62
     7
370
    25
100
AcDbLine
 10
582.4271570965
 20
619.7483926113
 30
0.0
 11
582.6693996198
 21
619.7357937668
 31
0.0
  0
SPLINE
  5
B8
330
1F
100
AcDbEntity
  8
0
  6
Continuous
 62
     7
370
    25
100
AcDbSpline
210
0.0
220
0.0
230
1.0
 70
     8
 71
     3
 72
    11
 73
     7
 74
     0
 42
0.00000001
 43
0.00000001
 40
0.0
 40
0.0
 40
0.0
 40
0.0
 40
0.144670259104256
 40
0.3907520209323621
 40
0.5962314811354645
 40
1.0
 40
1.0
 40
1.0
 40
1.0
 10
584.4192277933563
 20
626.3562646640328
 30
0.0
 10
584.2871267127972
 20
626.0500745273049
 30
0.0
 10
583.9303238390388
 20
625.2230599393943
 30
0.0
 10
583.465964446223
 20
623.9277657765928
 30
0.0
 10
582.8845360321167
 20
622.041537629012
 30
0.0
 10
582.6094593746785
 20
620.6623952650201
 30
0.0
 10
582.4271570965193
 20
619.7483926113476
 30
0.0
  0
LINE
  5
B9
330
1F
100
AcDbEntity
  8
0
  6
Continuous
 62
     7
370
    25
100
AcDbLine
 10
584.4192277934
 20
626.356264664
 30
0.0
 11
584.6280703433
 21
626.2328751981
 31
0.0
  0
SPLINE
  5
BA
330
1F
100
AcDbEntity
  8
0
  6
Continuous
 62
     7
370
    25
100
AcDbSpline
210
0.0
220
0.0
230
1.0
 70
     8
 71
     3
 72
    11
 73
     7
 74
     0
 42
0.00000001
 43
0.00000001
 40
0.0
 40
0.0
 40
0.0
 40
0.0
 40
0.1446702591042542
 40
0.3907520209323655
 40
0.596231481135479
 40
1.0
 40
1.0
 40
1.0
 40
1.0
 10
584.2738699141639
 20
611.8894249687705
 30
0.0
 10
584.4729878106791
 20
611.6219270087751
 30
0.0
 10
585.0108020162307
 20
610.8994193620016
 30
0.0
 10
585.9003799701827
 20
609.8496252499365
 30
0.0
 10
587.2431872562678
 20
608.4029793990478
 30
0.0
 10
588.3000212502012
 20
607.4751848437223
 30
0.0
 10
589.0004196283282
 20
606.8603051128325
 30
0.0
  0
LINE
  5
BB
330
1F
100
AcDbEntity
  8
0
  6
Continuous
 62
     7
370
    25
100
AcDbLine
 10
584.2738699142
 20
611.8894249688
 30
0.0
 11
584.4851496012
 21
612.0085931895
 31
0.0
  0
LINE
  5
BC
330
1F
100
AcDbEntity
  8
0
  6
Continuous
 62
     7
370
    25
100
AcDbLine
 10
611.0809994649
 20
618.258128634
 30
0.0
 11
611.3232419881
 21
618.2455297894
 31
0.0
  0
SPLINE
  5
BD
330
1F
100
AcDbEntity
  8
0
  6
Continuous
 62
     7
370
    25
100
AcDbSpline
210
0.0
220
0.0
230
1.0
 70
     8
 71
     3
 72
    11
 73
     7
 74
     0
 42
0.00000001
 43
0.00000001
 40
0.0
 40
0.0
 40
0.0
 40
0.0
 40
0.1446702591042545
 40
0.3907520209323574
 40
0.596231481135475
 40
0.9999999999999999
 40
0.9999999999999999
 40
0.9999999999999999
 40
0.9999999999999999
 10
609.3311712913126
 20
611.6376577367291
 30
0.0
 10
609.4632723718715
 20
611.943847873457
 30
0.0
 10
609.8200752456302
 20
612.7708624613675
 30
0.0
 10
610.2844346384459
 20
614.0661566241691
 30
0.0
 10
610.8658630525523
 20
615.9523847717498
 30
0.0
 10
611.1409397099903
 20
617.3315271357419
 30
0.0
 10
611.3232419881496
 20
618.2455297894144
 30
0.0
  0
LINE
  5
BE
330
1F
100
AcDbEntity
  8
0
  6
Continuous
 62
     7
370
    25
100
AcDbLine
 10
609.1223287413
 20
611.7610472026
 30
0.0
 11
609.3311712913
 21
611.6376577367
 31
0.0
  0
SPLINE
  5
BF
330
1F
100
AcDbEntity
  8
0
  6
Continuous
 62
     7
370
    25
100
AcDbSpline
210
0.0
220
0.0
230
1.0
 70
     8
 71
     3
 72
     9
 73
     5
 74
     0
 42
0.00000001
 43
0.00000001
 40
0.0
 40
0.0
 40
0.0
 40
0.0
 40
0.586384789828358
 40
1.0
 40
1.0
 40
1.0
 40
1.0
 10
608.6052007138359
 20
610.0956861503347
 30
0.0
 10
608.7527772602683
 20
610.3948241920233
 30
0.0
 10
609.0044491129364
 20
610.9049636889501
 30
0.0
 10
609.2355743696719
 20
611.4232759160024
 30
0.0
 10
609.3311712913126
 20
611.6376577367291
 30
0.0
  0
ARC
  5
C0
330
1F
100
AcDbEntity
  8
0
  6
Continuous
 62
     7
370
    25
100
AcDbCircle
 10
596.8751995423
 20
618.9969612004
 30
0.0
 40
14.72500000000004
100
AcDbArc
 50
303.6400367407
 51
322.8070678661
  0
SPLINE
  5
C1
330
1F
100
AcDbEntity
  8
0
  6
Continuous
 62
     7
370
    25
100
AcDbSpline
210
0.0
220
0.0
230
1.0
 70
     8
 71
     3
 72
     9
 73
     5
 74
     0
 42
0.00000001
 43
0.00000001
 40
0.0
 40
0.0
 40
0.0
 40
0.0
 40
0.5862283062032674
 40
0.9999999999999999
 40
0.9999999999999999
 40
0.9999999999999999
 40
0.9999999999999999
 10
582.4271570965193
 20
619.7483926113476
 30
0.0
 10
582.3729044592634
 20
619.4200667563317
 30
0.0
 10
582.2803592227372
 20
618.8600019291279
 30
0.0
 10
582.2093056075395
 20
618.2956250685934
 30
0.0
 10
582.1799056328289
 20
618.0621018990704
 30
0.0
  0
SPLINE
  5
C2
330
1F
100
AcDbEntity
  8
0
  6
Continuous
 62
     7
370
    25
100
AcDbSpline
210
0.0
220
0.0
230
1.0
 70
     8
 71
     3
 72
     9
 73
     5
 74
     0
 42
0.00000001
 43
0.00000001
 40
0.0
 40
0.0
 40
0.0
 40
0.0
 40
0.5863847898283641
 40
1.0
 40
1.0
 40
1.0
 40
1.0
 10
583.3014686371712
 20
613.2891197244627
 30
0.0
 10
583.4867415072955
 20
613.011745665405
 30
0.0
 10
583.8026993447739
 20
612.5387216991135
 30
0.0
 10
584.1360082721254
 20
612.0794052417982
 30
0.0
 10
584.2738699141639
 20
611.8894249687705
 30
0.0
  0
ARC
  5
C3
330
1F
100
AcDbEntity
  8
0
  6
Continuous
 62
     7
370
    25
100
AcDbCircle
 10
596.8751995423
 20
618.9969612004
 30
0.0
 40
14.72499999999998
100
AcDbArc
 50
183.6400367407
 51
202.8070678661
  0
SPLINE
  5
C4
330
1F
100
AcDbEntity
  8
0
  6
Continuous
 62
     7
370
    25
100
AcDbSpline
210
0.0
220
0.0
230
1.0
 70
     8
 71
     3
 72
     9
 73
     5
 74
     0
 42
0.00000001
 43
0.00000001
 40
0.0
 40
0.0
 40
0.0
 40
0.0
 40
0.586228306203287
 40
1.0
 40
1.0
 40
1.0
 40
1.0
 10
611.3232419881496
 20
618.2455297894144
 30
0.0
 10
611.3774946254056
 20
618.5738556444302
 30
0.0
 10
611.4700398619318
 20
619.1339204716342
 30
0.0
 10
611.5410934771294
 20
619.6982973321685
 30
0.0
 10
611.5704934518401
 20
619.9318205016915
 30
0.0
  0
SPLINE
  5
C5
330
1F
100
AcDbEntity
  8
0
  6
Continuous
 62
     7
370
    25
100
AcDbSpline
210
0.0
220
0.0
230
1.0
 70
     8
 71
     3
 72
     9
 73
     5
 74
     0
 42
0.00000001
 43
0.00000001
 40
0.0
 40
0.0
 40
0.0
 40
0.0
 40
0.5863847898283613
 40
1.0
 40
1.0
 40
1.0
 40
1.0
 10
610.4489304474978
 20
624.7048026762992
 30
0.0
 10
610.2636575773735
 20
624.9821767353568
 30
0.0
 10
609.9476997398949
 20
625.4552007016483
 30
0.0
 10
609.6143908125434
 20
625.9145171589636
 30
0.0
 10
609.4765291705049
 20
626.1044974319914
 30
0.0
  0
ARC
  5
C6
330
1F
100
AcDbEntity
  8
0
  6
Continuous
 62
     7
370
    25
100
AcDbCircle
 10
596.8751995423
 20
618.9969612004
 30
0.0
 40
14.72499999999998
100
AcDbArc
 50
3.6400367407
 51
22.8070678661
  0
SPLINE
  5
C7
330
1F
100
AcDbEntity
  8
0
  6
Continuous
 62
     7
370
    25
100
AcDbSpline
210
0.0
220
0.0
230
1.0
 70
     8
 71
     3
 72
     9
 73
     5
 74
     0
 42
0.00000001
 43
0.00000001
 40
0.0
 40
0.0
 40
0.0
 40
0.0
 40
0.58622830620327
 40
1.0
 40
1.0
 40
1.0
 40
1.0
 10
590.3019370105255
 20
631.8850486988961
 30
0.0
 10
589.9904721607346
 20
631.7678699334741
 30
0.0
 10
589.4591691743467
 20
631.5679840457032
 30
0.0
 10
588.934877668217
 20
631.3473298512278
 30
0.0
 10
588.7179406836825
 20
631.2560293914363
 30
0.0
  0
SPLINE
  5
C8
330
1F
100
AcDbEntity
  8
0
  6
Continuous
 62
     7
370
    25
100
AcDbSpline
210
0.0
220
0.0
230
1.0
 70
     8
 71
     3
 72
     9
 73
     5
 74
     0
 42
0.00000001
 43
0.00000001
 40
0.0
 40
0.0
 40
0.0
 40
0.0
 40
0.5863847898283645
 40
1.0
 40
1.0
 40
1.0
 40
1.0
 10
585.145198370833
 20
627.8982362504272
 30
0.0
 10
584.9976218244005
 20
627.5990982087386
 30
0.0
 10
584.7459499717324
 20
627.0889587118116
 30
0.0
 10
584.514824714997
 20
626.5706464847595
 30
0.0
 10
584.4192277933563
 20
626.3562646640328
 30
0.0
  0
ARC
  5
C9
330
1F
100
AcDbEntity
  8
0
  6
Continuous
 62
     7
370
    25
100
AcDbCircle
 10
596.8751995423
 20
618.9969612004
 30
0.0
 40
14.72500000000008
100
AcDbArc
 50
123.6400367407
 51
142.8070678661
  0
SPLINE
  5
CA
330
1F
100
AcDbEntity
  8
0
  6
Continuous
 62
     7
370
    25
100
AcDbSpline
210
0.0
220
0.0
230
1.0
 70
     8
 71
     3
 72
     9
 73
     5
 74
     0
 42
0.00000001
 43
0.00000001
 40
0.0
 40
0.0
 40
0.0
 40
0.0
 40
0.5862283062032709
 40
1.0
 40
1.0
 40
1.0
 40
1.0
 10
604.7499794563407
 20
631.1336172879294
 30
0.0
 10
604.4927672438057
 20
631.3447643775233
 30
0.0
 10
604.054009493944
 20
631.7049433169561
 30
0.0
 10
603.600771603012
 20
632.0486659830152
 30
0.0
 10
603.4132345931882
 20
632.1908886927467
 30
0.0
  0
SPLINE
  5
CB
330
1F
100
AcDbEntity
  8
0
  6
Continuous
 62
     7
370
    25
100
AcDbSpline
210
0.0
220
0.0
230
1.0
 70
     8
 71
     3
 72
     9
 73
     5
 74
     0
 42
0.00000001
 43
0.00000001
 40
0.0
 40
0.0
 40
0.0
 40
0.0
 40
0.5863847898283634
 40
1.0
 40
1.0
 40
1.0
 40
1.0
 10
598.7189292759965
 20
633.6060777263455
 30
0.0
 10
598.3860798594395
 20
633.5843137437145
 30
0.0
 10
597.818450169293
 20
633.5471982130791
 30
0.0
 10
597.254015985206
 20
633.4882024433422
 30
0.0
 10
597.0205574215267
 20
633.4638008956432
 30
0.0
  0
ARC
  5
CC
330
1F
100
AcDbEntity
  8
0
  6
Continuous
 62
     7
370
    25
100
AcDbCircle
 10
596.8751995423
 20
618.9969612004
 30
0.0
 40
14.72499999999996
100
AcDbArc
 50
63.6400367407
 51
82.8070678661
  0
SPLINE
  5
CD
330
1F
100
AcDbEntity
  8
0
  6
Continuous
 62
     7
370
    25
100
AcDbSpline
210
0.0
220
0.0
230
1.0
 70
    24
 71
     3
 72
    12
 73
     8
 74
     0
 42
0.00000001
 43
0.00000001
 40
0.0
 40
0.0
 40
0.0
 40
0.0
 40
0.3013828945620945
 40
0.4108442493795588
 40
0.6247185195336505
 40
0.6986171054378635
 40
0.9999999999999999
 40
0.9999999999999999
 40
0.9999999999999999
 40
0.9999999999999999
 10
588.7761966812077
 20
606.7338364966115
 30
0.0
 10
588.3110932293664
 20
607.228713552006
 30
0.0
 10
587.6770656119953
 20
607.9033284555959
 30
0.0
 10
586.7083496634606
 20
608.9340567682465
 30
0.0
 10
586.0912248585117
 20
609.590686825656
 30
0.0
 10
585.1779746319908
 20
610.5623987773728
 30
0.0
 10
584.5988419743144
 20
611.1786046197051
 30
0.0
 10
584.1337492751246
 20
611.6734702341166
 30
0.0
  0
ARC
  5
CE
330
1F
100
AcDbEntity
  8
0
  6
Continuous
 62
     7
370
    25
100
AcDbCircle
 10
584.5119150841
 20
611.5815356238
 30
0.0
 40
0.3891803587979679
100
AcDbArc
 50
127.7094634935
 51
166.3360839425
  0
SPLINE
  5
CF
330
1F
100
AcDbEntity
  8
0
  6
Continuous
 62
     7
370
    25
100
AcDbSpline
210
0.0
220
0.0
230
1.0
 70
    24
 71
     3
 72
    12
 73
     8
 74
     0
 42
0.00000001
 43
0.00000001
 40
0.0
 40
0.0
 40
0.0
 40
0.0
 40
0.3013828945620993
 40
0.4108442493795574
 40
0.6247185195336497
 40
0.6986171054378605
 40
1.0
 40
1.0
 40
1.0
 40
1.0
 10
611.5448784961386
 20
618.114581329207
 30
0.0
 10
611.3488541203377
 20
617.4643513968274
 30
0.0
 10
611.0816342847427
 20
616.5779599216881
 30
0.0
 10
610.6733553558547
 20
615.2236631448807
 30
0.0
 10
610.4132594477243
 20
614.3609023577848
 30
0.0
 10
610.0283573256371
 20
613.0841484857473
 30
0.0
 10
609.784273741055
 20
612.274501970872
 30
0.0
 10
609.5882538971101
 20
611.6242870710535
 30
0.0
  0
ARC
  5
D0
330
1F
100
AcDbEntity
  8
0
  6
Continuous
 62
     7
370
    25
100
AcDbCircle
 10
609.4787887006
 20
611.9977555736
 30
0.0
 40
0.3891803587951462
100
AcDbArc
 50
247.7094634933
 51
286.3360839426
  0
ARC
  5
D1
330
1F
100
AcDbEntity
  8
0
  6
Continuous
 62
     7
370
    25
100
AcDbCircle
 10
611.247234334
 20
617.8638438083
 30
0.0
 40
0.38918035879828
100
AcDbArc
 50
40.1110206644
 51
78.7376411134
  0
ARC
  5
D2
330
1F
100
AcDbEntity
  8
0
  6
Continuous
 62
     7
370
    25
100
AcDbCircle
 10
582.5031647507
 20
620.1300785925
 30
0.0
 40
0.3891803588398721
100
AcDbArc
 50
220.1110206666
 51
258.7376411113
  0
SPLINE
  5
D3
330
1F
100
AcDbEntity
  8
0
  6
Continuous
 62
     7
370
    25
100
AcDbSpline
210
0.0
220
0.0
230
1.0
 70
    24
 71
     3
 72
    12
 73
     8
 74
     0
 42
0.00000001
 43
0.00000001
 40
0.0
 40
0.0
 40
0.0
 40
0.0
 40
0.3013828945621505
 40
0.4108442493795785
 40
0.6247185195336594
 40
0.6986171054378614
 40
1.0
 40
1.0
 40
1.0
 40
1.0
 10
582.2055205885304
 20
619.8793410715548
 30
0.0
 10
582.4015449643313
 20
620.5295710039347
 30
0.0
 10
582.6687647999263
 20
621.415962479074
 30
0.0
 10
583.0770437288141
 20
622.7702592558815
 30
0.0
 10
583.3371396369447
 20
623.6330200429773
 30
0.0
 10
583.7220417590318
 20
624.9097739150146
 30
0.0
 10
583.9661253436138
 20
625.7194204298899
 30
0.0
 10
584.1621451875588
 20
626.3696353297086
 30
0.0
  0
ARC
  5
D4
330
1F
100
AcDbEntity
  8
0
  6
Continuous
 62
     7
370
    25
100
AcDbCircle
 10
584.2716103841
 20
625.9961668271
 30
0.0
 40
0.3891803587960556
100
AcDbArc
 50
67.7094634933
 51
106.3360839426
  0
ARC
  5
D5
330
1F
100
AcDbEntity
  8
0
  6
Continuous
 62
     7
370
    25
100
AcDbCircle
 10
590.6704905936
 20
632.01006713
 30
0.0
 40
0.3891803588373384
100
AcDbArc
 50
160.1110206664
 51
198.7376411113
  0
SPLINE
  5
D6
330
1F
100
AcDbEntity
  8
0
  6
Continuous
 62
     7
370
    25
100
AcDbSpline
210
0.0
220
0.0
230
1.0
 70
    24
 71
     3
 72
    12
 73
     8
 74
     0
 42
0.00000001
 43
0.00000001
 40
0.0
 40
0.0
 40
0.0
 40
0.0
 40
0.3013828945621499
 40
0.4108442493795587
 40
0.6247185195336379
 40
0.6986171054378637
 40
1.0
 40
1.0
 40
1.0
 40
1.0
 10
590.3045234496572
 20
632.1424657753241
 30
0.0
 10
590.9656512772995
 20
632.2978186523095
 30
0.0
 10
591.8668987302655
 20
632.5095952238588
 30
0.0
 10
593.2438936076882
 20
632.8331636880157
 30
0.0
 10
594.1211143207673
 20
633.0392944177021
 30
0.0
 10
595.4192666693755
 20
633.3443363380229
 30
0.0
 10
596.242482911634
 20
633.5377770105657
 30
0.0
 10
596.9035954547686
 20
633.6931262959729
 30
0.0
  0
ARC
  5
D7
330
1F
100
AcDbEntity
  8
0
  6
Continuous
 62
     7
370
    25
100
AcDbCircle
 10
596.6348948423
 20
633.4115924037
 30
0.0
 40
0.3891803587968805
100
AcDbArc
 50
7.7094634934
 51
46.3360839425
  0
SPLINE
  5
D8
330
1F
100
AcDbEntity
  8
0
  6
Continuous
 62
     7
370
    25
100
AcDbSpline
210
0.0
220
0.0
230
1.0
 70
    24
 71
     3
 72
    12
 73
     8
 74
     0
 42
0.00000001
 43
0.00000001
 40
0.0
 40
0.0
 40
0.0
 40
0.0
 40
0.3013828945621527
 40
0.4108442493795539
 40
0.6247185195336458
 40
0.6986171054378585
 40
1.0
 40
1.0
 40
1.0
 40
1.0
 10
604.9742024034613
 20
631.2600859041503
 30
0.0
 10
605.4393058553026
 20
630.7652088487557
 30
0.0
 10
606.0733334726737
 20
630.0905939451659
 30
0.0
 10
607.0420494212084
 20
629.0598656325153
 30
0.0
 10
607.6591742261571
 20
628.4032355751059
 30
0.0
 10
608.5724244526781
 20
627.4315236233891
 30
0.0
 10
609.1515571103546
 20
626.8153177810568
 30
0.0
 10
609.6166498095442
 20
626.3204521666453
 30
0.0
  0
ARC
  5
D9
330
1F
100
AcDbEntity
  8
0
  6
Continuous
 62
     7
370
    25
100
AcDbCircle
 10
609.2384840005
 20
626.4123867769
 30
0.0
 40
0.3891803587956966
100
AcDbArc
 50
307.7094634933
 51
346.3360839426
  0
ARC
  5
DA
330
1F
100
AcDbEntity
  8
0
  6
Continuous
 62
     7
370
    25
100
AcDbCircle
 10
605.0425253852
 20
630.876949738
 30
0.0
 40
0.389180358797591
100
AcDbArc
 50
100.1110206643
 51
138.7376411134
  0
LINE
  5
DB
330
1F
100
AcDbEntity
  8
0
  6
Continuous
 62
     7
370
    25
100
AcDbLine
 10
609.5882538971
 20
611.6242870711
 30
0.0
 11
609.0839198276
 21
609.9513670245
 31
0.0
  0
LINE
  5
DC
330
1F
100
AcDbEntity
  8
0
  6
Continuous
 62
     7
370
    25
100
AcDbLine
 10
609.0839198276
 20
609.9513670245
 30
0.0
 11
608.6052007138
 21
610.0956861503
 31
0.0
  0
LINE
  5
DD
330
1F
100
AcDbEntity
  8
0
  6
Continuous
 62
     7
370
    25
100
AcDbLine
 10
584.1337492751
 20
611.6734702341
 30
0.0
 11
582.937125051
 21
612.9466963736
 31
0.0
  0
LINE
  5
DE
330
1F
100
AcDbEntity
  8
0
  6
Continuous
 62
     7
370
    25
100
AcDbLine
 10
583.3014686372
 20
613.2891197245
 30
0.0
 11
582.937125051
 21
612.9466963736
 31
0.0
  0
LINE
  5
DF
330
1F
100
AcDbEntity
  8
0
  6
Continuous
 62
     7
370
    25
100
AcDbLine
 10
584.1621451876
 20
626.3696353297
 30
0.0
 11
584.666479257
 21
628.0425553763
 31
0.0
  0
LINE
  5
E0
330
1F
100
AcDbEntity
  8
0
  6
Continuous
 62
     7
370
    25
100
AcDbLine
 10
584.666479257
 20
628.0425553763
 30
0.0
 11
585.1451983708
 21
627.8982362504
 31
0.0
  0
LINE
  5
E1
330
1F
100
AcDbEntity
  8
0
  6
Continuous
 62
     7
370
    25
100
AcDbLine
 10
609.6166498095
 20
626.3204521666
 30
0.0
 11
610.8132740337
 21
625.0472260272
 31
0.0
  0
LINE
  5
E2
330
1F
100
AcDbEntity
  8
0
  6
Continuous
 62
     7
370
    25
100
AcDbLine
 10
610.8132740337
 20
625.0472260272
 30
0.0
 11
610.4489304475
 21
624.7048026763
 31
0.0
  0
LINE
  5
E3
330
1F
100
AcDbEntity
  8
0
  6
Continuous
 62
     7
370
    25
100
AcDbLine
 10
596.9035954548
 20
633.693126296
 30
0.0
 11
598.6045537484
 21
634.0928202031
 31
0.0
  0
LINE
  5
E4
330
1F
100
AcDbEntity
  8
0
  6
Continuous
 62
     7
370
    25
100
AcDbLine
 10
598.6045537484
 20
634.0928202031
 30
0.0
 11
598.718929276
 21
633.6060777263
 31
0.0
  0
LINE
  5
E5
330
1F
100
AcDbEntity
  8
0
  6
Continuous
 62
     7
370
    25
100
AcDbLine
 10
605.1468339286
 20
606.2511505326
 30
0.0
 11
604.7751995423
 21
606.1638232886
 31
0.0
  0
LINE
  5
E6
330
1F
100
AcDbEntity
  8
0
  6
Continuous
 62
     7
370
    25
100
AcDbLine
 10
605.1468339286
 20
606.2511505326
 30
0.0
 11
605.032458401
 21
606.7378930093
 31
0.0
  0
LINE
  5
E7
330
1F
100
AcDbEntity
  8
0
  6
Continuous
 62
     7
370
    25
100
AcDbLine
 10
582.1799056328
 20
618.0621018991
 30
0.0
 11
581.701186519
 21
618.206421025
 31
0.0
  0
LINE
  5
E8
330
1F
100
AcDbEntity
  8
0
  6
Continuous
 62
     7
370
    25
100
AcDbLine
 10
581.701186519
 20
618.206421025
 30
0.0
 11
582.2055205885
 21
619.8793410716
 31
0.0
  0
LINE
  5
E9
330
1F
100
AcDbEntity
  8
0
  6
Continuous
 62
     7
370
    25
100
AcDbLine
 10
612.0492125656
 20
619.7875013758
 30
0.0
 11
611.5448784961
 21
618.1145813292
 31
0.0
  0
LINE
  5
EA
330
1F
100
AcDbEntity
  8
0
  6
Continuous
 62
     7
370
    25
100
AcDbLine
 10
611.5704934518
 20
619.9318205017
 30
0.0
 11
612.0492125656
 21
619.7875013758
 31
0.0
  0
LINE
  5
EB
330
1F
100
AcDbEntity
  8
0
  6
Continuous
 62
     7
370
    25
100
AcDbLine
 10
588.7179406837
 20
631.2560293914
 30
0.0
 11
588.6035651561
 21
631.7427718682
 31
0.0
  0
LINE
  5
EC
330
1F
100
AcDbEntity
  8
0
  6
Continuous
 62
     7
370
    25
100
AcDbLine
 10
588.6035651561
 20
631.7427718682
 30
0.0
 11
590.3045234497
 21
632.1424657753
 31
0.0
  0
LINE
  5
ED
330
1F
100
AcDbEntity
  8
0
  6
Continuous
 62
     7
370
    25
100
AcDbLine
 10
603.7775781793
 20
632.5333120436
 30
0.0
 11
604.9742024035
 21
631.2600859042
 31
0.0
  0
LINE
  5
EE
330
1F
100
AcDbEntity
  8
0
  6
Continuous
 62
     7
370
    25
100
AcDbLine
 10
603.4132345932
 20
632.1908886927
 30
0.0
 11
603.7775781793
 21
632.5333120436
 31
0.0
  0
LINE
  5
EF
330
1F
100
AcDbEntity
  8
0
  6
Continuous
 62
     7
370
    25
100
AcDbLine
 10
607.0168265056
 20
606.6905643866
 30
0.0
 11
605.1468339286
 21
606.2511505326
 31
0.0
  0
LINE
  5
F0
330
1F
100
AcDbEntity
  8
0
  6
Continuous
 62
     7
370
    25
100
AcDbLine
 10
605.032458401
 20
606.7378930093
 30
0.0
 11
606.902450978
 21
607.1773068634
 31
0.0
  0
LINE
  5
F1
330
1F
100
AcDbEntity
  8
0
  6
Continuous
 62
     7
370
    25
100
AcDbLine
 10
607.0168265056
 20
606.6905643866
 30
0.0
 11
606.902450978
 21
607.1773068634
 31
0.0
  0
ARC
  5
F2
330
1F
100
AcDbEntity
  8
0
  6
Continuous
 62
     7
370
    25
100
AcDbCircle
 10
596.8751995423
 20
618.9969612004
 30
0.0
 40
16.00000000000007
100
AcDbArc
 50
310.309742062
 51
316.1373625449
  0
LINE
  5
F3
330
1F
100
AcDbEntity
  8
0
  6
Continuous
 62
     7
370
    25
100
AcDbLine
 10
607.2259107017
 20
606.7960276912
 30
0.0
 11
606.902450978
 21
607.1773068634
 31
0.0
  0
ARC
  5
F4
330
1F
100
AcDbEntity
  8
0
  6
Continuous
 62
     7
370
    25
100
AcDbCircle
 10
596.8751995423
 20
618.9969612004
 30
0.0
 40
15.49999999999995
100
AcDbArc
 50
310.309742062
 51
316.1373625449
  0
LINE
  5
F5
330
1F
100
AcDbEntity
  8
0
  6
Continuous
 62
     7
370
    25
100
AcDbLine
 10
608.4112495484
 20
607.9100522417
 30
0.0
 11
608.0507479857
 21
608.2565181467
 31
0.0
  0
LINE
  5
F6
330
1F
100
AcDbEntity
  8
0
  6
Continuous
 62
     7
370
    25
100
AcDbLine
 10
608.0507479857
 20
608.2565181467
 30
0.0
 11
608.6052007138
 21
610.0956861503
 31
0.0
  0
ARC
  5
F7
330
1F
100
AcDbEntity
  8
0
  6
Continuous
 62
     7
370
    25
100
AcDbCircle
 10
606.902450978
 20
607.1773068634
 30
0.0
 40
0.5000000000000459
100
AcDbArc
 50
283.2235523034
 51
310.309742062
  0
LINE
  5
F8
330
1F
100
AcDbEntity
  8
0
  6
Continuous
 62
     7
370
    25
100
AcDbLine
 10
608.5294670995
 20
608.1121990208
 30
0.0
 11
608.0507479857
 21
608.2565181467
 31
0.0
  0
ARC
  5
F9
330
1F
100
AcDbEntity
  8
0
  6
Continuous
 62
     7
370
    25
100
AcDbCircle
 10
608.0507479857
 20
608.2565181467
 30
0.0
 40
0.500000000000177
100
AcDbArc
 50
316.1373625449
 51
343.2235523034
  0
LINE
  5
FA
330
1F
100
AcDbEntity
  8
0
  6
Continuous
 62
     7
370
    25
100
AcDbLine
 10
581.9859287882
 20
614.688873874
 30
0.0
 11
583.3014686372
 21
613.2891197245
 31
0.0
  0
LINE
  5
FB
330
1F
100
AcDbEntity
  8
0
  6
Continuous
 62
     7
370
    25
100
AcDbLine
 10
582.937125051
 20
612.9466963736
 30
0.0
 11
581.6215852021
 21
614.3464505231
 31
0.0
  0
LINE
  5
FC
330
1F
100
AcDbEntity
  8
0
  6
Continuous
 62
     7
370
    25
100
AcDbLine
 10
581.9859287882
 20
614.688873874
 30
0.0
 11
581.6215852021
 21
614.3464505231
 31
0.0
  0
LINE
  5
FD
330
1F
100
AcDbEntity
  8
0
  6
Continuous
 62
     7
370
    25
100
AcDbLine
 10
609.0839198276
 20
609.9513670245
 30
0.0
 11
608.5294670995
 21
608.1121990208
 31
0.0
  0
ARC
  5
FE
330
1F
100
AcDbEntity
  8
0
  6
Continuous
 62
     7
370
    25
100
AcDbCircle
 10
596.8751995423
 20
618.9969612004
 30
0.0
 40
15.50000000000016
100
AcDbArc
 50
190.309742062
 51
196.1373625449
  0
LINE
  5
FF
330
1F
100
AcDbEntity
  8
0
  6
Continuous
 62
     7
370
    25
100
AcDbLine
 10
581.9859287882
 20
614.688873874
 30
0.0
 11
581.5056297317
 21
614.5499033151
 31
0.0
  0
ARC
  5
100
330
1F
100
AcDbEntity
  8
0
  6
Continuous
 62
     7
370
    25
100
AcDbCircle
 10
596.8751995423
 20
618.9969612004
 30
0.0
 40
16.00000000000001
100
AcDbArc
 50
190.309742062
 51
196.1373625449
  0
LINE
  5
101
330
1F
100
AcDbEntity
  8
0
  6
Continuous
 62
     7
370
    25
100
AcDbLine
 10
581.6254529047
 20
616.2229338954
 30
0.0
 11
581.1335255938
 21
616.1334491437
 31
0.0
  0
LINE
  5
102
330
1F
100
AcDbEntity
  8
0
  6
Continuous
 62
     7
370
    25
100
AcDbLine
 10
582.1799056328
 20
618.0621018991
 30
0.0
 11
581.6254529047
 21
616.2229338954
 31
0.0
  0
ARC
  5
103
330
1F
100
AcDbEntity
  8
0
  6
Continuous
 62
     7
370
    25
100
AcDbCircle
 10
581.9859287882
 20
614.688873874
 30
0.0
 40
0.4999999999998564
100
AcDbArc
 50
196.1373625448
 51
223.2235523034
  0
LINE
  5
104
330
1F
100
AcDbEntity
  8
0
  6
Continuous
 62
     7
370
    25
100
AcDbLine
 10
581.6254529047
 20
616.2229338954
 30
0.0
 11
581.1467337909
 21
616.3672530213
 31
0.0
  0
LINE
  5
105
330
1F
100
AcDbEntity
  8
0
  6
Continuous
 62
     7
370
    25
100
AcDbLine
 10
581.1467337909
 20
616.3672530213
 30
0.0
 11
581.701186519
 21
618.206421025
 31
0.0
  0
ARC
  5
106
330
1F
100
AcDbEntity
  8
0
  6
Continuous
 62
     7
370
    25
100
AcDbCircle
 10
581.6254529047
 20
616.2229338954
 30
0.0
 40
0.5000000000000329
100
AcDbArc
 50
163.2235523034
 51
190.309742062
  0
LINE
  5
107
330
1F
100
AcDbEntity
  8
0
  6
Continuous
 62
     7
370
    25
100
AcDbLine
 10
611.5704934518
 20
619.9318205017
 30
0.0
 11
612.1249461799
 21
621.7709885053
 31
0.0
  0
LINE
  5
108
330
1F
100
AcDbEntity
  8
0
  6
Continuous
 62
     7
370
    25
100
AcDbLine
 10
612.1249461799
 20
621.7709885053
 30
0.0
 11
612.6036652937
 21
621.6266693794
 31
0.0
  0
LINE
  5
109
330
1F
100
AcDbEntity
  8
0
  6
Continuous
 62
     7
370
    25
100
AcDbLine
 10
612.6036652937
 20
621.6266693794
 30
0.0
 11
612.0492125656
 21
619.7875013758
 31
0.0
  0
ARC
  5
10A
330
1F
100
AcDbEntity
  8
0
  6
Continuous
 62
     7
370
    25
100
AcDbCircle
 10
596.8751995423
 20
618.9969612004
 30
0.0
 40
15.99999999999998
100
AcDbArc
 50
10.309742062
 51
16.1373625448
  0
LINE
  5
10B
330
1F
100
AcDbEntity
  8
0
  6
Continuous
 62
     7
370
    25
100
AcDbLine
 10
612.6168734908
 20
621.8604732571
 30
0.0
 11
612.1249461799
 21
621.7709885053
 31
0.0
  0
ARC
  5
10C
330
1F
100
AcDbEntity
  8
0
  6
Continuous
 62
     7
370
    25
100
AcDbCircle
 10
596.8751995423
 20
618.9969612004
 30
0.0
 40
15.50000000000007
100
AcDbArc
 50
10.309742062
 51
16.1373625449
  0
LINE
  5
10D
330
1F
100
AcDbEntity
  8
0
  6
Continuous
 62
     7
370
    25
100
AcDbLine
 10
612.244769353
 20
623.4440190857
 30
0.0
 11
611.7644702964
 21
623.3050485267
 31
0.0
  0
ARC
  5
10E
330
1F
100
AcDbEntity
  8
0
  6
Continuous
 62
     7
370
    25
100
AcDbCircle
 10
612.1249461799
 20
621.7709885053
 30
0.0
 40
0.499999999999924
100
AcDbArc
 50
343.2235523034
 51
10.309742062
  0
LINE
  5
10F
330
1F
100
AcDbEntity
  8
0
  6
Continuous
 62
     7
370
    25
100
AcDbLine
 10
610.8132740337
 20
625.0472260272
 30
0.0
 11
612.1288138826
 21
623.6474718776
 31
0.0
  0
LINE
  5
110
330
1F
100
AcDbEntity
  8
0
  6
Continuous
 62
     7
370
    25
100
AcDbLine
 10
612.1288138826
 20
623.6474718776
 30
0.0
 11
611.7644702964
 21
623.3050485267
 31
0.0
  0
LINE
  5
111
330
1F
100
AcDbEntity
  8
0
  6
Continuous
 62
     7
370
    25
100
AcDbLine
 10
611.7644702964
 20
623.3050485267
 30
0.0
 11
610.4489304475
 21
624.7048026763
 31
0.0
  0
ARC
  5
112
330
1F
100
AcDbEntity
  8
0
  6
Continuous
 62
     7
370
    25
100
AcDbCircle
 10
611.7644702964
 20
623.3050485267
 30
0.0
 40
0.5000000000000433
100
AcDbArc
 50
16.1373625448
 51
43.2235523034
  0
LINE
  5
113
330
1F
100
AcDbEntity
  8
0
  6
Continuous
 62
     7
370
    25
100
AcDbLine
 10
588.7179406837
 20
631.2560293914
 30
0.0
 11
586.8479481067
 21
630.8166155374
 31
0.0
  0
LINE
  5
114
330
1F
100
AcDbEntity
  8
0
  6
Continuous
 62
     7
370
    25
100
AcDbLine
 10
585.6996510989
 20
629.7374042541
 30
0.0
 11
585.1451983708
 21
627.8982362504
 31
0.0
  0
ARC
  5
115
330
1F
100
AcDbEntity
  8
0
  6
Continuous
 62
     7
370
    25
100
AcDbCircle
 10
596.8751995423
 20
618.9969612004
 30
0.0
 40
15.49999999999998
100
AcDbArc
 50
130.309742062
 51
136.1373625449
  0
ARC
  5
116
330
1F
100
AcDbEntity
  8
0
  6
Continuous
 62
     7
370
    25
100
AcDbCircle
 10
586.8479481067
 20
630.8166155374
 30
0.0
 40
0.5000000000000199
100
AcDbArc
 50
103.2235523034
 51
130.309742062
  0
LINE
  5
117
330
1F
100
AcDbEntity
  8
0
  6
Continuous
 62
     7
370
    25
100
AcDbLine
 10
586.8479481067
 20
630.8166155374
 30
0.0
 11
586.733572579
 21
631.3033580141
 31
0.0
  0
LINE
  5
118
330
1F
100
AcDbEntity
  8
0
  6
Continuous
 62
     7
370
    25
100
AcDbLine
 10
586.8479481067
 20
630.8166155374
 30
0.0
 11
586.5244883829
 21
631.1978947095
 31
0.0
  0
LINE
  5
119
330
1F
100
AcDbEntity
  8
0
  6
Continuous
 62
     7
370
    25
100
AcDbLine
 10
603.4132345932
 20
632.1908886927
 30
0.0
 11
602.0976947443
 21
633.5906428423
 31
0.0
  0
LINE
  5
11A
330
1F
100
AcDbEntity
  8
0
  6
Continuous
 62
     7
370
    25
100
AcDbLine
 10
600.588921853
 20
634.0454915804
 30
0.0
 11
598.718929276
 21
633.6060777263
 31
0.0
  0
ARC
  5
11B
330
1F
100
AcDbEntity
  8
0
  6
Continuous
 62
     7
370
    25
100
AcDbCircle
 10
596.8751995423
 20
618.9969612004
 30
0.0
 40
15.50000000000002
100
AcDbArc
 50
70.309742062
 51
76.1373625449
  0
LINE
  5
11C
330
1F
100
AcDbEntity
  8
0
  6
Continuous
 62
     7
370
    25
100
AcDbLine
 10
586.733572579
 20
631.3033580141
 30
0.0
 11
588.6035651561
 21
631.7427718682
 31
0.0
  0
ARC
  5
11D
330
1F
100
AcDbEntity
  8
0
  6
Continuous
 62
     7
370
    25
100
AcDbCircle
 10
585.6996510989
 20
629.7374042541
 30
0.0
 40
0.5000000000000329
100
AcDbArc
 50
136.1373625449
 51
163.2235523034
  0
LINE
  5
11E
330
1F
100
AcDbEntity
  8
0
  6
Continuous
 62
     7
370
    25
100
AcDbLine
 10
585.6996510989
 20
629.7374042541
 30
0.0
 11
585.3391495363
 21
630.083870159
 31
0.0
  0
LINE
  5
11F
330
1F
100
AcDbEntity
  8
0
  6
Continuous
 62
     7
370
    25
100
AcDbLine
 10
585.2209319852
 20
629.8817233799
 30
0.0
 11
585.6996510989
 21
629.7374042541
 31
0.0
  0
LINE
  5
120
330
1F
100
AcDbEntity
  8
0
  6
Continuous
 62
     7
370
    25
100
AcDbLine
 10
584.666479257
 20
628.0425553763
 30
0.0
 11
585.2209319852
 21
629.8817233799
 31
0.0
  0
ARC
  5
121
330
1F
100
AcDbEntity
  8
0
  6
Continuous
 62
     7
370
    25
100
AcDbCircle
 10
596.8751995423
 20
618.9969612004
 30
0.0
 40
15.99999999999999
100
AcDbArc
 50
130.309742062
 51
136.1373625449
  0
LINE
  5
122
330
1F
100
AcDbEntity
  8
0
  6
Continuous
 62
     7
370
    25
100
AcDbLine
 10
602.0976947443
 20
633.5906428423
 30
0.0
 11
602.4620383304
 21
633.9330661932
 31
0.0
  0
LINE
  5
123
330
1F
100
AcDbEntity
  8
0
  6
Continuous
 62
     7
370
    25
100
AcDbLine
 10
602.4620383304
 20
633.9330661932
 30
0.0
 11
603.7775781793
 21
632.5333120436
 31
0.0
  0
ARC
  5
124
330
1F
100
AcDbEntity
  8
0
  6
Continuous
 62
     7
370
    25
100
AcDbCircle
 10
596.8751995423
 20
618.9969612004
 30
0.0
 40
16.00000000000004
100
AcDbArc
 50
70.309742062
 51
76.1373625449
  0
LINE
  5
125
330
1F
100
AcDbEntity
  8
0
  6
Continuous
 62
     7
370
    25
100
AcDbLine
 10
602.2661623314
 20
634.0614067662
 30
0.0
 11
602.0976947443
 21
633.5906428423
 31
0.0
  0
LINE
  5
126
330
1F
100
AcDbEntity
  8
0
  6
Continuous
 62
     7
370
    25
100
AcDbLine
 10
600.588921853
 20
634.0454915804
 30
0.0
 11
600.7087193469
 21
634.5309280443
 31
0.0
  0
LINE
  5
127
330
1F
100
AcDbEntity
  8
0
  6
Continuous
 62
     7
370
    25
100
AcDbLine
 10
598.6045537484
 20
634.0928202031
 30
0.0
 11
600.4745463254
 21
634.5322340572
 31
0.0
  0
LINE
  5
128
330
1F
100
AcDbEntity
  8
0
  6
Continuous
 62
     7
370
    25
100
AcDbLine
 10
600.4745463254
 20
634.5322340572
 30
0.0
 11
600.588921853
 21
634.0454915804
 31
0.0
  0
ARC
  5
129
330
1F
100
AcDbEntity
  8
0
  6
Continuous
 62
     7
370
    25
100
AcDbCircle
 10
600.588921853
 20
634.0454915804
 30
0.0
 40
0.500000000000021
100
AcDbArc
 50
76.1373625448
 51
103.2235523034
  0
ARC
  5
12A
330
1F
100
AcDbEntity
  8
0
  6
Continuous
 62
     7
370
    25
100
AcDbCircle
 10
602.0976947443
 20
633.5906428423
 30
0.0
 40
0.5000000000000013
100
AcDbArc
 50
43.2235523034
 51
70.309742062
  0
ARC
  5
12B
330
1F
100
AcDbEntity
  8
0
  6
Continuous
 62
     7
370
    25
100
AcDbCircle
 10
596.8751995423
 20
618.9969612004
 30
0.0
 40
9.574999999999998
100
AcDbArc
 50
325.5951096848
 51
214.4048903152
  0
ARC
  5
12C
330
1F
100
AcDbEntity
  8
0
  6
Continuous
 62
     7
370
    25
100
AcDbCircle
 10
596.8751995423
 20
618.9969612004
 30
0.0
 40
8.249999999999982
100
AcDbArc
 50
343.2508741362
 51
196.7491258638
  0
ARC
  5
12D
330
1F
100
AcDbEntity
  8
0
  6
Continuous
 62
     7
370
    25
100
AcDbCircle
 10
596.8751995423
 20
618.9969612004
 30
0.0
 40
8.049999999999986
100
AcDbArc
 50
348.9219835539
 51
191.0780164461
  0
ARC
  5
12E
330
1F
100
AcDbEntity
  8
0
  6
Continuous
 62
     7
370
    25
100
AcDbCircle
 10
596.8751995423
 20
313.9969612004
 30
0.0
 40
7.899999999999977
100
AcDbArc
 50
180.0
 51
0.0
  0
ARC
  5
12F
330
1F
100
AcDbEntity
  8
0
  6
Continuous
 62
     7
370
    25
100
AcDbCircle
 10
596.8751995423
 20
313.9969612004
 30
0.0
 40
10.82499999999993
100
AcDbArc
 50
136.8689719021
 51
180.0
  0
ARC
  5
130
330
1F
100
AcDbEntity
  8
0
  6
Continuous
 62
     7
370
    25
100
AcDbCircle
 10
596.8751995423
 20
313.9969612004
 30
0.0
 40
10.82499999999993
100
AcDbArc
 50
180.0
 51
43.1310280979
  0
ARC
  5
131
330
1F
100
AcDbEntity
  8
0
  6
Continuous
 62
     7
370
    25
100
AcDbCircle
 10
596.8751995423
 20
618.9969612004
 30
0.0
 40
7.899999999999977
100
AcDbArc
 50
0.0
 51
180.0
  0
SPLINE
  5
132
330
1F
100
AcDbEntity
  8
0
  6
Continuous
 62
     7
370
    25
100
AcDbSpline
210
0.0
220
0.0
230
1.0
 70
     8
 71
     3
 72
    10
 73
     6
 74
     0
 42
0.00000001
 43
0.00000001
 40
0.0
 40
0.0
 40
0.0
 40
0.0
 40
0.4482370048070555
 40
0.9076021902654471
 40
1.0
 40
1.0
 40
1.0
 40
1.0
 10
598.0824414927356
 20
626.793520869023
 30
0.0
 10
598.9265340297568
 20
626.5829515643477
 30
0.0
 10
600.6356750135918
 20
626.1565852445738
 30
0.0
 10
602.2011155324279
 20
624.9250335311044
 30
0.0
 10
602.8889790964924
 20
624.1168495231813
 30
0.0
 10
603.0041682035356
 20
623.9815116465111
 30
0.0
  0
CIRCLE
  5
133
330
1F
100
AcDbEntity
  8
0
  6
Continuous
 62
     7
370
    25
100
AcDbCircle
 10
698.4751995423
 20
618.9969612004
 30
0.0
 40
5.32891433662769
  0
CIRCLE
  5
134
330
1F
100
AcDbEntity
  8
0
  6
Continuous
 62
     7
370
    25
100
AcDbCircle
 10
698.4751995423
 20
618.9969612004
 30
0.0
 40
5.925127771161328
  0
CIRCLE
  5
135
330
1F
100
AcDbEntity
  8
0
  6
Continuous
 62
     7
370
    25
100
AcDbCircle
 10
698.4751995423
 20
618.9969612004
 30
0.0
 40
4.45210587105737
  0
CIRCLE
  5
136
330
1F
100
AcDbEntity
  8
0
  6
Continuous
 62
     7
370
    25
100
AcDbCircle
 10
698.4751995423
 20
618.9969612004
 30
0.0
 40
5.074569253689219
  0
CIRCLE
  5
137
330
1F
100
AcDbEntity
  8
0
  6
Continuous
 62
     7
370
    25
100
AcDbCircle
 10
698.4751995423
 20
618.9969612004
 30
0.0
 40
7.149999999999977
  0
LINE
  5
138
330
1F
100
AcDbEntity
  8
0
  6
Continuous
 62
     7
370
    25
100
AcDbLine
 10
496.4385571517
 20
616.5955867871
 30
0.0
 11
495.2686265832
 21
616.3286364832
 31
0.0
  0
LINE
  5
139
330
1F
100
AcDbEntity
  8
0
  6
Continuous
 62
     7
370
    25
100
AcDbLine
 10
496.1604839185
 20
617.8142644627
 30
0.0
 11
496.4385571517
 21
616.5955867871
 31
0.0
  0
LINE
  5
13A
330
1F
100
AcDbEntity
  8
0
  6
Continuous
 62
     7
370
    25
100
AcDbLine
 10
497.9435242595
 20
618.9903882412
 30
0.0
 11
496.7248465839
 21
618.712315008
 31
0.0
  0
LINE
  5
13B
330
1F
100
AcDbEntity
  8
0
  6
Continuous
 62
     7
370
    25
100
AcDbLine
 10
497.6765739556
 20
620.1603188098
 30
0.0
 11
497.9435242595
 21
618.9903882412
 31
0.0
  0
LINE
  5
13C
330
1F
100
AcDbEntity
  8
0
  6
Continuous
 62
     7
370
    25
100
AcDbLine
 10
496.45789628
 20
619.8822455765
 30
0.0
 11
497.6765739556
 21
620.1603188098
 31
0.0
  0
LINE
  5
13D
330
1F
100
AcDbEntity
  8
0
  6
Continuous
 62
     7
370
    25
100
AcDbLine
 10
495.2817725015
 20
621.6652859175
 30
0.0
 11
495.5598457347
 21
620.446608242
 31
0.0
  0
LINE
  5
13E
330
1F
100
AcDbEntity
  8
0
  6
Continuous
 62
     7
370
    25
100
AcDbLine
 10
494.1118419329
 20
621.3983356136
 30
0.0
 11
495.2817725015
 21
621.6652859175
 31
0.0
  0
LINE
  5
13F
330
1F
100
AcDbEntity
  8
0
  6
Continuous
 62
     7
370
    25
100
AcDbLine
 10
494.3899151662
 20
620.1796579381
 30
0.0
 11
494.1118419329
 21
621.3983356136
 31
0.0
  0
LINE
  5
140
330
1F
100
AcDbEntity
  8
0
  6
Continuous
 62
     7
370
    25
100
AcDbLine
 10
492.6068748252
 20
619.0035341595
 30
0.0
 11
493.8255525008
 21
619.2816073928
 31
0.0
  0
LINE
  5
141
330
1F
100
AcDbEntity
  8
0
  6
Continuous
 62
     7
370
    25
100
AcDbLine
 10
492.8738251291
 20
617.833603591
 30
0.0
 11
492.6068748252
 21
619.0035341595
 31
0.0
  0
LINE
  5
142
330
1F
100
AcDbEntity
  8
0
  6
Continuous
 62
     7
370
    25
100
AcDbLine
 10
494.0925028047
 20
618.1116768242
 30
0.0
 11
492.8738251291
 21
617.833603591
 31
0.0
  0
SPLINE
  5
143
330
1F
100
AcDbEntity
  8
0
  6
Continuous
 62
     7
370
    25
100
AcDbSpline
210
0.0
220
0.0
230
1.0
 70
     8
 71
     3
 72
    12
 73
     8
 74
     0
 42
0.00000001
 43
0.00000001
 40
0.0
 40
0.0
 40
0.0
 40
0.0
 40
0.2133534395476155
 40
0.4267919313634422
 40
0.6383539739091563
 40
0.8490950351927579
 40
0.9999999999999999
 40
0.9999999999999999
 40
0.9999999999999999
 40
0.9999999999999999
 10
494.9905533499404
 20
617.5473141588033
 30
0.0
 10
494.964080887478
 20
617.6269135097322
 30
0.0
 10
494.91112540944
 20
617.7861439434685
 30
0.0
 10
494.7371222743093
 20
617.9760303607353
 30
0.0
 10
494.5168093808541
 20
618.0991917474573
 30
0.0
 10
494.2905065976709
 20
618.1425980042668
 30
0.0
 10
494.1507989662999
 20
618.120780620073
 30
0.0
 10
494.0925028046547
 20
618.1116768242161
 30
0.0
  0
LINE
  5
144
330
1F
100
AcDbEntity
  8
0
  6
Continuous
 62
     7
370
    25
100
AcDbLine
 10
495.2686265832
 20
616.3286364832
 30
0.0
 11
494.9905533499
 21
617.5473141588
 31
0.0
  0
CIRCLE
  5
145
330
1F
100
AcDbEntity
  8
0
  6
Continuous
 62
     7
370
    25
100
AcDbCircle
 10
495.2751995423
 20
618.9969612004
 30
0.0
 40
4.197433366238863
  0
SPLINE
  5
146
330
1F
100
AcDbEntity
  8
0
  6
Continuous
 62
     7
370
    25
100
AcDbSpline
210
0.0
220
0.0
230
1.0
 70
     8
 71
     3
 72
    12
 73
     8
 74
     0
 42
0.00000001
 43
0.00000001
 40
0.0
 40
0.0
 40
0.0
 40
0.0
 40
0.2133534395476119
 40
0.4267919313634478
 40
0.6383539739091497
 40
0.849095035192757
 40
0.9999999999999999
 40
0.9999999999999999
 40
0.9999999999999999
 40
0.9999999999999999
 10
496.7248465839124
 20
618.7123150079872
 30
0.0
 10
496.6452472329833
 20
618.6858425455247
 30
0.0
 10
496.4860167992472
 20
618.6328870674868
 30
0.0
 10
496.2961303819803
 20
618.4588839323559
 30
0.0
 10
496.1729689952583
 20
618.2385710389009
 30
0.0
 10
496.1295627384487
 20
618.0122682557177
 30
0.0
 10
496.1513801226426
 20
617.8725606243466
 30
0.0
 10
496.1604839184994
 20
617.8142644627014
 30
0.0
  0
SPLINE
  5
147
330
1F
100
AcDbEntity
  8
0
  6
Continuous
 62
     7
370
    25
100
AcDbSpline
210
0.0
220
0.0
230
1.0
 70
     8
 71
     3
 72
    12
 73
     8
 74
     0
 42
0.00000001
 43
0.00000001
 40
0.0
 40
0.0
 40
0.0
 40
0.0
 40
0.213353439547612
 40
0.426791931363448
 40
0.63835397390915
 40
0.8490950351927569
 40
1.0
 40
1.0
 40
1.0
 40
1.0
 10
493.8255525007565
 20
619.2816073927752
 30
0.0
 10
493.9051518516856
 20
619.3080798552376
 30
0.0
 10
494.0643822854217
 20
619.3610353332755
 30
0.0
 10
494.2542687026886
 20
619.5350384684064
 30
0.0
 10
494.3774300894106
 20
619.7553513618615
 30
0.0
 10
494.4208363462201
 20
619.9816541450447
 30
0.0
 10
494.3990189620264
 20
620.1213617764156
 30
0.0
 10
494.3899151661695
 20
620.1796579380608
 30
0.0
  0
SPLINE
  5
148
330
1F
100
AcDbEntity
  8
0
  6
Continuous
 62
     7
370
    25
100
AcDbSpline
210
0.0
220
0.0
230
1.0
 70
     8
 71
     3
 72
    12
 73
     8
 74
     0
 42
0.00000001
 43
0.00000001
 40
0.0
 40
0.0
 40
0.0
 40
0.0
 40
0.2133534395476159
 40
0.4267919313634425
 40
0.6383539739091564
 40
0.849095035192758
 40
1.0
 40
1.0
 40
1.0
 40
1.0
 10
495.5598457347285
 20
620.4466082419591
 30
0.0
 10
495.5863181971909
 20
620.3670088910301
 30
0.0
 10
495.6392736752288
 20
620.2077784572939
 30
0.0
 10
495.8132768103597
 20
620.017892040027
 30
0.0
 10
496.0335897038147
 20
619.894730653305
 30
0.0
 10
496.259892486998
 20
619.8513243964953
 30
0.0
 10
496.399600118369
 20
619.8731417806893
 30
0.0
 10
496.4578962800142
 20
619.882245576546
 30
0.0
  0
LINE
  5
149
330
1F
100
AcDbEntity
  8
0
  6
Continuous
 62
     7
370
    25
100
AcDbLine
 10
698.4686265832
 20
621.6652859175
 30
0.0
 11
699.6385571517
 21
621.3983356136
 31
0.0
  0
LINE
  5
14A
330
1F
100
AcDbEntity
  8
0
  6
Continuous
 62
     7
370
    25
100
AcDbLine
 10
698.1905533499
 20
620.446608242
 30
0.0
 11
698.4686265832
 21
621.6652859175
 31
0.0
  0
SPLINE
  5
14B
330
1F
100
AcDbEntity
  8
0
  6
Continuous
 62
     7
370
    25
100
AcDbSpline
210
0.0
220
0.0
230
1.0
 70
     8
 71
     3
 72
    12
 73
     8
 74
     0
 42
0.00000001
 43
0.00000001
 40
0.0
 40
0.0
 40
0.0
 40
0.0
 40
0.2133534395476135
 40
0.4267919313634461
 40
0.638353973909149
 40
0.8490950351927548
 40
0.9999999999999999
 40
0.9999999999999999
 40
0.9999999999999999
 40
0.9999999999999999
 10
697.2925028046549
 20
619.882245576546
 30
0.0
 10
697.3757066788088
 20
619.8715702188049
 30
0.0
 10
697.5421475959199
 20
619.8502152476452
 30
0.0
 10
697.7887169615868
 20
619.924629563556
 30
0.0
 10
697.9952531641334
 20
620.069713316056
 30
0.0
 10
698.1325262777208
 20
620.2547893682417
 30
0.0
 10
698.1734690530673
 20
620.3901330406587
 30
0.0
 10
698.1905533499405
 20
620.4466082419591
 30
0.0
  0
LINE
  5
14C
330
1F
100
AcDbEntity
  8
0
  6
Continuous
 62
     7
370
    25
100
AcDbLine
 10
696.0738251291
 20
620.1603188098
 30
0.0
 11
697.2925028047
 21
619.8822455765
 31
0.0
  0
LINE
  5
14D
330
1F
100
AcDbEntity
  8
0
  6
Continuous
 62
     7
370
    25
100
AcDbLine
 10
695.8068748252
 20
618.9903882412
 30
0.0
 11
696.0738251291
 21
620.1603188098
 31
0.0
  0
LINE
  5
14E
330
1F
100
AcDbEntity
  8
0
  6
Continuous
 62
     7
370
    25
100
AcDbLine
 10
697.0255525008
 20
618.712315008
 30
0.0
 11
695.8068748252
 21
618.9903882412
 31
0.0
  0
SPLINE
  5
14F
330
1F
100
AcDbEntity
  8
0
  6
Continuous
 62
     7
370
    25
100
AcDbSpline
210
0.0
220
0.0
230
1.0
 70
     8
 71
     3
 72
    12
 73
     8
 74
     0
 42
0.00000001
 43
0.00000001
 40
0.0
 40
0.0
 40
0.0
 40
0.0
 40
0.2133534395476132
 40
0.4267919313634478
 40
0.638353973909154
 40
0.8490950351927532
 40
1.0
 40
1.0
 40
1.0
 40
1.0
 10
697.5899151661696
 20
617.8142644627014
 30
0.0
 10
697.6005905239108
 20
617.8974683368555
 30
0.0
 10
697.6219454950705
 20
618.0639092539666
 30
0.0
 10
697.5475311791597
 20
618.3104786196334
 30
0.0
 10
697.4024474266596
 20
618.5170148221799
 30
0.0
 10
697.2173713744738
 20
618.6542879357675
 30
0.0
 10
697.082027702057
 20
618.6952307111138
 30
0.0
 10
697.0255525007566
 20
618.7123150079872
 30
0.0
  0
LINE
  5
150
330
1F
100
AcDbEntity
  8
0
  6
Continuous
 62
     7
370
    25
100
AcDbLine
 10
697.3118419329
 20
616.5955867871
 30
0.0
 11
697.5899151662
 21
617.8142644627
 31
0.0
  0
LINE
  5
151
330
1F
100
AcDbEntity
  8
0
  6
Continuous
 62
     7
370
    25
100
AcDbLine
 10
698.4817725015
 20
616.3286364832
 30
0.0
 11
697.3118419329
 21
616.5955867871
 31
0.0
  0
LINE
  5
152
330
1F
100
AcDbEntity
  8
0
  6
Continuous
 62
     7
370
    25
100
AcDbLine
 10
698.7598457347
 20
617.5473141588
 30
0.0
 11
698.4817725015
 21
616.3286364832
 31
0.0
  0
SPLINE
  5
153
330
1F
100
AcDbEntity
  8
0
  6
Continuous
 62
     7
370
    25
100
AcDbSpline
210
0.0
220
0.0
230
1.0
 70
     8
 71
     3
 72
    12
 73
     8
 74
     0
 42
0.00000001
 43
0.00000001
 40
0.0
 40
0.0
 40
0.0
 40
0.0
 40
0.2133534395476136
 40
0.4267919313634463
 40
0.6383539739091494
 40
0.8490950351927551
 40
1.0
 40
1.0
 40
1.0
 40
1.0
 10
699.6578962800141
 20
618.1116768242161
 30
0.0
 10
699.5746924058602
 20
618.1223521819575
 30
0.0
 10
699.4082514887491
 20
618.143707153117
 30
0.0
 10
699.1616821230823
 20
618.0692928372064
 30
0.0
 10
698.9551459205358
 20
617.9242090847063
 30
0.0
 10
698.8178728069482
 20
617.7391330325205
 30
0.0
 10
698.7769300316018
 20
617.6037893601036
 30
0.0
 10
698.7598457347285
 20
617.5473141588033
 30
0.0
  0
LINE
  5
154
330
1F
100
AcDbEntity
  8
0
  6
Continuous
 62
     7
370
    25
100
AcDbLine
 10
700.8765739556
 20
617.833603591
 30
0.0
 11
699.65789628
 21
618.1116768242
 31
0.0
  0
LINE
  5
155
330
1F
100
AcDbEntity
  8
0
  6
Continuous
 62
     7
370
    25
100
AcDbLine
 10
701.1435242595
 20
619.0035341595
 30
0.0
 11
700.8765739556
 21
617.833603591
 31
0.0
  0
LINE
  5
156
330
1F
100
AcDbEntity
  8
0
  6
Continuous
 62
     7
370
    25
100
AcDbLine
 10
699.9248465839
 20
619.2816073928
 30
0.0
 11
701.1435242595
 21
619.0035341595
 31
0.0
  0
LINE
  5
157
330
1F
100
AcDbEntity
  8
0
  6
Continuous
 62
     7
370
    25
100
AcDbLine
 10
699.6385571517
 20
621.3983356136
 30
0.0
 11
699.3604839185
 21
620.1796579381
 31
0.0
  0
CIRCLE
  5
158
330
1F
100
AcDbEntity
  8
0
  6
Continuous
 62
     7
370
    25
100
AcDbCircle
 10
698.4751995423
 20
618.9969612004
 30
0.0
 40
4.197433366238919
  0
SPLINE
  5
159
330
1F
100
AcDbEntity
  8
0
  6
Continuous
 62
     7
370
    25
100
AcDbSpline
210
0.0
220
0.0
230
1.0
 70
     8
 71
     3
 72
    12
 73
     8
 74
     0
 42
0.00000001
 43
0.00000001
 40
0.0
 40
0.0
 40
0.0
 40
0.0
 40
0.2133534395476131
 40
0.4267919313634476
 40
0.6383539739091537
 40
0.8490950351927532
 40
1.0
 40
1.0
 40
1.0
 40
1.0
 10
699.3604839184994
 20
620.1796579380608
 30
0.0
 10
699.3498085607582
 20
620.0964540639069
 30
0.0
 10
699.3284535895986
 20
619.9300131467958
 30
0.0
 10
699.4028679055093
 20
619.6834437811289
 30
0.0
 10
699.5479516580093
 20
619.4769075785823
 30
0.0
 10
699.7330277101952
 20
619.3396344649949
 30
0.0
 10
699.868371382612
 20
619.2986916896483
 30
0.0
 10
699.9248465839124
 20
619.2816073927752
 30
0.0
  0
CIRCLE
  5
15A
330
1F
100
AcDbEntity
  8
0
  6
Continuous
 62
     7
370
    25
100
AcDbCircle
 10
495.2751995423
 20
618.9969612004
 30
0.0
 40
4.452105871057256
  0
CIRCLE
  5
15B
330
1F
100
AcDbEntity
  8
0
  6
Continuous
 62
     7
370
    25
100
AcDbCircle
 10
495.2751995423
 20
618.9969612004
 30
0.0
 40
5.074569253689106
  0
CIRCLE
  5
15C
330
1F
100
AcDbEntity
  8
0
  6
Continuous
 62
     7
370
    25
100
AcDbCircle
 10
495.2751995423
 20
618.9969612004
 30
0.0
 40
5.328914336627463
  0
CIRCLE
  5
15D
330
1F
100
AcDbEntity
  8
0
  6
Continuous
 62
     7
370
    25
100
AcDbCircle
 10
495.2751995423
 20
618.9969612004
 30
0.0
 40
5.925127771161442
  0
CIRCLE
  5
15E
330
1F
100
AcDbEntity
  8
0
  6
Continuous
 62
     7
370
    25
100
AcDbCircle
 10
495.2751995423
 20
618.9969612004
 30
0.0
 40
7.149999999999977
  0
SPLINE
  5
15F
330
1F
100
AcDbEntity
  8
0
  6
Continuous
 62
     7
370
    25
100
AcDbSpline
210
0.0
220
0.0
230
1.0
 70
     8
 71
     3
 72
    11
 73
     7
 74
     0
 42
0.00000001
 43
0.00000001
 40
0.0
 40
0.0
 40
0.0
 40
0.0
 40
0.2200386424382255
 40
0.6637869905998169
 40
0.8890365590789576
 40
1.0
 40
1.0
 40
1.0
 40
1.0
 10
488.5976093977425
 20
613.2220641822586
 30
0.0
 10
488.393387934741
 20
613.4870827935173
 30
0.0
 10
487.7773163718575
 20
614.2865601238221
 30
0.0
 10
487.2537670208403
 20
615.5497293943499
 30
0.0
 10
487.0021378210792
 20
616.716299207674
 30
0.0
 10
487.0228450158015
 20
617.2275790063334
 30
0.0
 10
487.0296791998276
 20
617.3963213338058
 30
0.0
  0
SPLINE
  5
160
330
1F
100
AcDbEntity
  8
0
  6
Continuous
 62
     7
370
    25
100
AcDbSpline
210
0.0
220
0.0
230
1.0
 70
     8
 71
     3
 72
     9
 73
     5
 74
     0
 42
0.00000001
 43
0.00000001
 40
0.0
 40
0.0
 40
0.0
 40
0.0
 40
0.9209630919903056
 40
1.0
 40
1.0
 40
1.0
 40
1.0
 10
486.9575670344952
 20
613.542387457892
 30
0.0
 10
487.4719885723681
 20
613.4855603989735
 30
0.0
 10
488.0305576858829
 20
613.4238564507774
 30
0.0
 10
488.5560741975522
 20
613.2368449898895
 30
0.0
 10
488.5976093977426
 20
613.2220641822586
 30
0.0
  0
SPLINE
  5
161
330
1F
100
AcDbEntity
  8
0
  6
Continuous
 62
     7
370
    25
100
AcDbSpline
210
0.0
220
0.0
230
1.0
 70
     8
 71
     3
 72
    10
 73
     6
 74
     0
 42
0.00000001
 43
0.00000001
 40
0.0
 40
0.0
 40
0.0
 40
0.0
 40
0.2596150688488836
 40
0.629760644481066
 40
0.9999999999999999
 40
0.9999999999999999
 40
0.9999999999999999
 40
0.9999999999999999
 10
439.782406080558
 20
616.1339450268812
 30
0.0
 10
443.8602262992811
 20
615.8341908897827
 30
0.0
 10
453.7519891326464
 20
615.1070629946186
 30
0.0
 10
469.4815618153195
 20
614.2812161247284
 30
0.0
 10
481.1317400765842
 20
613.7886844754628
 30
0.0
 10
486.9575670344952
 20
613.542387457892
 30
0.0
  0
SPLINE
  5
162
330
1F
100
AcDbEntity
  8
0
  6
Continuous
 62
     7
370
    25
100
AcDbSpline
210
0.0
220
0.0
230
1.0
 70
     8
 71
     3
 72
    11
 73
     7
 74
     0
 42
0.00000001
 43
0.00000001
 40
0.0
 40
0.0
 40
0.0
 40
0.0
 40
0.061464119541392
 40
0.4999988937835378
 40
0.9375097801832794
 40
1.0
 40
1.0
 40
1.0
 40
1.0
 10
439.7824060805582
 20
621.8599773738831
 30
0.0
 10
439.7707368843559
 20
621.7435204014309
 30
0.0
 10
439.6758101980864
 20
620.7961651340997
 30
0.0
 10
439.5921073708203
 20
618.9989209356515
 30
0.0
 10
439.6756772943403
 20
617.1997229114107
 30
0.0
 10
439.7705489993857
 20
616.2523480869776
 30
0.0
 10
439.782406080558
 20
616.1339450268812
 30
0.0
  0
SPLINE
  5
163
330
1F
100
AcDbEntity
  8
0
  6
Continuous
 62
     7
370
    25
100
AcDbSpline
210
0.0
220
0.0
230
1.0
 70
     8
 71
     3
 72
    10
 73
     6
 74
     0
 42
0.00000001
 43
0.00000001
 40
0.0
 40
0.0
 40
0.0
 40
0.0
 40
0.2594618540778875
 40
0.6296073956705976
 40
1.0
 40
1.0
 40
1.0
 40
1.0
 10
486.9575670344952
 20
624.4515349428704
 30
0.0
 10
482.8746987963997
 20
624.2841506333447
 30
0.0
 10
472.9672538373352
 20
623.8779776351168
 30
0.0
 10
457.2359572758658
 20
623.0911942773864
 30
0.0
 10
445.6015503256544
 20
622.270474279545
 30
0.0
 10
439.7824060805582
 20
621.8599773738831
 30
0.0
  0
SPLINE
  5
164
330
1F
100
AcDbEntity
  8
0
  6
Continuous
 62
     7
370
    25
100
AcDbSpline
210
0.0
220
0.0
230
1.0
 70
     8
 71
     3
 72
     9
 73
     5
 74
     0
 42
0.00000001
 43
0.00000001
 40
0.0
 40
0.0
 40
0.0
 40
0.0
 40
0.0790369080192139
 40
1.0
 40
1.0
 40
1.0
 40
1.0
 10
488.5976093977418
 20
624.7718582185036
 30
0.0
 10
488.5560741975464
 20
624.7570774108708
 30
0.0
 10
488.0305576858772
 20
624.570065949983
 30
0.0
 10
487.4719885723626
 20
624.5083620017876
 30
0.0
 10
486.9575670344952
 20
624.4515349428704
 30
0.0
  0
SPLINE
  5
165
330
1F
100
AcDbEntity
  8
0
  6
Continuous
 62
     7
370
    25
100
AcDbSpline
210
0.0
220
0.0
230
1.0
 70
     8
 71
     3
 72
    11
 73
     7
 74
     0
 42
0.00000001
 43
0.00000001
 40
0.0
 40
0.0
 40
0.0
 40
0.0
 40
0.0728838064943292
 40
0.4140719411596029
 40
0.9209668754550567
 40
1.0
 40
1.0
 40
1.0
 40
1.0
 10
487.0296791998313
 20
620.5976010669417
 30
0.0
 10
487.0219640506937
 20
620.7080475011807
 30
0.0
 10
486.9781322733291
 20
621.3355225415118
 30
0.0
 10
487.3226239847671
 20
622.7185145719767
 30
0.0
 10
487.9623133342537
 20
623.9884460897542
 30
0.0
 10
488.5221020836863
 20
624.6787467559272
 30
0.0
 10
488.5976093977418
 20
624.7718582185036
 30
0.0
  0
SPLINE
  5
166
330
1F
100
AcDbEntity
  8
0
  6
Continuous
 62
     7
370
    25
100
AcDbSpline
210
0.0
220
0.0
230
1.0
 70
     8
 71
     3
 72
    10
 73
     6
 74
     0
 42
0.00000001
 43
0.00000001
 40
0.0
 40
0.0
 40
0.0
 40
0.0
 40
0.3880207377811389
 40
0.979063776650686
 40
1.0
 40
1.0
 40
1.0
 40
1.0
 10
487.0296791998276
 20
617.3963213338058
 30
0.0
 10
487.1029937305869
 20
617.8071611956615
 30
0.0
 10
487.2879828159103
 20
618.8438027655098
 30
0.0
 10
487.1922758900793
 20
619.937572087081
 30
0.0
 10
487.0350577388314
 20
620.5757679558006
 30
0.0
 10
487.0296791998313
 20
620.5976010669417
 30
0.0
  0
ARC
  5
167
330
1F
100
AcDbEntity
  8
0
  6
Continuous
 62
     7
370
    25
100
AcDbCircle
 10
495.2751995423
 20
618.9969612004
 30
0.0
 40
8.399443654264582
100
AcDbArc
 50
190.985757993
 51
169.0142420071
  0
SPLINE
  5
168
330
1F
100
AcDbEntity
  8
0
  6
Continuous
 62
     7
370
    25
100
AcDbSpline
210
0.0
220
0.0
230
1.0
 70
     8
 71
     3
 72
     9
 73
     5
 74
     0
 42
0.00000001
 43
0.00000001
 40
0.0
 40
0.0
 40
0.0
 40
0.0
 40
0.6817923421274312
 40
1.0
 40
1.0
 40
1.0
 40
1.0
 10
488.5976093977418
 20
624.7718582185036
 30
0.0
 10
488.7398729583848
 20
624.9617685736088
 30
0.0
 10
488.9485340885452
 20
625.2403143174823
 30
0.0
 10
489.1779599224257
 20
625.4732186904253
 30
0.0
 10
489.2509649796802
 20
625.5473306454478
 30
0.0
  0
ARC
  5
169
330
1F
100
AcDbEntity
  8
0
  6
Continuous
 62
     7
370
    25
100
AcDbCircle
 10
495.2751995423
 20
618.9969612004
 30
0.0
 40
8.899367501836336
100
AcDbArc
 50
227.3959191961
 51
132.6040808039
  0
LINE
  5
16A
330
1F
100
AcDbEntity
  8
0
  6
Continuous
 62
     7
370
    25
100
AcDbLine
 10
489.2509649797
 20
612.4465917553
 30
0.0
 11
488.5976093977
 21
613.2220641823
 31
0.0
  0
SPLINE
  5
16B
330
1F
100
AcDbEntity
  8
0
  6
Continuous
 62
     7
370
    25
100
AcDbSpline
210
0.0
220
0.0
230
1.0
 70
     8
 71
     3
 72
    10
 73
     6
 74
     0
 42
0.00000001
 43
0.00000001
 40
0.0
 40
0.0
 40
0.0
 40
0.0
 40
0.3702896688583046
 40
0.7405318123903298
 40
0.9999999999999999
 40
0.9999999999999999
 40
0.9999999999999999
 40
0.9999999999999999
 10
439.7708866173798
 20
622.3028369547163
 30
0.0
 10
445.5909504635982
 20
622.6230279692426
 30
0.0
 10
457.2303311721018
 20
623.2633689029481
 30
0.0
 10
472.9491995788765
 20
624.1326032348113
 30
0.0
 10
482.8463733948863
 20
624.6813442364205
 30
0.0
 10
486.9244417153505
 20
624.9074495202525
 30
0.0
  0
ARC
  5
16C
330
1F
100
AcDbEntity
  8
0
  6
Continuous
 62
     7
370
    25
100
AcDbCircle
 10
479.7093525079
 20
624.1540631536
 30
0.0
 40
7.254316183389324
100
AcDbArc
 50
2.3501399449
 51
5.9611177313
  0
ARC
  5
16D
330
1F
100
AcDbEntity
  8
0
  6
Continuous
 62
     7
370
    25
100
AcDbCircle
 10
444.0314091586
 20
622.1920801307
 30
0.0
 40
4.261961918874222
100
AcDbArc
 50
178.5108705386
 51
184.4691613065
  0
SPLINE
  5
16E
330
1F
100
AcDbEntity
  8
0
  6
Continuous
 62
     7
370
    25
100
AcDbSpline
210
0.0
220
0.0
230
1.0
 70
     8
 71
     3
 72
    10
 73
     6
 74
     0
 42
0.00000001
 43
0.00000001
 40
0.0
 40
0.0
 40
0.0
 40
0.0
 40
0.3702717503651152
 40
0.7405122151371749
 40
1.0
 40
1.0
 40
1.0
 40
1.0
 10
486.9244417153505
 20
613.0864728805099
 30
0.0
 10
481.1047696536813
 20
613.4090013661778
 30
0.0
 10
469.4659172553845
 20
614.0540310859208
 30
0.0
 10
453.7467776714298
 20
614.9228455734
 30
0.0
 10
443.8492802477311
 20
615.4669004841667
 30
0.0
 10
439.7708866173832
 20
615.6910854460458
 30
0.0
  0
ARC
  5
16F
330
1F
100
AcDbEntity
  8
0
  6
Continuous
 62
     7
370
    25
100
AcDbCircle
 10
444.0314091615
 20
615.80184227
 30
0.0
 40
4.261961921794068
100
AcDbArc
 50
175.530838696
 51
181.4891294598
  0
ARC
  5
170
330
1F
100
AcDbEntity
  8
0
  6
Continuous
 62
     7
370
    25
100
AcDbCircle
 10
479.7093525079
 20
613.8398592472
 30
0.0
 40
7.25431618343421
100
AcDbArc
 50
354.0388822687
 51
357.6498600551
  0
SPLINE
  5
171
330
1F
100
AcDbEntity
  8
0
  6
Continuous
 62
     7
370
    25
100
AcDbSpline
210
0.0
220
0.0
230
1.0
 70
     8
 71
     3
 72
    12
 73
     8
 74
     0
 42
0.00000001
 43
0.00000001
 40
0.0
 40
0.0
 40
0.0
 40
0.0
 40
0.1224290494151349
 40
0.3423522449770471
 40
0.5614228816909413
 40
0.7807229538533572
 40
1.0
 40
1.0
 40
1.0
 40
1.0
 10
437.8466786477105
 20
616.2446193965374
 30
0.0
 10
437.8556827235745
 20
616.2422607120964
 30
0.0
 10
437.8808611073056
 20
616.2356650477716
 30
0.0
 10
438.0968487909503
 20
616.2186570800325
 30
0.0
 10
438.5327469206794
 20
616.1931461058781
 30
0.0
 10
439.1166725341096
 20
616.1635939233188
 30
0.0
 10
439.5605026656777
 20
616.1438276464397
 30
0.0
 10
439.782406080558
 20
616.1339450268812
 30
0.0
  0
SPLINE
  5
172
330
1F
100
AcDbEntity
  8
0
  6
Continuous
 62
     7
370
    25
100
AcDbSpline
210
0.0
220
0.0
230
1.0
 70
     8
 71
     3
 72
    11
 73
     7
 74
     0
 42
0.00000001
 43
0.00000001
 40
0.0
 40
0.0
 40
0.0
 40
0.0
 40
0.0800485240044433
 40
0.5000005853538798
 40
0.9209248322279645
 40
1.0
 40
1.0
 40
1.0
 40
1.0
 10
437.8466786477105
 20
616.2446193965374
 30
0.0
 10
437.8469648921247
 20
616.3908638216379
 30
0.0
 10
437.8487528373292
 20
617.3043384804711
 30
0.0
 10
437.8499885341593
 20
618.9987480682296
 30
0.0
 10
437.8487508360643
 20
620.6913749200843
 30
0.0
 10
437.8469616140964
 20
621.6048382957282
 30
0.0
 10
437.8466786477105
 20
621.7493030042194
 30
0.0
  0
SPLINE
  5
173
330
1F
100
AcDbEntity
  8
0
  6
Continuous
 62
     7
370
    25
100
AcDbSpline
210
0.0
220
0.0
230
1.0
 70
     8
 71
     3
 72
    12
 73
     8
 74
     0
 42
0.00000001
 43
0.00000001
 40
0.0
 40
0.0
 40
0.0
 40
0.0
 40
0.1130367476169362
 40
0.3328594693548023
 40
0.5544127937945006
 40
0.7774207483513244
 40
1.0
 40
1.0
 40
1.0
 40
1.0
 10
439.7824060805582
 20
621.8599773738831
 30
0.0
 10
439.6683352405714
 20
621.8549621281817
 30
0.0
 10
439.3324306779634
 20
621.8401937271259
 30
0.0
 10
438.7983628215687
 20
621.8146015230166
 30
0.0
 10
438.2818371836815
 20
621.7867262601455
 30
0.0
 10
437.924942466527
 20
621.763284386555
 30
0.0
 10
437.8727498490086
 20
621.7539604747953
 30
0.0
 10
437.8466786477105
 20
621.7493030042194
 30
0.0
  0
SPLINE
  5
174
330
1F
100
AcDbEntity
  8
0
  6
Continuous
 62
     7
370
    25
100
AcDbSpline
210
0.0
220
0.0
230
1.0
 70
     8
 71
     3
 72
     9
 73
     5
 74
     0
 42
0.00000001
 43
0.00000001
 40
0.0
 40
0.0
 40
0.0
 40
0.0
 40
0.500010612381544
 40
1.0
 40
1.0
 40
1.0
 40
1.0
 10
489.7505728285232
 20
612.0147600660682
 30
0.0
 10
489.3208514617022
 20
612.3026006041615
 30
0.0
 10
488.4614269691417
 20
612.8782694619131
 30
0.0
 10
487.4367628838634
 20
613.0170727229997
 30
0.0
 10
486.9244417153505
 20
613.0864728805099
 30
0.0
  0
SPLINE
  5
175
330
1F
100
AcDbEntity
  8
0
  6
Continuous
 62
     7
370
    25
100
AcDbSpline
210
0.0
220
0.0
230
1.0
 70
     8
 71
     3
 72
     9
 73
     5
 74
     0
 42
0.00000001
 43
0.00000001
 40
0.0
 40
0.0
 40
0.0
 40
0.0
 40
0.9838702326459385
 40
1.0
 40
1.0
 40
1.0
 40
1.0
 10
489.2509649796802
 20
612.4465917553146
 30
0.0
 10
489.4123057946148
 20
612.3017593422956
 30
0.0
 10
489.5762916634633
 20
612.1545525174388
 30
0.0
 10
489.7478063367453
 20
612.0169790933923
 30
0.0
 10
489.7505728285232
 20
612.0147600660682
 30
0.0
  0
SPLINE
  5
176
330
1F
100
AcDbEntity
  8
0
  6
Continuous
 62
     7
370
    25
100
AcDbSpline
210
0.0
220
0.0
230
1.0
 70
     8
 71
     3
 72
     9
 73
     5
 74
     0
 42
0.00000001
 43
0.00000001
 40
0.0
 40
0.0
 40
0.0
 40
0.0
 40
0.5055561057107305
 40
1.0
 40
1.0
 40
1.0
 40
1.0
 10
486.9244417153505
 20
624.9074495202525
 30
0.0
 10
487.4425012326835
 20
624.9781055545224
 30
0.0
 10
488.4672332287589
 20
625.1178645910999
 30
0.0
 10
489.3259737975205
 20
625.6941978658955
 30
0.0
 10
489.7505728285232
 20
625.9791623346941
 30
0.0
  0
SPLINE
  5
177
330
1F
100
AcDbEntity
  8
0
  6
Continuous
 62
     7
370
    25
100
AcDbSpline
210
0.0
220
0.0
230
1.0
 70
     8
 71
     3
 72
     9
 73
     5
 74
     0
 42
0.00000001
 43
0.00000001
 40
0.0
 40
0.0
 40
0.0
 40
0.0
 40
0.0161297673533178
 40
0.9999999999999999
 40
0.9999999999999999
 40
0.9999999999999999
 40
0.9999999999999999
 10
489.7505728285232
 20
625.9791623346941
 30
0.0
 10
489.7478063367453
 20
625.9769433073701
 30
0.0
 10
489.5762916634592
 20
625.8393698833205
 30
0.0
 10
489.4123057946128
 20
625.6921630584653
 30
0.0
 10
489.2509649796801
 20
625.5473306454478
 30
0.0
  0
SPLINE
  5
178
330
1F
100
AcDbEntity
  8
0
  6
Continuous
 62
     7
370
    25
100
AcDbSpline
210
0.0
220
0.0
230
1.0
 70
     8
 71
     3
 72
    12
 73
     8
 74
     0
 42
0.00000001
 43
0.00000001
 40
0.0
 40
0.0
 40
0.0
 40
0.0
 40
0.2230315344150378
 40
0.4461337558340359
 40
0.6675099896777023
 40
0.8870667292265011
 40
1.0
 40
1.0
 40
1.0
 40
1.0
 10
438.319032912795
 20
622.2484660752679
 30
0.0
 10
438.3385666989209
 20
622.2465758279731
 30
0.0
 10
438.3776404621574
 20
622.2427947342936
 30
0.0
 10
438.6452296442136
 20
622.2497375705643
 30
0.0
 10
439.0327587280387
 20
622.2653263930542
 30
0.0
 10
439.4334808405017
 20
622.2846636731184
 30
0.0
 10
439.6853402627596
 20
622.298229274295
 30
0.0
 10
439.7708866173798
 20
622.3028369547163
 30
0.0
  0
ARC
  5
179
330
1F
100
AcDbEntity
  8
0
  6
Continuous
 62
     7
370
    25
100
AcDbCircle
 10
438.3467785353
 20
621.7491364189
 30
0.0
 40
0.5000999153470647
100
AcDbArc
 50
93.1804119247
 51
179.9809145383
  0
SPLINE
  5
17A
330
1F
100
AcDbEntity
  8
0
  6
Continuous
 62
     7
370
    25
100
AcDbSpline
210
0.0
220
0.0
230
1.0
 70
     8
 71
     3
 72
    12
 73
     8
 74
     0
 42
0.00000001
 43
0.00000001
 40
0.0
 40
0.0
 40
0.0
 40
0.0
 40
0.2190444340109334
 40
0.4380981679380241
 40
0.6571027493691853
 40
0.8772791087290019
 40
1.0
 40
1.0
 40
1.0
 40
1.0
 10
439.7708866173832
 20
615.6910854460458
 30
0.0
 10
439.6044688766123
 20
615.6999142589956
 30
0.0
 10
439.2716263295132
 20
615.7175722597378
 30
0.0
 10
438.8334678868701
 20
615.7370907491469
 30
0.0
 10
438.5065020601104
 20
615.7483965327792
 30
0.0
 10
438.3446581830964
 20
615.7502204008558
 30
0.0
 10
438.3257868506842
 20
615.746711971531
 30
0.0
 10
438.3190329127951
 20
615.7454563254945
 30
0.0
  0
ARC
  5
17B
330
1F
100
AcDbEntity
  8
0
  6
Continuous
 62
     7
370
    25
100
AcDbCircle
 10
438.3467785353
 20
616.2447859819
 30
0.0
 40
0.5000999153471845
100
AcDbArc
 50
180.0190854624
 51
266.8195880753
  0
LINE
  5
17C
330
1F
100
AcDbEntity
  8
0
  6
Continuous
 62
     7
370
    25
100
AcDbLine
 10
486.9244417154
 20
624.9074495203
 30
0.0
 11
486.8974555337
 21
624.9787397956
 31
0.0
  0
LINE
  5
17D
330
1F
100
AcDbEntity
  8
0
  6
Continuous
 62
     7
370
    25
100
AcDbLine
 10
438.3143425521
 20
622.2529045283
 30
0.0
 11
438.3190329128
 21
622.2484660753
 31
0.0
  0
ELLIPSE
  5
17E
330
1F
100
AcDbEntity
  8
0
  6
Continuous
 62
     7
370
    25
100
AcDbEllipse
 10
439.8141140949
 20
622.3361969783
 30
0.0
 11
1.499999304622804
 21
0.0828726334387966
 31
0.0
210
0.0
220
0.0
230
1.0
 40
0.0174284859
 41
2.255125316694662
 42
3.158083049606551
  0
LINE
  5
17F
330
1F
100
AcDbEntity
  8
0
  6
Continuous
 62
     7
370
    25
100
AcDbLine
 10
442.3297287639
 20
622.5449565664
 30
0.0
 11
438.8647655544
 21
622.3040652874
 31
0.0
  0
LINE
  5
180
330
1F
100
AcDbEntity
  8
0
  6
Continuous
 62
     7
370
    25
100
AcDbLine
 10
442.3297287639
 20
622.5448581751
 30
0.0
 11
442.3297287639
 21
622.5449565664
 31
0.0
  0
ELLIPSE
  5
181
330
1F
100
AcDbEntity
  8
0
  6
Continuous
 62
     7
370
    25
100
AcDbEllipse
 10
451.7792151848
 20
622.8745042266
 30
0.0
 11
14.49999327802044
 21
0.8011021232407529
 31
0.0
210
0.0
220
0.0
230
1.0
 40
0.0174284859
 41
1.543516838852418
 42
2.279642175407996
  0
ELLIPSE
  5
182
330
1F
100
AcDbEntity
  8
0
  6
Continuous
 62
     7
370
    25
100
AcDbEllipse
 10
453.1002251004
 20
623.8247877759
 30
0.0
 11
35.70262504606012
 21
1.972514619921981
 31
0.0
210
0.0
220
0.0
230
1.0
 40
0.0174284859
 41
4.685109492442213
 42
5.167309992307954
  0
ELLIPSE
  5
183
330
1F
100
AcDbEntity
  8
0
  6
Continuous
 62
     7
370
    25
100
AcDbEllipse
 10
472.1204525724
 20
624.1971838356
 30
0.0
 11
7.499996523113964
 21
0.4143631671934145
 31
0.0
210
0.0
220
0.0
230
1.0
 40
0.0174284859
 41
1.834826681007748
 42
2.02571733871776
  0
LINE
  5
184
330
1F
100
AcDbEntity
  8
0
  6
Continuous
 62
     7
370
    25
100
AcDbLine
 10
470.1758001714
 20
624.0648393844
 30
0.0
 11
470.156181914
 21
624.215229929
 31
0.0
  0
SPLINE
  5
185
330
1F
100
AcDbEntity
  8
0
  6
Continuous
 62
     7
370
    25
100
AcDbSpline
210
0.0
220
0.0
230
1.0
 70
     8
 71
     3
 72
    10
 73
     6
 74
     0
 42
0.00000001
 43
0.00000001
 40
0.0
 40
0.0
 40
0.0
 40
0.0
 40
0.0186368637457253
 40
0.3939469944633057
 40
1.0
 40
1.0
 40
1.0
 40
1.0
 10
470.3595714570807
 20
624.0653257516562
 30
0.0
 10
470.357115249832
 20
624.065238001177
 30
0.0
 10
470.305195813355
 20
624.063383126984
 30
0.0
 10
470.2011969648771
 20
624.0607031456058
 30
0.0
 10
470.1854963075278
 20
624.0632602270035
 30
0.0
 10
470.1758001713843
 20
624.0648393844112
 30
0.0
  0
LINE
  5
186
330
1F
100
AcDbEntity
  8
0
  6
Continuous
 62
     7
370
    25
100
AcDbLine
 10
486.8974555337
 20
624.9787397956
 30
0.0
 11
470.3595714571
 21
624.0653257517
 31
0.0
  0
LINE
  5
187
330
1F
100
AcDbEntity
  8
0
  6
Continuous
 62
     7
370
    25
100
AcDbLine
 10
470.3575057252
 20
613.9123930003
 30
0.0
 11
486.8914141486
 21
612.9991985381
 31
0.0
  0
SPLINE
  5
188
330
1F
100
AcDbEntity
  8
0
  6
Continuous
 62
     7
370
    25
100
AcDbSpline
210
0.0
220
0.0
230
1.0
 70
     8
 71
     3
 72
    11
 73
     7
 74
     0
 42
0.00000001
 43
0.00000001
 40
0.0
 40
0.0
 40
0.0
 40
0.0
 40
0.4177469294495291
 40
0.8392770662410922
 40
0.9817832068819584
 40
1.0
 40
1.0
 40
1.0
 40
1.0
 10
470.1738002845124
 20
613.9137424455644
 30
0.0
 10
470.1784373125442
 20
613.9148256367481
 30
0.0
 10
470.1877533625456
 20
613.9170018287313
 30
0.0
 10
470.2632498282959
 20
613.9157996518398
 30
0.0
 10
470.3335100288677
 20
613.9133291244998
 30
0.0
 10
470.3550628655254
 20
613.9124883015428
 30
0.0
 10
470.3575057251554
 20
613.9123930002843
 30
0.0
  0
LINE
  5
189
330
1F
100
AcDbEntity
  8
0
  6
Continuous
 62
     7
370
    25
100
AcDbLine
 10
470.156181914
 20
613.7786924718
 30
0.0
 11
470.1738002845
 21
613.9137424456
 31
0.0
  0
ELLIPSE
  5
18A
330
1F
100
AcDbEntity
  8
0
  6
Continuous
 62
     7
370
    25
100
AcDbEllipse
 10
472.1204525724
 20
613.7967385652
 30
0.0
 11
7.499996523113964
 21
-0.4143631671935282
 31
0.0
210
0.0
220
0.0
230
1.0
 40
0.0174284859
 41
4.257467968461774
 42
4.448358626171732
  0
ELLIPSE
  5
18B
330
1F
100
AcDbEntity
  8
0
  6
Continuous
 62
     7
370
    25
100
AcDbEllipse
 10
453.1002251004
 20
614.1691346249
 30
0.0
 11
35.70262504606006
 21
-1.972514619921981
 31
0.0
210
0.0
220
0.0
230
1.0
 40
0.0174284859
 41
1.11587531487179
 42
1.598075814737374
  0
ELLIPSE
  5
18C
330
1F
100
AcDbEntity
  8
0
  6
Continuous
 62
     7
370
    25
100
AcDbEllipse
 10
451.7792151848
 20
615.1194181742
 30
0.0
 11
14.49999327802044
 21
-0.8011021232406392
 31
0.0
210
0.0
220
0.0
230
1.0
 40
0.0174284859
 41
4.003543131771438
 42
4.739668468327181
  0
LINE
  5
18D
330
1F
100
AcDbEntity
  8
0
  6
Continuous
 62
     7
370
    25
100
AcDbLine
 10
442.3297287639
 20
615.4489658344
 30
0.0
 11
442.3297287639
 21
615.4490642256
 31
0.0
  0
LINE
  5
18E
330
1F
100
AcDbEntity
  8
0
  6
Continuous
 62
     7
370
    25
100
AcDbLine
 10
438.8647655544
 20
615.6898571134
 30
0.0
 11
442.3297287639
 21
615.4489658344
 31
0.0
  0
ELLIPSE
  5
18F
330
1F
100
AcDbEntity
  8
0
  6
Continuous
 62
     7
370
    25
100
AcDbEllipse
 10
439.8141140949
 20
615.6577254224
 30
0.0
 11
1.499999304622804
 21
-0.0828726334387966
 31
0.0
210
0.0
220
0.0
230
1.0
 40
0.0174284859
 41
3.125102257573763
 42
4.028059990490178
  0
LINE
  5
190
330
1F
100
AcDbEntity
  8
0
  6
Continuous
 62
     7
370
    25
100
AcDbLine
 10
438.3190329128
 20
615.7454563255
 30
0.0
 11
438.3143425521
 21
615.7410178724
 31
0.0
  0
LINE
  5
191
330
1F
100
AcDbEntity
  8
0
  6
Continuous
 62
     7
370
    25
100
AcDbLine
 10
486.8914141486
 20
612.9991985381
 30
0.0
 11
486.9244417154
 21
613.0864728805
 31
0.0
  0
SPLINE
  5
192
330
1F
100
AcDbEntity
  8
0
  6
Continuous
 62
     7
370
    25
100
AcDbSpline
210
0.0
220
0.0
230
1.0
 70
     8
 71
     3
 72
     9
 73
     5
 74
     0
 42
0.00000001
 43
0.00000001
 40
0.0
 40
0.0
 40
0.0
 40
0.0
 40
0.5001021276704695
 40
1.0
 40
1.0
 40
1.0
 40
1.0
 10
489.7173539624677
 20
626.0448537816542
 30
0.0
 10
489.2884061867603
 20
625.7583281475657
 30
0.0
 10
488.4306858293098
 20
625.1853939042678
 30
0.0
 10
487.4084627006947
 20
625.0476151178137
 30
0.0
 10
486.897455533654
 20
624.9787397956131
 30
0.0
  0
LINE
  5
193
330
1F
100
AcDbEntity
  8
0
  6
Continuous
 62
     7
370
    25
100
AcDbLine
 10
489.7173539625
 20
626.0448537817
 30
0.0
 11
489.7505728285
 21
625.9791623347
 31
0.0
  0
SPLINE
  5
194
330
1F
100
AcDbEntity
  8
0
  6
Continuous
 62
     7
370
    25
100
AcDbSpline
210
0.0
220
0.0
230
1.0
 70
     8
 71
     3
 72
     9
 73
     5
 74
     0
 42
0.00000001
 43
0.00000001
 40
0.0
 40
0.0
 40
0.0
 40
0.0
 40
0.400722737156528
 40
1.0
 40
1.0
 40
1.0
 40
1.0
 10
486.8914141486023
 20
612.9991985380698
 30
0.0
 10
487.3001002720115
 20
612.9507912760041
 30
0.0
 10
488.3199728310513
 20
612.8299913872604
 30
0.0
 10
489.1890488748772
 20
612.2698841139068
 30
0.0
 10
489.7098663876241
 20
611.9342245602326
 30
0.0
  0
LINE
  5
195
330
1F
100
AcDbEntity
  8
0
  6
Continuous
 62
     7
370
    25
100
AcDbLine
 10
489.7505728285
 20
612.0147600661
 30
0.0
 11
489.7098663876
 21
611.9342245602
 31
0.0
  0
ARC
  5
196
330
1F
100
AcDbEntity
  8
0
  6
Continuous
 62
     7
370
    25
100
AcDbCircle
 10
495.2751995423
 20
618.9969612004
 30
0.0
 40
8.975658044222053
100
AcDbArc
 50
65.1648853947
 51
128.2586979829
  0
LWPOLYLINE
  5
197
330
1F
100
AcDbEntity
  8
0
  6
Continuous
 62
     7
370
    25
100
AcDbPolyline
 90
        3
 70
   128
 43
0.0
 10
499.2105129666
 20
627.2476209237
 10
499.1059314024
 20
627.1813685124
 10
499.0450508597
 20
627.1425525461
  0
ARC
  5
198
330
1F
100
AcDbEntity
  8
0
  6
Continuous
 62
     7
370
    25
100
AcDbCircle
 10
495.2751995423
 20
618.9969612004
 30
0.0
 40
9.141120151092183
100
AcDbArc
 50
295.4997164176
 51
64.5002794289
  0
LWPOLYLINE
  5
199
330
1F
100
AcDbEntity
  8
0
  6
Continuous
 62
     7
370
    25
100
AcDbPolyline
 90
        3
 70
   128
 43
0.0
 10
499.0613437702
 20
610.8409637839
 10
499.1059314024
 20
610.8125538883
 10
499.2105129669
 20
610.7463014769
  0
ARC
  5
19A
330
1F
100
AcDbEntity
  8
0
  6
Continuous
 62
     7
370
    25
100
AcDbCircle
 10
495.2751995423
 20
618.9969612004
 30
0.0
 40
8.991950954660766
100
AcDbArc
 50
231.762407147
 51
294.9014811666
  0
LINE
  5
19B
330
1F
100
AcDbEntity
  8
0
  6
Continuous
 62
     7
370
    25
100
AcDbLine
 10
437.841988287
 20
616.2401809435
 30
0.0
 11
437.8466786477
 21
616.2446193965
 31
0.0
  0
LINE
  5
19C
330
1F
100
AcDbEntity
  8
0
  6
Continuous
 62
     7
370
    25
100
AcDbLine
 10
437.841988287
 20
621.7537414573
 30
0.0
 11
437.841988287
 21
616.2401809435
 31
0.0
  0
LINE
  5
19D
330
1F
100
AcDbEntity
  8
0
  6
Continuous
 62
     7
370
    25
100
AcDbLine
 10
437.8466786477
 20
621.7493030042
 30
0.0
 11
437.841988287
 21
621.7537414573
 31
0.0
  0
ARC
  5
19E
330
1F
100
AcDbEntity
  8
0
  6
Continuous
 62
     7
370
    25
100
AcDbCircle
 10
438.3420881746
 20
616.2403475288
 30
0.0
 40
0.500099915346948
100
AcDbArc
 50
180.0190854617
 51
266.8195880753
  0
ARC
  5
19F
330
1F
100
AcDbEntity
  8
0
  6
Continuous
 62
     7
370
    25
100
AcDbCircle
 10
438.3420881746
 20
621.7535748719
 30
0.0
 40
0.5000999153467998
100
AcDbArc
 50
93.1804119247
 51
179.9809145383
  0
LINE
  5
1A0
330
1F
100
AcDbEntity
  8
0
  6
Continuous
 62
     7
370
    25
100
AcDbLine
 10
438.8647655544
 20
622.3040652874
 30
0.0
 11
438.8576578237
 21
622.3036982507
 31
0.0
  0
LINE
  5
1A1
330
1F
100
AcDbEntity
  8
0
  6
Continuous
 62
     7
370
    25
100
AcDbLine
 10
438.8647655544
 20
615.6898571134
 30
0.0
 11
438.8576578237
 21
615.69022415
 31
0.0
  0
SPLINE
  5
1A2
330
1F
100
AcDbEntity
  8
0
  6
Continuous
 62
     7
370
    25
100
AcDbSpline
210
0.0
220
0.0
230
1.0
 70
     8
 71
     3
 72
    11
 73
     7
 74
     0
 42
0.00000001
 43
0.00000001
 40
0.0
 40
0.0
 40
0.0
 40
0.0
 40
0.1345990676765959
 40
0.4126978815969493
 40
0.6969472592954598
 40
1.0
 40
1.0
 40
1.0
 40
1.0
 10
499.0458294661585
 20
627.1433591632015
 30
0.0
 10
498.61652344591
 20
627.3342430483626
 30
0.0
 10
497.3002165191859
 20
627.9195173477825
 30
0.0
 10
494.9244064683026
 20
628.541985231806
 30
0.0
 10
491.8707170834215
 20
628.9184879143064
 30
0.0
 10
489.6796871750608
 20
628.9456292426391
 30
0.0
 10
488.5490976575229
 20
628.9596343920842
 30
0.0
  0
ARC
  5
1A3
330
1F
100
AcDbEntity
  8
0
  6
Continuous
 62
     7
370
    25
100
AcDbCircle
 10
493.0416286505
 20
628.3398103475
 30
0.0
 40
4.535087272518648
100
AcDbArc
 50
149.0284626407
 51
172.1446266983
  0
SPLINE
  5
1A4
330
1F
100
AcDbEntity
  8
0
  6
Continuous
 62
     7
370
    25
100
AcDbSpline
210
0.0
220
0.0
230
1.0
 70
     8
 71
     3
 72
    12
 73
     8
 74
     0
 42
0.00000001
 43
0.00000001
 40
0.0
 40
0.0
 40
0.0
 40
0.0
 40
0.1662426524176545
 40
0.3368059756191297
 40
0.6054181071254586
 40
0.8801435087136193
 40
1.0
 40
1.0
 40
1.0
 40
1.0
 10
489.1531402950239
 20
630.6736215820521
 30
0.0
 10
489.79082181556
 20
630.518136406569
 30
0.0
 10
491.0827582923606
 20
630.2031249732138
 30
0.0
 10
493.26694467471
 20
629.5401598682154
 30
0.0
 10
495.6289190182698
 20
628.68796495141
 30
0.0
 10
497.5944565801623
 20
627.8453362727978
 30
0.0
 10
498.708231564958
 20
627.3074781801026
 30
0.0
 10
499.0465470431155
 20
627.1441007292754
 30
0.0
  0
LINE
  5
1A5
330
1F
100
AcDbEntity
  8
0
  6
Continuous
 62
     7
370
    25
100
AcDbLine
 10
499.0465470431
 20
627.1441007293
 30
0.0
 11
499.0458294662
 21
627.1433591632
 31
0.0
  0
LINE
  5
1A6
330
1F
100
AcDbEntity
  8
0
  6
Continuous
 62
     7
370
    25
100
AcDbLine
 10
489.153140295
 20
630.6736215821
 30
0.0
 11
489.168998372
 21
630.7430951136
 31
0.0
  0
ARC
  5
1A7
330
1F
100
AcDbEntity
  8
0
  6
Continuous
 62
     7
370
    25
100
AcDbCircle
 10
478.4472201355
 20
583.7714603014
 30
0.0
 40
48.17977797259051
100
AcDbArc
 50
64.4718479123
 51
77.1419190681
  0
LWPOLYLINE
  5
1A8
330
1F
100
AcDbEntity
  8
0
  6
Continuous
 62
     7
370
    25
100
AcDbPolyline
 90
        3
 70
   128
 43
0.0
 10
499.0465470431
 20
627.1441007293
 10
499.1059348935
 20
627.1816244328
 10
499.2105129663
 20
627.2476224627
  0
LINE
  5
1A9
330
1F
100
AcDbEntity
  8
0
  6
Continuous
 62
     7
370
    25
100
AcDbLine
 10
489.7173539625
 20
626.0448537817
 30
0.0
 11
487.5194820423
 21
628.831970656
 31
0.0
  0
ARC
  5
1AA
330
1F
100
AcDbEntity
  8
0
  6
Continuous
 62
     7
370
    25
100
AcDbCircle
 10
495.2751995423
 20
618.9969612004
 30
0.0
 40
12.52511736202725
100
AcDbArc
 50
127.8583068702
 51
128.2586979829
  0
LINE
  5
1AB
330
1F
100
AcDbEntity
  8
0
  6
Continuous
 62
     7
370
    25
100
AcDbLine
 10
488.5490976575
 20
628.9596343921
 30
0.0
 11
487.5883993086
 21
628.8859281383
 31
0.0
  0
LINE
  5
1AC
330
1F
100
AcDbEntity
  8
0
  6
Continuous
 62
     7
370
    25
100
AcDbLine
 10
499.0450508597
 20
627.1425525461
 30
0.0
 11
499.0458294662
 21
627.1433591632
 31
0.0
  0
ARC
  5
1AD
330
1F
100
AcDbEntity
  8
0
  6
Continuous
 62
     7
370
    25
100
AcDbCircle
 10
477.3575278286
 20
624.2735605885
 30
0.0
 40
6.834138728217
100
AcDbArc
 50
31.8771071303
 51
46.9488007428
  0
SPLINE
  5
1AE
330
1F
100
AcDbEntity
  8
0
  6
Continuous
 62
     7
370
    25
100
AcDbSpline
210
0.0
220
0.0
230
1.0
 70
     8
 71
     3
 72
    16
 73
    12
 74
     0
 42
0.00000001
 43
0.00000001
 40
0.0
 40
0.0
 40
0.0
 40
0.0
 40
0.2861254310575669
 40
0.7591203623085425
 40
0.8520758313858449
 40
0.9266344548631255
 40
0.9604862301433736
 40
0.9835335436569232
 40
0.9930756629548352
 40
0.9972242292023619
 40
1.0
 40
1.0
 40
1.0
 40
1.0
 10
483.1609606197749
 20
627.8826629693664
 30
0.0
 10
481.9328137826512
 20
627.3525956600143
 30
0.0
 10
478.674413197567
 20
625.9462722638871
 30
0.0
 10
474.8768317429596
 20
624.9284602610027
 30
0.0
 10
472.0791700930551
 20
624.3665400432311
 30
0.0
 10
471.2140371541607
 20
624.2120375273382
 30
0.0
 10
470.6884509854265
 20
624.1235168615078
 30
0.0
 10
470.4547887267126
 20
624.0844074778591
 30
0.0
 10
470.3771385795517
 20
624.0700875088896
 30
0.0
 10
470.3610569245166
 20
624.0663537702667
 30
0.0
 10
470.3599965365949
 20
624.0656199281834
 30
0.0
 10
470.3595714570807
 20
624.0653257516562
 30
0.0
  0
SPLINE
  5
1AF
330
1F
100
AcDbEntity
  8
0
  6
Continuous
 62
     7
370
    25
100
AcDbSpline
210
0.0
220
0.0
230
1.0
 70
     8
 71
     3
 72
    10
 73
     6
 74
     0
 42
0.00000001
 43
0.00000001
 40
0.0
 40
0.0
 40
0.0
 40
0.0
 40
0.5975855365574454
 40
0.9790563563181981
 40
1.0
 40
1.0
 40
1.0
 40
1.0
 10
470.249546137393
 20
624.0744526489956
 30
0.0
 10
470.2470269980396
 20
624.0707133512693
 30
0.0
 10
470.242899757259
 20
624.0645870597458
 30
0.0
 10
470.3172708838146
 20
624.0642105008892
 30
0.0
 10
470.3574788359188
 20
624.0652705798897
 30
0.0
 10
470.3595714570807
 20
624.0653257516562
 30
0.0
  0
SPLINE
  5
1B0
330
1F
100
AcDbEntity
  8
0
  6
Continuous
 62
     7
370
    25
100
AcDbSpline
210
0.0
220
0.0
230
1.0
 70
     8
 71
     3
 72
    14
 73
    10
 74
     0
 42
0.00000001
 43
0.00000001
 40
0.0
 40
0.0
 40
0.0
 40
0.0
 40
0.0129036569231464
 40
0.0519665716781148
 40
0.131889182426121
 40
0.2280032005552168
 40
0.4679440229400842
 40
0.7079115564493631
 40
0.9999999999999999
 40
0.9999999999999999
 40
0.9999999999999999
 40
0.9999999999999999
 10
470.249546137393
 20
624.0744526489956
 30
0.0
 10
470.2830147138574
 20
624.082297623057
 30
0.0
 10
470.41780186669
 20
624.1138914889895
 30
0.0
 10
470.8570753116826
 20
624.2162735362833
 30
0.0
 10
471.6685027299085
 20
624.4186750451004
 30
0.0
 10
473.321979911729
 20
624.8857257258665
 30
0.0
 10
475.6662699839728
 20
625.7231827852569
 30
0.0
 10
478.8113641604699
 20
627.1681230256072
 30
0.0
 10
480.8846628346625
 20
628.5234939084019
 30
0.0
 10
482.0228637174096
 20
629.2675663155516
 30
0.0
  0
LINE
  5
1B1
330
1F
100
AcDbEntity
  8
0
  6
Continuous
 62
     7
370
    25
100
AcDbLine
 10
484.6016289819
 20
628.4068066513
 30
0.0
 11
486.7017114979
 21
628.5227976001
 31
0.0
  0
LINE
  5
1B2
330
1F
100
AcDbEntity
  8
0
  6
Continuous
 62
     7
370
    25
100
AcDbLine
 10
486.8974555337
 20
624.9787397956
 30
0.0
 11
486.7017114979
 21
628.5227976001
 31
0.0
  0
LINE
  5
1B3
330
1F
100
AcDbEntity
  8
0
  6
Continuous
 62
     7
370
    25
100
AcDbLine
 10
484.6016289819
 20
628.4068066513
 30
0.0
 11
483.1609606198
 21
627.8826629694
 31
0.0
  0
LWPOLYLINE
  5
1B4
330
1F
100
AcDbEntity
  8
0
  6
Continuous
 62
     7
370
    25
100
AcDbPolyline
 90
        4
 70
   128
 43
0.0
 10
470.2300193233
 20
624.2255482253
 10
470.232263959
 20
624.2081900784
 10
470.2412389929
 20
624.1387573322
 10
470.2495461374
 20
624.074452649
  0
LINE
  5
1B5
330
1F
100
AcDbEntity
  8
0
  6
Continuous
 62
     7
370
    25
100
AcDbLine
 10
472.0181436071
 20
624.6550757286
 30
0.0
 11
470.2300193233
 21
624.2255482253
 31
0.0
  0
ARC
  5
1B6
330
1F
100
AcDbEntity
  8
0
  6
Continuous
 62
     7
370
    25
100
AcDbCircle
 10
463.8325852085
 20
655.0807693224
 30
0.0
 40
31.50755777528337
100
AcDbArc
 50
285.0579972479
 51
305.1719294169
  0
LINE
  5
1B7
330
1F
100
AcDbEntity
  8
0
  6
Continuous
 62
     7
370
    25
100
AcDbLine
 10
482.0228637174
 20
629.2675663156
 30
0.0
 11
481.9819438312
 21
629.3256343286
 31
0.0
  0
SPLINE
  5
1B8
330
1F
100
AcDbEntity
  8
0
  6
Continuous
 62
     7
370
    25
100
AcDbSpline
210
0.0
220
0.0
230
1.0
 70
     8
 71
     3
 72
     9
 73
     5
 74
     0
 42
0.00000001
 43
0.00000001
 40
0.0
 40
0.0
 40
0.0
 40
0.0
 40
0.4998978730609624
 40
1.0
 40
1.0
 40
1.0
 40
1.0
 10
486.7017114979487
 20
628.5227976000572
 30
0.0
 10
486.8499064138445
 20
628.5427639380594
 30
0.0
 10
487.1463567967764
 20
628.582704772134
 30
0.0
 10
487.395090025553
 20
628.7488707147046
 30
0.0
 10
487.5194820423047
 20
628.8319706560089
 30
0.0
  0
ARC
  5
1B9
330
1F
100
AcDbEntity
  8
0
  6
Continuous
 62
     7
370
    25
100
AcDbCircle
 10
470.1482108225
 20
624.5641540889
 30
0.0
 40
0.5000763404156842
100
AcDbArc
 50
273.1626296402
 51
281.6913635614
  0
ARC
  5
1BA
330
1F
100
AcDbEntity
  8
0
  6
Continuous
 62
     7
370
    25
100
AcDbCircle
 10
478.4472201355
 20
654.2224620994
 30
0.0
 40
48.10950076354644
100
AcDbArc
 50
282.8580809319
 51
283.1066633214
  0
SPLINE
  5
1BB
330
1F
100
AcDbEntity
  8
0
  6
Continuous
 62
     7
370
    25
100
AcDbSpline
210
0.0
220
0.0
230
1.0
 70
     8
 71
     3
 72
    12
 73
     8
 74
     0
 42
0.00000001
 43
0.00000001
 40
0.0
 40
0.0
 40
0.0
 40
0.0
 40
0.0460732444350178
 40
0.2494607408078301
 40
0.4779405209378883
 40
0.7057893369168747
 40
1.0
 40
1.0
 40
1.0
 40
1.0
 10
499.0625780168057
 20
610.8396894402787
 30
0.0
 10
498.934240789084
 20
610.7771840428628
 30
0.0
 10
498.23936678372
 20
610.4387524230576
 30
0.0
 10
496.8801108327652
 20
609.8202103262325
 30
0.0
 10
494.870156318075
 20
609.0124857746639
 30
0.0
 10
492.3749539089612
 20
608.1404078611243
 30
0.0
 10
490.4446106095306
 20
607.6452711271501
 30
0.0
 10
489.3567506914926
 20
607.3662329855936
 30
0.0
  0
LWPOLYLINE
  5
1BC
330
1F
100
AcDbEntity
  8
0
  6
Continuous
 62
     7
370
    25
100
AcDbPolyline
 90
        3
 70
   128
 43
0.0
 10
499.0625780168
 20
610.8396894403
 10
499.1059348935
 20
610.8122979679
 10
499.2105129666
 20
610.7462999378
  0
ARC
  5
1BD
330
1F
100
AcDbEntity
  8
0
  6
Continuous
 62
     7
370
    25
100
AcDbCircle
 10
478.4472201355
 20
654.2224620994
 30
0.0
 40
48.17977797259062
100
AcDbArc
 50
282.8580809319
 51
295.5281512988
  0
LINE
  5
1BE
330
1F
100
AcDbEntity
  8
0
  6
Continuous
 62
     7
370
    25
100
AcDbLine
 10
489.1533591
 20
607.3193422438
 30
0.0
 11
489.168998372
 21
607.2508272871
 31
0.0
  0
LINE
  5
1BF
330
1F
100
AcDbEntity
  8
0
  6
Continuous
 62
     7
370
    25
100
AcDbLine
 10
488.9032906136
 20
609.3138355148
 30
0.0
 11
489.3567506915
 21
607.3662329856
 31
0.0
  0
SPLINE
  5
1C0
330
1F
100
AcDbEntity
  8
0
  6
Continuous
 62
     7
370
    25
100
AcDbSpline
210
0.0
220
0.0
230
1.0
 70
     8
 71
     3
 72
    13
 73
     9
 74
     0
 42
0.00000001
 43
0.00000001
 40
0.0
 40
0.0
 40
0.0
 40
0.0
 40
0.2574896950994368
 40
0.4890886589321025
 40
0.7206004760683485
 40
0.9447506334961274
 40
0.9460032291293288
 40
1.0
 40
1.0
 40
1.0
 40
1.0
 10
488.9032906136055
 20
609.3138355148076
 30
0.0
 10
489.8220161895934
 20
609.2857725506929
 30
0.0
 10
491.5670889767315
 20
609.2324683690274
 30
0.0
 10
494.061654222645
 20
609.3970324878654
 30
0.0
 10
496.3773040286458
 20
609.8104064828757
 30
0.0
 10
497.8544126302499
 20
610.309963669439
 30
0.0
 10
498.7256740747905
 20
610.684206524369
 30
0.0
 10
498.8957204836134
 20
610.7631869428541
 30
0.0
 10
499.0619116556687
 20
610.8403767430287
 30
0.0
  0
LINE
  5
1C1
330
1F
100
AcDbEntity
  8
0
  6
Continuous
 62
     7
370
    25
100
AcDbLine
 10
499.0619116557
 20
610.840376743
 30
0.0
 11
499.0625780168
 21
610.8396894403
 31
0.0
  0
LINE
  5
1C2
330
1F
100
AcDbEntity
  8
0
  6
Continuous
 62
     7
370
    25
100
AcDbLine
 10
482.7979712978
 20
610.6217199223
 30
0.0
 11
481.6684958803
 21
608.9715481327
 31
0.0
  0
SPLINE
  5
1C3
330
1F
100
AcDbEntity
  8
0
  6
Continuous
 62
     7
370
    25
100
AcDbSpline
210
0.0
220
0.0
230
1.0
 70
     8
 71
     3
 72
    14
 73
    10
 74
     0
 42
0.00000001
 43
0.00000001
 40
0.0
 40
0.0
 40
0.0
 40
0.0
 40
0.2256458607195977
 40
0.4518169308148961
 40
0.8157761447763431
 40
0.8946140573305374
 40
0.9637846180221655
 40
0.994079914312567
 40
1.0
 40
1.0
 40
1.0
 40
1.0
 10
481.6684958803368
 20
608.9715481326509
 30
0.0
 10
480.8227483332657
 20
609.516571855152
 30
0.0
 10
479.1292846918618
 20
610.6078878878792
 30
0.0
 10
475.9490625918095
 20
612.1733289726814
 30
0.0
 10
473.277784528643
 20
613.1267078069174
 30
0.0
 10
471.3272560413919
 20
613.6481559530464
 30
0.0
 10
470.68317953095
 20
613.8035366276885
 30
0.0
 10
470.3552286347233
 20
613.879086688533
 30
0.0
 10
470.2626913021246
 20
613.9006074626781
 30
0.0
 10
470.2475643337384
 20
613.9041254381913
 30
0.0
  0
SPLINE
  5
1C4
330
1F
100
AcDbEntity
  8
0
  6
Continuous
 62
     7
370
    25
100
AcDbSpline
210
0.0
220
0.0
230
1.0
 70
     8
 71
     3
 72
    11
 73
     7
 74
     0
 42
0.00000001
 43
0.00000001
 40
0.0
 40
0.0
 40
0.0
 40
0.0
 40
0.0195561212295927
 40
0.1681891996744411
 40
0.5898876540792777
 40
1.0
 40
1.0
 40
1.0
 40
1.0
 10
470.3575057251554
 20
613.9123930002843
 30
0.0
 10
470.3555470120074
 20
613.9124511140001
 30
0.0
 10
470.3387014221847
 20
613.9129509114407
 30
0.0
 10
470.2868008584256
 20
613.9137973288543
 30
0.0
 10
470.2375162263599
 20
613.9117080303322
 30
0.0
 10
470.2442462114363
 20
613.9066293891487
 30
0.0
 10
470.2475643337384
 20
613.9041254381913
 30
0.0
  0
SPLINE
  5
1C5
330
1F
100
AcDbEntity
  8
0
  6
Continuous
 62
     7
370
    25
100
AcDbSpline
210
0.0
220
0.0
230
1.0
 70
     8
 71
     3
 72
    17
 73
    13
 74
     0
 42
0.00000001
 43
0.00000001
 40
0.0
 40
0.0
 40
0.0
 40
0.0
 40
0.0068263121770685
 40
0.0088448507297254
 40
0.0223990310416126
 40
0.0309593028397538
 40
0.0563218912149143
 40
0.1198824177066684
 40
0.1957460556357056
 40
0.5558621944880031
 40
0.77803360979772
 40
1.0
 40
1.0
 40
1.0
 40
1.0
 10
470.3575057251554
 20
613.9123930002843
 30
0.0
 10
470.3611258703171
 20
613.9113548172393
 30
0.0
 10
470.3658164913646
 20
613.9100096437655
 30
0.0
 10
470.4093492040678
 20
613.9024196556906
 30
0.0
 10
470.4838811265003
 20
613.8906681488841
 30
0.0
 10
470.6507133720023
 20
613.8649492536607
 30
0.0
 10
471.0322894890696
 20
613.8064346746386
 30
0.0
 10
471.7151904558039
 20
613.6972376900513
 30
0.0
 10
473.8201897727217
 20
613.3300654576273
 30
0.0
 10
476.6331243545078
 20
612.695887773662
 30
0.0
 10
480.0319085690744
 20
611.6829474818035
 30
0.0
 10
481.8762341838382
 20
610.9753535611169
 30
0.0
 10
482.7979712978288
 20
610.6217199222897
 30
0.0
  0
LINE
  5
1C6
330
1F
100
AcDbEntity
  8
0
  6
Continuous
 62
     7
370
    25
100
AcDbLine
 10
486.8914141486
 20
612.9991985381
 30
0.0
 11
486.7480523196
 21
610.4035505686
 31
0.0
  0
LINE
  5
1C7
330
1F
100
AcDbEntity
  8
0
  6
Continuous
 62
     7
370
    25
100
AcDbLine
 10
486.7480523196
 20
610.4035505686
 30
0.0
 11
482.7979712978
 21
610.6217199223
 31
0.0
  0
LINE
  5
1C8
330
1F
100
AcDbEntity
  8
0
  6
Continuous
 62
     7
370
    25
100
AcDbLine
 10
489.7098663876
 20
611.9342245602
 30
0.0
 11
488.1009093944
 21
609.8923630593
 31
0.0
  0
LINE
  5
1C9
330
1F
100
AcDbEntity
  8
0
  6
Continuous
 62
     7
370
    25
100
AcDbLine
 10
499.0619116557
 20
610.840376743
 30
0.0
 11
499.0613437702
 21
610.8409637839
 31
0.0
  0
ARC
  5
1CA
330
1F
100
AcDbEntity
  8
0
  6
Continuous
 62
     7
370
    25
100
AcDbCircle
 10
495.2751995423
 20
618.9969612004
 30
0.0
 40
11.59155496206746
100
AcDbArc
 50
231.762407147
 51
236.6533814372
  0
LWPOLYLINE
  5
1CB
330
1F
100
AcDbEntity
  8
0
  6
Continuous
 62
     7
370
    25
100
AcDbPolyline
 90
        4
 70
   128
 43
0.0
 10
470.2475643337
 20
613.9041254382
 10
470.2453220874
 20
613.8867671832
 10
470.2363496046
 20
613.8173343216
 10
470.2300193233
 20
613.7683741755
  0
ARC
  5
1CC
330
1F
100
AcDbEntity
  8
0
  6
Continuous
 62
     7
370
    25
100
AcDbCircle
 10
463.8325852085
 20
582.9131530784
 30
0.0
 40
31.57783498432749
100
AcDbArc
 50
54.8280705831
 51
55.6099480104
  0
LINE
  5
1CD
330
1F
100
AcDbEntity
  8
0
  6
Continuous
 62
     7
370
    25
100
AcDbLine
 10
482.022425746
 20
608.725734575
 30
0.0
 11
481.9819438312
 21
608.6682880722
 31
0.0
  0
ARC
  5
1CE
330
1F
100
AcDbEntity
  8
0
  6
Continuous
 62
     7
370
    25
100
AcDbCircle
 10
463.8325852085
 20
582.9131530784
 30
0.0
 40
31.50755777528335
100
AcDbArc
 50
54.8280705831
 51
74.9420027521
  0
LINE
  5
1CF
330
1F
100
AcDbEntity
  8
0
  6
Continuous
 62
     7
370
    25
100
AcDbLine
 10
470.2300193233
 20
613.7683741755
 30
0.0
 11
472.0181436071
 21
613.3388466722
 31
0.0
  0
LINE
  5
1D0
330
1F
100
AcDbEntity
  8
0
  6
Continuous
 62
     7
370
    25
100
AcDbLine
 10
470.156181914
 20
624.215229929
 30
0.0
 11
470.2300193233
 21
624.2255482253
 31
0.0
  0
SPLINE
  5
1D1
330
1F
100
AcDbEntity
  8
0
  6
Continuous
 62
     7
370
    25
100
AcDbSpline
210
0.0
220
0.0
230
1.0
 70
     8
 71
     3
 72
    10
 73
     6
 74
     0
 42
0.00000001
 43
0.00000001
 40
0.0
 40
0.0
 40
0.0
 40
0.0
 40
0.0490769085761659
 40
0.599580584366531
 40
1.0
 40
1.0
 40
1.0
 40
1.0
 10
488.1009093943656
 20
609.8923630592564
 30
0.0
 10
488.0819618559965
 20
609.9069857948576
 30
0.0
 10
487.85047669409
 20
610.0856341370468
 30
0.0
 10
487.4046029192727
 20
610.3196861304681
 30
0.0
 10
486.9425963423882
 20
610.3787005034857
 30
0.0
 10
486.7480523196347
 20
610.4035505686178
 30
0.0
  0
ARC
  5
1D2
330
1F
100
AcDbEntity
  8
0
  6
Continuous
 62
     7
370
    25
100
AcDbCircle
 10
470.1462109328
 20
613.4144277412
 30
0.0
 40
0.5000763404918199
100
AcDbArc
 50
78.3065203377
 51
86.8373700347
  0
SPLINE
  5
1D3
330
1F
100
AcDbEntity
  8
0
  6
Continuous
 62
     7
370
    25
100
AcDbSpline
210
0.0
220
0.0
230
1.0
 70
     8
 71
     3
 72
     9
 73
     5
 74
     0
 42
0.00000001
 43
0.00000001
 40
0.0
 40
0.0
 40
0.0
 40
0.0
 40
0.8458911907785839
 40
1.0
 40
1.0
 40
1.0
 40
1.0
 10
470.2300193233278
 20
613.7683741755051
 30
0.0
 10
470.2091787272169
 20
613.7721889824974
 30
0.0
 10
470.184541284082
 20
613.7766987906547
 30
0.0
 10
470.1599687569057
 20
613.7784262544058
 30
0.0
 10
470.156181914003
 20
613.7786924717874
 30
0.0
  0
LINE
  5
1D4
330
1F
100
AcDbEntity
  8
0
  6
Continuous
 62
     7
370
    25
100
AcDbLine
 10
452.1607617164
 20
614.8449483251
 30
0.0
 11
452.1612197362
 21
614.8449232386
 31
0.0
  0
LINE
  5
1D5
330
1F
100
AcDbEntity
  8
0
  6
Continuous
 62
     7
370
    25
100
AcDbLine
 10
482.0228637174
 20
629.2675663156
 30
0.0
 11
483.8616045667
 21
630.2645325512
 31
0.0
  0
LINE
  5
1D6
330
1F
100
AcDbEntity
  8
0
  6
Continuous
 62
     7
370
    25
100
AcDbLine
 10
484.6016289819
 20
628.4068066513
 30
0.0
 11
483.8616045667
 21
630.2645325512
 31
0.0
  0
LINE
  5
1D7
330
1F
100
AcDbEntity
  8
0
  6
Continuous
 62
     7
370
    25
100
AcDbLine
 10
487.5883993086
 20
628.8859281383
 30
0.0
 11
487.7102330553
 21
630.8819086473
 31
0.0
  0
LINE
  5
1D8
330
1F
100
AcDbEntity
  8
0
  6
Continuous
 62
     7
370
    25
100
AcDbLine
 10
487.7102330553
 20
630.8819086473
 30
0.0
 11
489.153140295
 21
630.6736215821
 31
0.0
  0
ARC
  5
1D9
330
1F
100
AcDbEntity
  8
0
  6
Continuous
 62
     7
370
    25
100
AcDbCircle
 10
487.1661843371
 20
616.0250667246
 30
0.0
 40
6.929946387144266
100
AcDbArc
 50
234.8280705831
 51
282.8580809319
  0
LINE
  5
1DA
330
1F
100
AcDbEntity
  8
0
  6
Continuous
 62
     7
370
    25
100
AcDbLine
 10
488.708353095
 20
609.2688938101
 30
0.0
 11
489.1533591
 21
607.3193422438
 31
0.0
  0
ARC
  5
1DB
330
1F
100
AcDbEntity
  8
0
  6
Continuous
 62
     7
370
    25
100
AcDbCircle
 10
487.1661843371
 20
616.0250667246
 30
0.0
 40
8.929641777457046
100
AcDbArc
 50
234.8280705831
 51
282.8580809319
  0
LINE
  5
1DC
330
1F
100
AcDbEntity
  8
0
  6
Continuous
 62
     7
370
    25
100
AcDbLine
 10
483.1743140972
 20
610.3603399954
 30
0.0
 11
482.022425746
 21
608.725734575
 31
0.0
  0
ARC
  5
1DD
330
1F
100
AcDbEntity
  8
0
  6
Continuous
 62
     7
370
    25
100
AcDbCircle
 10
463.8325852085
 20
582.9131530784
 30
0.0
 40
33.57753037464025
100
AcDbArc
 50
54.8280705831
 51
55.6099480104
  0
ARC
  5
1DE
330
1F
100
AcDbEntity
  8
0
  6
Continuous
 62
     7
370
    25
100
AcDbCircle
 10
487.1661843371
 20
621.9688556762
 30
0.0
 40
6.929946387144301
100
AcDbArc
 50
86.5070253286
 51
111.7198462835
  0
ARC
  5
1DF
330
1F
100
AcDbEntity
  8
0
  6
Continuous
 62
     7
370
    25
100
AcDbCircle
 10
487.1661843371
 20
621.9688556762
 30
0.0
 40
8.929641777457185
100
AcDbArc
 50
86.5070253286
 51
111.7198462835
  0
ARC
  5
1E0
330
1F
100
AcDbEntity
  8
0
  6
Continuous
 62
     7
370
    25
100
AcDbCircle
 10
478.4472201355
 20
654.2224620994
 30
0.0
 40
46.10980537323367
100
AcDbArc
 50
282.8580809319
 51
283.1066633214
  0
ARC
  5
1E1
330
1F
100
AcDbEntity
  8
0
  6
Continuous
 62
     7
370
    25
100
AcDbCircle
 10
487.1661843371
 20
621.9688556762
 30
0.0
 40
8.999918986501271
100
AcDbArc
 50
77.1419190681
 51
125.1719294169
  0
ARC
  5
1E2
330
1F
100
AcDbEntity
  8
0
  6
Continuous
 62
     7
370
    25
100
AcDbCircle
 10
487.1661843371
 20
616.0250667246
 30
0.0
 40
8.999918986501244
100
AcDbArc
 50
234.8280705831
 51
282.8580809319
  0
SPLINE
  5
1E3
330
1F
100
AcDbEntity
  8
0
  6
Continuous
 62
     7
370
    25
100
AcDbSpline
210
0.0
220
0.0
230
1.0
 70
     8
 71
     3
 72
    11
 73
     7
 74
     0
 42
0.00000001
 43
0.00000001
 40
0.0
 40
0.0
 40
0.0
 40
0.0
 40
0.2200386424382255
 40
0.6637869905998169
 40
0.8890365590789576
 40
1.0
 40
1.0
 40
1.0
 40
1.0
 10
705.1527896869264
 20
625.0172795073321
 30
0.0
 10
705.3570111499279
 20
624.7522608960734
 30
0.0
 10
705.9730827128114
 20
623.9527835657685
 30
0.0
 10
706.4966320638287
 20
622.6896142952407
 30
0.0
 10
706.7482612635898
 20
621.5230444819166
 30
0.0
 10
706.7275540688674
 20
621.0117646832573
 30
0.0
 10
706.7207198848414
 20
620.8430223557849
 30
0.0
  0
SPLINE
  5
1E4
330
1F
100
AcDbEntity
  8
0
  6
Continuous
 62
     7
370
    25
100
AcDbSpline
210
0.0
220
0.0
230
1.0
 70
     8
 71
     3
 72
     9
 73
     5
 74
     0
 42
0.00000001
 43
0.00000001
 40
0.0
 40
0.0
 40
0.0
 40
0.0
 40
0.9209630919903056
 40
1.0
 40
1.0
 40
1.0
 40
1.0
 10
706.7928320501737
 20
624.6969562316987
 30
0.0
 10
706.2784105123009
 20
624.7537832906171
 30
0.0
 10
705.7198413987861
 20
624.8154872388131
 30
0.0
 10
705.1943248871167
 20
625.0024986997012
 30
0.0
 10
705.1527896869264
 20
625.0172795073321
 30
0.0
  0
SPLINE
  5
1E5
330
1F
100
AcDbEntity
  8
0
  6
Continuous
 62
     7
370
    25
100
AcDbSpline
210
0.0
220
0.0
230
1.0
 70
     8
 71
     3
 72
    10
 73
     6
 74
     0
 42
0.00000001
 43
0.00000001
 40
0.0
 40
0.0
 40
0.0
 40
0.0
 40
0.2596150688488836
 40
0.629760644481066
 40
0.9999999999999999
 40
0.9999999999999999
 40
0.9999999999999999
 40
0.9999999999999999
 10
753.967993004111
 20
622.1053986627095
 30
0.0
 10
749.8901727853879
 20
622.4051527998079
 30
0.0
 10
739.9984099520226
 20
623.1322806949721
 30
0.0
 10
724.2688372693494
 20
623.9581275648623
 30
0.0
 10
712.6186590080847
 20
624.4506592141279
 30
0.0
 10
706.7928320501737
 20
624.6969562316987
 30
0.0
  0
SPLINE
  5
1E6
330
1F
100
AcDbEntity
  8
0
  6
Continuous
 62
     7
370
    25
100
AcDbSpline
210
0.0
220
0.0
230
1.0
 70
     8
 71
     3
 72
    11
 73
     7
 74
     0
 42
0.00000001
 43
0.00000001
 40
0.0
 40
0.0
 40
0.0
 40
0.0
 40
0.061464119541392
 40
0.4999988937835377
 40
0.9375097801832794
 40
1.0
 40
1.0
 40
1.0
 40
1.0
 10
753.9679930041108
 20
616.3793663157076
 30
0.0
 10
753.9796622003131
 20
616.4958232881596
 30
0.0
 10
754.0745888865825
 20
617.4431785554909
 30
0.0
 10
754.1582917138488
 20
619.2404227539391
 30
0.0
 10
754.0747217903285
 20
621.0396207781799
 30
0.0
 10
753.9798500852833
 20
621.9869956026131
 30
0.0
 10
753.967993004111
 20
622.1053986627095
 30
0.0
  0
SPLINE
  5
1E7
330
1F
100
AcDbEntity
  8
0
  6
Continuous
 62
     7
370
    25
100
AcDbSpline
210
0.0
220
0.0
230
1.0
 70
     8
 71
     3
 72
    10
 73
     6
 74
     0
 42
0.00000001
 43
0.00000001
 40
0.0
 40
0.0
 40
0.0
 40
0.0
 40
0.2594618540778875
 40
0.6296073956705976
 40
1.0
 40
1.0
 40
1.0
 40
1.0
 10
706.7928320501737
 20
613.7878087467203
 30
0.0
 10
710.8757002882692
 20
613.955193056246
 30
0.0
 10
720.7831452473338
 20
614.3613660544738
 30
0.0
 10
736.5144418088032
 20
615.1481494122042
 30
0.0
 10
748.1488487590145
 20
615.9688694100456
 30
0.0
 10
753.9679930041108
 20
616.3793663157076
 30
0.0
  0
SPLINE
  5
1E8
330
1F
100
AcDbEntity
  8
0
  6
Continuous
 62
     7
370
    25
100
AcDbSpline
210
0.0
220
0.0
230
1.0
 70
     8
 71
     3
 72
     9
 73
     5
 74
     0
 42
0.00000001
 43
0.00000001
 40
0.0
 40
0.0
 40
0.0
 40
0.0
 40
0.0790369080192139
 40
1.0
 40
1.0
 40
1.0
 40
1.0
 10
705.1527896869272
 20
613.4674854710871
 30
0.0
 10
705.1943248871225
 20
613.4822662787199
 30
0.0
 10
705.7198413987917
 20
613.6692777396077
 30
0.0
 10
706.2784105123063
 20
613.7309816878029
 30
0.0
 10
706.7928320501737
 20
613.7878087467203
 30
0.0
  0
SPLINE
  5
1E9
330
1F
100
AcDbEntity
  8
0
  6
Continuous
 62
     7
370
    25
100
AcDbSpline
210
0.0
220
0.0
230
1.0
 70
     8
 71
     3
 72
    11
 73
     7
 74
     0
 42
0.00000001
 43
0.00000001
 40
0.0
 40
0.0
 40
0.0
 40
0.0
 40
0.0728838064943292
 40
0.4140719411596028
 40
0.9209668754550567
 40
1.0
 40
1.0
 40
1.0
 40
1.0
 10
706.7207198848376
 20
617.641742622649
 30
0.0
 10
706.7284350339753
 20
617.5312961884099
 30
0.0
 10
706.7722668113398
 20
616.9038211480789
 30
0.0
 10
706.4277750999019
 20
615.5208291176139
 30
0.0
 10
705.7880857504156
 20
614.2508975998363
 30
0.0
 10
705.2282970009827
 20
613.5605969336633
 30
0.0
 10
705.1527896869272
 20
613.4674854710871
 30
0.0
  0
SPLINE
  5
1EA
330
1F
100
AcDbEntity
  8
0
  6
Continuous
 62
     7
370
    25
100
AcDbSpline
210
0.0
220
0.0
230
1.0
 70
     8
 71
     3
 72
    10
 73
     6
 74
     0
 42
0.00000001
 43
0.00000001
 40
0.0
 40
0.0
 40
0.0
 40
0.0
 40
0.3880207377811385
 40
0.9790637766506849
 40
1.0
 40
1.0
 40
1.0
 40
1.0
 10
706.7207198848413
 20
620.8430223557849
 30
0.0
 10
706.647405354082
 20
620.4321824939292
 30
0.0
 10
706.4624162687586
 20
619.3955409240808
 30
0.0
 10
706.5581231945898
 20
618.3017716025096
 30
0.0
 10
706.7153413458376
 20
617.66357573379
 30
0.0
 10
706.7207198848376
 20
617.641742622649
 30
0.0
  0
ARC
  5
1EB
330
1F
100
AcDbEntity
  8
0
  6
Continuous
 62
     7
370
    25
100
AcDbCircle
 10
698.4751995423
 20
619.2423824892
 30
0.0
 40
8.399443654264472
100
AcDbArc
 50
10.985757993
 51
349.0142420071
  0
SPLINE
  5
1EC
330
1F
100
AcDbEntity
  8
0
  6
Continuous
 62
     7
370
    25
100
AcDbSpline
210
0.0
220
0.0
230
1.0
 70
     8
 71
     3
 72
     9
 73
     5
 74
     0
 42
0.00000001
 43
0.00000001
 40
0.0
 40
0.0
 40
0.0
 40
0.0
 40
0.681792342127431
 40
1.0
 40
1.0
 40
1.0
 40
1.0
 10
705.1527896869272
 20
613.4674854710871
 30
0.0
 10
705.0105261262842
 20
613.2775751159819
 30
0.0
 10
704.8018649961238
 20
612.9990293721083
 30
0.0
 10
704.5724391622433
 20
612.7661249991654
 30
0.0
 10
704.4994341049888
 20
612.6920130441429
 30
0.0
  0
ARC
  5
1ED
330
1F
100
AcDbEntity
  8
0
  6
Continuous
 62
     7
370
    25
100
AcDbCircle
 10
698.4751995423
 20
619.2423824892
 30
0.0
 40
8.899367501836373
100
AcDbArc
 50
47.3959191961
 51
312.6040808039
  0
LINE
  5
1EE
330
1F
100
AcDbEntity
  8
0
  6
Continuous
 62
     7
370
    25
100
AcDbLine
 10
704.499434105
 20
625.7927519343
 30
0.0
 11
705.1527896869
 21
625.0172795073
 31
0.0
  0
SPLINE
  5
1EF
330
1F
100
AcDbEntity
  8
0
  6
Continuous
 62
     7
370
    25
100
AcDbSpline
210
0.0
220
0.0
230
1.0
 70
     8
 71
     3
 72
    10
 73
     6
 74
     0
 42
0.00000001
 43
0.00000001
 40
0.0
 40
0.0
 40
0.0
 40
0.0
 40
0.3702896688583046
 40
0.7405318123903298
 40
0.9999999999999999
 40
0.9999999999999999
 40
0.9999999999999999
 40
0.9999999999999999
 10
753.9795124672892
 20
615.9365067348743
 30
0.0
 10
748.1594486210707
 20
615.616315720348
 30
0.0
 10
736.5200679125672
 20
614.9759747866426
 30
0.0
 10
720.8011995057925
 20
614.1067404547792
 30
0.0
 10
710.9040256897827
 20
613.5579994531702
 30
0.0
 10
706.8259573693185
 20
613.3318941693382
 30
0.0
  0
ARC
  5
1F0
330
1F
100
AcDbEntity
  8
0
  6
Continuous
 62
     7
370
    25
100
AcDbCircle
 10
714.0410465766
 20
614.085280536
 30
0.0
 40
7.254316183270924
100
AcDbArc
 50
182.3501399448
 51
185.9611177314
  0
ARC
  5
1F1
330
1F
100
AcDbEntity
  8
0
  6
Continuous
 62
     7
370
    25
100
AcDbCircle
 10
749.7189899261
 20
616.0472635589
 30
0.0
 40
4.261961918889059
100
AcDbArc
 50
358.5108705386
 51
4.4691613065
  0
SPLINE
  5
1F2
330
1F
100
AcDbEntity
  8
0
  6
Continuous
 62
     7
370
    25
100
AcDbSpline
210
0.0
220
0.0
230
1.0
 70
     8
 71
     3
 72
    10
 73
     6
 74
     0
 42
0.00000001
 43
0.00000001
 40
0.0
 40
0.0
 40
0.0
 40
0.0
 40
0.3702717503651152
 40
0.7405122151371749
 40
1.0
 40
1.0
 40
1.0
 40
1.0
 10
706.8259573693184
 20
625.1528708090808
 30
0.0
 10
712.6456294309876
 20
624.8303423234129
 30
0.0
 10
724.2844818292845
 20
624.1853126036697
 30
0.0
 10
740.0036214132392
 20
623.3164981161907
 30
0.0
 10
749.9011188369378
 20
622.772443205424
 30
0.0
 10
753.9795124672858
 20
622.5482582435448
 30
0.0
  0
ARC
  5
1F3
330
1F
100
AcDbEntity
  8
0
  6
Continuous
 62
     7
370
    25
100
AcDbCircle
 10
749.7189899232
 20
622.4375014196
 30
0.0
 40
4.261961921796756
100
AcDbArc
 50
355.530838696
 51
1.4891294598
  0
ARC
  5
1F4
330
1F
100
AcDbEntity
  8
0
  6
Continuous
 62
     7
370
    25
100
AcDbCircle
 10
714.041046577
 20
624.3994844424
 30
0.0
 40
7.254316183617992
100
AcDbArc
 50
174.0388822687
 51
177.6498600551
  0
SPLINE
  5
1F5
330
1F
100
AcDbEntity
  8
0
  6
Continuous
 62
     7
370
    25
100
AcDbSpline
210
0.0
220
0.0
230
1.0
 70
     8
 71
     3
 72
    12
 73
     8
 74
     0
 42
0.00000001
 43
0.00000001
 40
0.0
 40
0.0
 40
0.0
 40
0.0
 40
0.1224290494151348
 40
0.3423522449770467
 40
0.5614228816909441
 40
0.7807229538533574
 40
1.0
 40
1.0
 40
1.0
 40
1.0
 10
755.9037204369585
 20
621.9947242930532
 30
0.0
 10
755.8947163610944
 20
621.9970829774942
 30
0.0
 10
755.8695379773634
 20
622.0036786418191
 30
0.0
 10
755.6535502937186
 20
622.0206866095582
 30
0.0
 10
755.2176521639896
 20
622.0461975837126
 30
0.0
 10
754.6337265505593
 20
622.0757497662719
 30
0.0
 10
754.1898964189912
 20
622.095516043151
 30
0.0
 10
753.967993004111
 20
622.1053986627095
 30
0.0
  0
SPLINE
  5
1F6
330
1F
100
AcDbEntity
  8
0
  6
Continuous
 62
     7
370
    25
100
AcDbSpline
210
0.0
220
0.0
230
1.0
 70
     8
 71
     3
 72
    11
 73
     7
 74
     0
 42
0.00000001
 43
0.00000001
 40
0.0
 40
0.0
 40
0.0
 40
0.0
 40
0.0800485240044433
 40
0.5000005853538798
 40
0.9209248322279645
 40
1.0
 40
1.0
 40
1.0
 40
1.0
 10
755.9037204369585
 20
621.9947242930532
 30
0.0
 10
755.9034341925443
 20
621.8484798679526
 30
0.0
 10
755.9016462473396
 20
620.9350052091196
 30
0.0
 10
755.9004105505097
 20
619.240595621361
 30
0.0
 10
755.9016482486046
 20
617.5479687695064
 30
0.0
 10
755.9034374705726
 20
616.6345053938625
 30
0.0
 10
755.9037204369586
 20
616.4900406853712
 30
0.0
  0
SPLINE
  5
1F7
330
1F
100
AcDbEntity
  8
0
  6
Continuous
 62
     7
370
    25
100
AcDbSpline
210
0.0
220
0.0
230
1.0
 70
     8
 71
     3
 72
    12
 73
     8
 74
     0
 42
0.00000001
 43
0.00000001
 40
0.0
 40
0.0
 40
0.0
 40
0.0
 40
0.1130367476169362
 40
0.3328594693548023
 40
0.5544127937945006
 40
0.7774207483513244
 40
1.0
 40
1.0
 40
1.0
 40
1.0
 10
753.9679930041108
 20
616.3793663157076
 30
0.0
 10
754.0820638440975
 20
616.384381561409
 30
0.0
 10
754.4179684067057
 20
616.3991499624648
 30
0.0
 10
754.9520362631002
 20
616.4247421665741
 30
0.0
 10
755.4685619009874
 20
616.4526174294451
 30
0.0
 10
755.825456618142
 20
616.4760593030356
 30
0.0
 10
755.8776492356603
 20
616.4853832147953
 30
0.0
 10
755.9037204369586
 20
616.4900406853712
 30
0.0
  0
SPLINE
  5
1F8
330
1F
100
AcDbEntity
  8
0
  6
Continuous
 62
     7
370
    25
100
AcDbSpline
210
0.0
220
0.0
230
1.0
 70
     8
 71
     3
 72
     9
 73
     5
 74
     0
 42
0.00000001
 43
0.00000001
 40
0.0
 40
0.0
 40
0.0
 40
0.0
 40
0.500010612381544
 40
1.0
 40
1.0
 40
1.0
 40
1.0
 10
703.9998262561459
 20
626.2245836235224
 30
0.0
 10
704.4295476229668
 20
625.9367430854292
 30
0.0
 10
705.2889721155274
 20
625.3610742276776
 30
0.0
 10
706.3136362008056
 20
625.2222709665909
 30
0.0
 10
706.8259573693184
 20
625.1528708090808
 30
0.0
  0
SPLINE
  5
1F9
330
1F
100
AcDbEntity
  8
0
  6
Continuous
 62
     7
370
    25
100
AcDbSpline
210
0.0
220
0.0
230
1.0
 70
     8
 71
     3
 72
     9
 73
     5
 74
     0
 42
0.00000001
 43
0.00000001
 40
0.0
 40
0.0
 40
0.0
 40
0.0
 40
0.9838702326459385
 40
1.0
 40
1.0
 40
1.0
 40
1.0
 10
704.4994341049888
 20
625.7927519342761
 30
0.0
 10
704.3380932900542
 20
625.9375843472951
 30
0.0
 10
704.1741074212057
 20
626.0847911721519
 30
0.0
 10
704.0025927479237
 20
626.2223645961984
 30
0.0
 10
703.9998262561459
 20
626.2245836235224
 30
0.0
  0
SPLINE
  5
1FA
330
1F
100
AcDbEntity
  8
0
  6
Continuous
 62
     7
370
    25
100
AcDbSpline
210
0.0
220
0.0
230
1.0
 70
     8
 71
     3
 72
     9
 73
     5
 74
     0
 42
0.00000001
 43
0.00000001
 40
0.0
 40
0.0
 40
0.0
 40
0.0
 40
0.5055561057107305
 40
1.0
 40
1.0
 40
1.0
 40
1.0
 10
706.8259573693185
 20
613.3318941693382
 30
0.0
 10
706.3078978519854
 20
613.2612381350683
 30
0.0
 10
705.28316585591
 20
613.1214790984908
 30
0.0
 10
704.4244252871486
 20
612.5451458236951
 30
0.0
 10
703.9998262561459
 20
612.2601813548965
 30
0.0
  0
SPLINE
  5
1FB
330
1F
100
AcDbEntity
  8
0
  6
Continuous
 62
     7
370
    25
100
AcDbSpline
210
0.0
220
0.0
230
1.0
 70
     8
 71
     3
 72
     9
 73
     5
 74
     0
 42
0.00000001
 43
0.00000001
 40
0.0
 40
0.0
 40
0.0
 40
0.0
 40
0.0161297673533178
 40
0.9999999999999999
 40
0.9999999999999999
 40
0.9999999999999999
 40
0.9999999999999999
 10
703.9998262561459
 20
612.2601813548965
 30
0.0
 10
704.0025927479237
 20
612.2624003822206
 30
0.0
 10
704.1741074212098
 20
612.39997380627
 30
0.0
 10
704.3380932900561
 20
612.5471806311253
 30
0.0
 10
704.4994341049888
 20
612.6920130441429
 30
0.0
  0
SPLINE
  5
1FC
330
1F
100
AcDbEntity
  8
0
  6
Continuous
 62
     7
370
    25
100
AcDbSpline
210
0.0
220
0.0
230
1.0
 70
     8
 71
     3
 72
    12
 73
     8
 74
     0
 42
0.00000001
 43
0.00000001
 40
0.0
 40
0.0
 40
0.0
 40
0.0
 40
0.2230315344150434
 40
0.4461337558340359
 40
0.6675099896777019
 40
0.8870667292265005
 40
1.0
 40
1.0
 40
1.0
 40
1.0
 10
755.431366171874
 20
615.9908776143228
 30
0.0
 10
755.4118323857481
 20
615.9927678616175
 30
0.0
 10
755.3727586225115
 20
615.9965489552969
 30
0.0
 10
755.1051694404554
 20
615.9896061190263
 30
0.0
 10
754.7176403566302
 20
615.9740172965364
 30
0.0
 10
754.3169182441671
 20
615.9546800164721
 30
0.0
 10
754.0650588219094
 20
615.9411144152957
 30
0.0
 10
753.9795124672892
 20
615.9365067348743
 30
0.0
  0
ARC
  5
1FD
330
1F
100
AcDbEntity
  8
0
  6
Continuous
 62
     7
370
    25
100
AcDbCircle
 10
755.4036205494
 20
616.4902072707
 30
0.0
 40
0.5000999153470742
100
AcDbArc
 50
273.1804119247
 51
359.9809145383
  0
SPLINE
  5
1FE
330
1F
100
AcDbEntity
  8
0
  6
Continuous
 62
     7
370
    25
100
AcDbSpline
210
0.0
220
0.0
230
1.0
 70
     8
 71
     3
 72
    12
 73
     8
 74
     0
 42
0.00000001
 43
0.00000001
 40
0.0
 40
0.0
 40
0.0
 40
0.0
 40
0.2190444340109334
 40
0.4380981679380241
 40
0.6571027493691853
 40
0.8772791087290019
 40
1.0
 40
1.0
 40
1.0
 40
1.0
 10
753.9795124672858
 20
622.5482582435448
 30
0.0
 10
754.1459302080566
 20
622.5394294305951
 30
0.0
 10
754.4787727551558
 20
622.5217714298527
 30
0.0
 10
754.9169311977988
 20
622.5022529404437
 30
0.0
 10
755.2438970245585
 20
622.4909471568114
 30
0.0
 10
755.4057409015727
 20
622.4891232887348
 30
0.0
 10
755.4246122339848
 20
622.4926317180596
 30
0.0
 10
755.431366171874
 20
622.4938873640962
 30
0.0
  0
ARC
  5
1FF
330
1F
100
AcDbEntity
  8
0
  6
Continuous
 62
     7
370
    25
100
AcDbCircle
 10
755.4036205494
 20
621.9945577077
 30
0.0
 40
0.5000999153471427
100
AcDbArc
 50
0.0190854623
 51
86.8195880752
  0
LINE
  5
200
330
1F
100
AcDbEntity
  8
0
  6
Continuous
 62
     7
370
    25
100
AcDbLine
 10
706.8259573693
 20
613.3318941693
 30
0.0
 11
706.852943551
 21
613.260603894
 31
0.0
  0
LINE
  5
201
330
1F
100
AcDbEntity
  8
0
  6
Continuous
 62
     7
370
    25
100
AcDbLine
 10
755.4360565325
 20
615.9864391613
 30
0.0
 11
755.4313661719
 21
615.9908776143
 31
0.0
  0
ELLIPSE
  5
202
330
1F
100
AcDbEntity
  8
0
  6
Continuous
 62
     7
370
    25
100
AcDbEllipse
 10
753.9362849898
 20
615.9031467113
 30
0.0
 11
1.499999304622747
 21
0.08287263343868288
 31
0.0
210
0.0
220
0.0
230
1.0
 40
0.0174284859
 41
5.396717970281666
 42
6.299675703199822
  0
LINE
  5
203
330
1F
100
AcDbEntity
  8
0
  6
Continuous
 62
     7
370
    25
100
AcDbLine
 10
751.4206703208
 20
615.6943871232
 30
0.0
 11
754.8856335302
 21
615.9352784022
 31
0.0
  0
LINE
  5
204
330
1F
100
AcDbEntity
  8
0
  6
Continuous
 62
     7
370
    25
100
AcDbLine
 10
751.4206703208
 20
615.6944855145
 30
0.0
 11
751.4206703208
 21
615.6943871232
 31
0.0
  0
ELLIPSE
  5
205
330
1F
100
AcDbEntity
  8
0
  6
Continuous
 62
     7
370
    25
100
AcDbEllipse
 10
741.9711838998
 20
615.364839463
 30
0.0
 11
14.4999932780205
 21
0.8011021232407529
 31
0.0
210
0.0
220
0.0
230
1.0
 40
0.0174284859
 41
4.6851094924422
 42
5.421234828998438
  0
ELLIPSE
  5
206
330
1F
100
AcDbEntity
  8
0
  6
Continuous
 62
     7
370
    25
100
AcDbEllipse
 10
740.6501739843
 20
614.4145559137
 30
0.0
 11
35.70262504606012
 21
1.972514619921981
 31
0.0
210
0.0
220
0.0
230
1.0
 40
0.0174284859
 41
1.543516838852421
 42
2.025717338718003
  0
ELLIPSE
  5
207
330
1F
100
AcDbEntity
  8
0
  6
Continuous
 62
     7
370
    25
100
AcDbEllipse
 10
721.6299465122
 20
614.042159854
 30
0.0
 11
7.499996523113965
 21
0.4143631671933009
 31
0.0
210
0.0
220
0.0
230
1.0
 40
0.0174284859
 41
4.976419334597662
 42
5.167309992307891
  0
LINE
  5
208
330
1F
100
AcDbEntity
  8
0
  6
Continuous
 62
     7
370
    25
100
AcDbLine
 10
723.5745989133
 20
614.1745043052
 30
0.0
 11
723.5942171707
 21
614.0241137606
 31
0.0
  0
SPLINE
  5
209
330
1F
100
AcDbEntity
  8
0
  6
Continuous
 62
     7
370
    25
100
AcDbSpline
210
0.0
220
0.0
230
1.0
 70
     8
 71
     3
 72
    10
 73
     6
 74
     0
 42
0.00000001
 43
0.00000001
 40
0.0
 40
0.0
 40
0.0
 40
0.0
 40
0.0186368637457253
 40
0.3939469944633057
 40
1.0
 40
1.0
 40
1.0
 40
1.0
 10
723.3908276275882
 20
614.1740179379343
 30
0.0
 10
723.3932838348369
 20
614.1741056884136
 30
0.0
 10
723.4452032713139
 20
614.1759605626066
 30
0.0
 10
723.5492021197917
 20
614.1786405439848
 30
0.0
 10
723.5649027771411
 20
614.1760834625871
 30
0.0
 10
723.5745989132847
 20
614.1745043051793
 30
0.0
  0
LINE
  5
20A
330
1F
100
AcDbEntity
  8
0
  6
Continuous
 62
     7
370
    25
100
AcDbLine
 10
706.852943551
 20
613.260603894
 30
0.0
 11
723.3908276276
 21
614.1740179379
 31
0.0
  0
LINE
  5
20B
330
1F
100
AcDbEntity
  8
0
  6
Continuous
 62
     7
370
    25
100
AcDbLine
 10
723.3928933595
 20
624.3269506893
 30
0.0
 11
706.8589849361
 21
625.2401451515
 31
0.0
  0
SPLINE
  5
20C
330
1F
100
AcDbEntity
  8
0
  6
Continuous
 62
     7
370
    25
100
AcDbSpline
210
0.0
220
0.0
230
1.0
 70
     8
 71
     3
 72
    11
 73
     7
 74
     0
 42
0.00000001
 43
0.00000001
 40
0.0
 40
0.0
 40
0.0
 40
0.0
 40
0.4177469294495291
 40
0.8392770662410922
 40
0.9817832068819584
 40
1.0
 40
1.0
 40
1.0
 40
1.0
 10
723.5765988001566
 20
624.3256012440263
 30
0.0
 10
723.5719617721247
 20
624.3245180528424
 30
0.0
 10
723.5626457221234
 20
624.3223418608594
 30
0.0
 10
723.4871492563731
 20
624.3235440377508
 30
0.0
 10
723.4168890558012
 20
624.3260145650909
 30
0.0
 10
723.3953362191436
 20
624.3268553880479
 30
0.0
 10
723.3928933595136
 20
624.3269506893063
 30
0.0
  0
LINE
  5
20D
330
1F
100
AcDbEntity
  8
0
  6
Continuous
 62
     7
370
    25
100
AcDbLine
 10
723.5942171707
 20
624.4606512178
 30
0.0
 11
723.5765988002
 21
624.325601244
 31
0.0
  0
ELLIPSE
  5
20E
330
1F
100
AcDbEntity
  8
0
  6
Continuous
 62
     7
370
    25
100
AcDbEllipse
 10
721.6299465122
 20
624.4426051244
 30
0.0
 11
7.499996523113965
 21
-0.4143631671933009
 31
0.0
210
0.0
220
0.0
230
1.0
 40
0.0174284859
 41
1.115875314871866
 42
1.306765972581993
  0
ELLIPSE
  5
20F
330
1F
100
AcDbEntity
  8
0
  6
Continuous
 62
     7
370
    25
100
AcDbEllipse
 10
740.6501739843
 20
624.0702090647
 30
0.0
 11
35.70262504606012
 21
-1.972514619921981
 31
0.0
210
0.0
220
0.0
230
1.0
 40
0.0174284859
 41
4.257467968461734
 42
4.739668468327166
  0
ELLIPSE
  5
210
330
1F
100
AcDbEntity
  8
0
  6
Continuous
 62
     7
370
    25
100
AcDbEllipse
 10
741.9711838998
 20
623.1199255154
 30
0.0
 11
14.4999932780205
 21
-0.8011021232407529
 31
0.0
210
0.0
220
0.0
230
1.0
 40
0.0174284859
 41
0.8619504781817181
 42
1.598075814737375
  0
LINE
  5
211
330
1F
100
AcDbEntity
  8
0
  6
Continuous
 62
     7
370
    25
100
AcDbLine
 10
751.4206703208
 20
622.7903778552
 30
0.0
 11
751.4206703208
 21
622.790279464
 31
0.0
  0
LINE
  5
212
330
1F
100
AcDbEntity
  8
0
  6
Continuous
 62
     7
370
    25
100
AcDbLine
 10
754.8856335302
 20
622.5494865762
 30
0.0
 11
751.4206703208
 21
622.7903778552
 31
0.0
  0
ELLIPSE
  5
213
330
1F
100
AcDbEntity
  8
0
  6
Continuous
 62
     7
370
    25
100
AcDbEllipse
 10
753.9362849898
 20
622.5816182672
 30
0.0
 11
1.499999304622747
 21
-0.08287263343868288
 31
0.0
210
0.0
220
0.0
230
1.0
 40
0.0174284859
 41
6.266694911160209
 42
7.169652644075698
  0
LINE
  5
214
330
1F
100
AcDbEntity
  8
0
  6
Continuous
 62
     7
370
    25
100
AcDbLine
 10
755.4313661719
 20
622.4938873641
 30
0.0
 11
755.4360565325
 21
622.4983258172
 31
0.0
  0
LINE
  5
215
330
1F
100
AcDbEntity
  8
0
  6
Continuous
 62
     7
370
    25
100
AcDbLine
 10
706.8589849361
 20
625.2401451515
 30
0.0
 11
706.8259573693
 21
625.1528708091
 31
0.0
  0
SPLINE
  5
216
330
1F
100
AcDbEntity
  8
0
  6
Continuous
 62
     7
370
    25
100
AcDbSpline
210
0.0
220
0.0
230
1.0
 70
     8
 71
     3
 72
     9
 73
     5
 74
     0
 42
0.00000001
 43
0.00000001
 40
0.0
 40
0.0
 40
0.0
 40
0.0
 40
0.5001021276704695
 40
1.0
 40
1.0
 40
1.0
 40
1.0
 10
704.0330451222013
 20
612.1944899079365
 30
0.0
 10
704.4619928979087
 20
612.4810155420249
 30
0.0
 10
705.3197132553593
 20
613.0539497853227
 30
0.0
 10
706.3419363839743
 20
613.1917285717769
 30
0.0
 10
706.8529435510151
 20
613.2606038939775
 30
0.0
  0
LINE
  5
217
330
1F
100
AcDbEntity
  8
0
  6
Continuous
 62
     7
370
    25
100
AcDbLine
 10
704.0330451222
 20
612.1944899079
 30
0.0
 11
703.9998262561
 21
612.2601813549
 31
0.0
  0
SPLINE
  5
218
330
1F
100
AcDbEntity
  8
0
  6
Continuous
 62
     7
370
    25
100
AcDbSpline
210
0.0
220
0.0
230
1.0
 70
     8
 71
     3
 72
     9
 73
     5
 74
     0
 42
0.00000001
 43
0.00000001
 40
0.0
 40
0.0
 40
0.0
 40
0.0
 40
0.400722737156528
 40
1.0
 40
1.0
 40
1.0
 40
1.0
 10
706.8589849360667
 20
625.2401451515208
 30
0.0
 10
706.4502988126574
 20
625.2885524135864
 30
0.0
 10
705.4304262536176
 20
625.4093523023303
 30
0.0
 10
704.5613502097917
 20
625.9694595756839
 30
0.0
 10
704.0405326970449
 20
626.305119129358
 30
0.0
  0
LINE
  5
219
330
1F
100
AcDbEntity
  8
0
  6
Continuous
 62
     7
370
    25
100
AcDbLine
 10
703.9998262561
 20
626.2245836235
 30
0.0
 11
704.040532697
 21
626.3051191294
 31
0.0
  0
ARC
  5
21A
330
1F
100
AcDbEntity
  8
0
  6
Continuous
 62
     7
370
    25
100
AcDbCircle
 10
698.4751995423
 20
619.2423824892
 30
0.0
 40
8.975658044222099
100
AcDbArc
 50
245.1648853947
 51
308.2586979829
  0
LWPOLYLINE
  5
21B
330
1F
100
AcDbEntity
  8
0
  6
Continuous
 62
     7
370
    25
100
AcDbPolyline
 90
        3
 70
   128
 43
0.0
 10
694.5398861181
 20
610.9917227659
 10
694.6444676822
 20
611.0579751772
 10
694.705348225
 20
611.0967911435
  0
ARC
  5
21C
330
1F
100
AcDbEntity
  8
0
  6
Continuous
 62
     7
370
    25
100
AcDbCircle
 10
698.4751995423
 20
619.2423824892
 30
0.0
 40
9.14112015109221
100
AcDbArc
 50
115.4997164176
 51
244.5002794289
  0
LWPOLYLINE
  5
21D
330
1F
100
AcDbEntity
  8
0
  6
Continuous
 62
     7
370
    25
100
AcDbPolyline
 90
        3
 70
   128
 43
0.0
 10
694.6890553145
 20
627.3983799057
 10
694.6444676822
 20
627.4267898013
 10
694.5398861178
 20
627.4930422127
  0
ARC
  5
21E
330
1F
100
AcDbEntity
  8
0
  6
Continuous
 62
     7
370
    25
100
AcDbCircle
 10
698.4751995423
 20
619.2423824892
 30
0.0
 40
8.991950954660766
100
AcDbArc
 50
51.762407147
 51
114.9014811666
  0
LINE
  5
21F
330
1F
100
AcDbEntity
  8
0
  6
Continuous
 62
     7
370
    25
100
AcDbLine
 10
755.9084107976
 20
621.9991627461
 30
0.0
 11
755.903720437
 21
621.9947242931
 31
0.0
  0
LINE
  5
220
330
1F
100
AcDbEntity
  8
0
  6
Continuous
 62
     7
370
    25
100
AcDbLine
 10
755.9084107976
 20
616.4856022323
 30
0.0
 11
755.9084107976
 21
621.9991627461
 31
0.0
  0
LINE
  5
221
330
1F
100
AcDbEntity
  8
0
  6
Continuous
 62
     7
370
    25
100
AcDbLine
 10
755.903720437
 20
616.4900406854
 30
0.0
 11
755.9084107976
 21
616.4856022323
 31
0.0
  0
ARC
  5
222
330
1F
100
AcDbEntity
  8
0
  6
Continuous
 62
     7
370
    25
100
AcDbCircle
 10
755.40831091
 20
621.9989961608
 30
0.0
 40
0.5000999153469543
100
AcDbArc
 50
0.0190854617
 51
86.8195880753
  0
ARC
  5
223
330
1F
100
AcDbEntity
  8
0
  6
Continuous
 62
     7
370
    25
100
AcDbCircle
 10
755.40831091
 20
616.4857688177
 30
0.0
 40
0.5000999153469543
100
AcDbArc
 50
273.1804119247
 51
359.9809145383
  0
LINE
  5
224
330
1F
100
AcDbEntity
  8
0
  6
Continuous
 62
     7
370
    25
100
AcDbLine
 10
754.8856335302
 20
615.9352784022
 30
0.0
 11
754.892741261
 21
615.9356454389
 31
0.0
  0
LINE
  5
225
330
1F
100
AcDbEntity
  8
0
  6
Continuous
 62
     7
370
    25
100
AcDbLine
 10
754.8856335302
 20
622.5494865762
 30
0.0
 11
754.892741261
 21
622.5491195396
 31
0.0
  0
SPLINE
  5
226
330
1F
100
AcDbEntity
  8
0
  6
Continuous
 62
     7
370
    25
100
AcDbSpline
210
0.0
220
0.0
230
1.0
 70
     8
 71
     3
 72
    11
 73
     7
 74
     0
 42
0.00000001
 43
0.00000001
 40
0.0
 40
0.0
 40
0.0
 40
0.0
 40
0.1345990676765959
 40
0.4126978815969493
 40
0.6969472592954598
 40
1.0
 40
1.0
 40
1.0
 40
1.0
 10
694.7045696185106
 20
611.0959845263891
 30
0.0
 10
695.1338756387588
 20
610.905100641228
 30
0.0
 10
696.450182565483
 20
610.3198263418082
 30
0.0
 10
698.8259926163663
 20
609.6973584577845
 30
0.0
 10
701.8796820012474
 20
609.3208557752843
 30
0.0
 10
704.0707119096081
 20
609.2937144469514
 30
0.0
 10
705.2013014271461
 20
609.2797092975064
 30
0.0
  0
ARC
  5
227
330
1F
100
AcDbEntity
  8
0
  6
Continuous
 62
     7
370
    25
100
AcDbCircle
 10
700.7087704341
 20
609.8995333421
 30
0.0
 40
4.535087272518632
100
AcDbArc
 50
329.0284626407
 51
352.1446266983
  0
SPLINE
  5
228
330
1F
100
AcDbEntity
  8
0
  6
Continuous
 62
     7
370
    25
100
AcDbSpline
210
0.0
220
0.0
230
1.0
 70
     8
 71
     3
 72
    12
 73
     8
 74
     0
 42
0.00000001
 43
0.00000001
 40
0.0
 40
0.0
 40
0.0
 40
0.0
 40
0.1662426524176545
 40
0.3368059756191297
 40
0.6054181071254586
 40
0.8801435087136193
 40
1.0
 40
1.0
 40
1.0
 40
1.0
 10
704.597258789645
 20
607.5657221075386
 30
0.0
 10
703.959577269109
 20
607.7212072830216
 30
0.0
 10
702.6676407923084
 20
608.0362187163768
 30
0.0
 10
700.483454409959
 20
608.6991838213753
 30
0.0
 10
698.1214800663992
 20
609.5513787381807
 30
0.0
 10
696.1559425045066
 20
610.3940074167928
 30
0.0
 10
695.042167519711
 20
610.9318655094879
 30
0.0
 10
694.7038520415535
 20
611.0952429603151
 30
0.0
  0
LINE
  5
229
330
1F
100
AcDbEntity
  8
0
  6
Continuous
 62
     7
370
    25
100
AcDbLine
 10
694.7038520416
 20
611.0952429603
 30
0.0
 11
694.7045696185
 21
611.0959845264
 31
0.0
  0
LINE
  5
22A
330
1F
100
AcDbEntity
  8
0
  6
Continuous
 62
     7
370
    25
100
AcDbLine
 10
704.5972587896
 20
607.5657221075
 30
0.0
 11
704.5814007127
 21
607.496248576
 31
0.0
  0
ARC
  5
22B
330
1F
100
AcDbEntity
  8
0
  6
Continuous
 62
     7
370
    25
100
AcDbCircle
 10
715.3031789492
 20
654.4678833882
 30
0.0
 40
48.17977797259062
100
AcDbArc
 50
244.4718479123
 51
257.1419190681
  0
LWPOLYLINE
  5
22C
330
1F
100
AcDbEntity
  8
0
  6
Continuous
 62
     7
370
    25
100
AcDbPolyline
 90
        3
 70
   128
 43
0.0
 10
694.7038520416
 20
611.0952429603
 10
694.6444641912
 20
611.0577192567
 10
694.5398861184
 20
610.9917212269
  0
LINE
  5
22D
330
1F
100
AcDbEntity
  8
0
  6
Continuous
 62
     7
370
    25
100
AcDbLine
 10
704.0330451222
 20
612.1944899079
 30
0.0
 11
706.2309170424
 21
609.4073730336
 31
0.0
  0
ARC
  5
22E
330
1F
100
AcDbEntity
  8
0
  6
Continuous
 62
     7
370
    25
100
AcDbCircle
 10
698.4751995423
 20
619.2423824892
 30
0.0
 40
12.52511736202727
100
AcDbArc
 50
307.8583068702
 51
308.2586979829
  0
LINE
  5
22F
330
1F
100
AcDbEntity
  8
0
  6
Continuous
 62
     7
370
    25
100
AcDbLine
 10
705.2013014271
 20
609.2797092975
 30
0.0
 11
706.161999776
 21
609.3534155513
 31
0.0
  0
LINE
  5
230
330
1F
100
AcDbEntity
  8
0
  6
Continuous
 62
     7
370
    25
100
AcDbLine
 10
694.705348225
 20
611.0967911435
 30
0.0
 11
694.7045696185
 21
611.0959845264
 31
0.0
  0
LINE
  5
231
330
1F
100
AcDbEntity
  8
0
  6
Continuous
 62
     7
370
    25
100
AcDbLine
 10
709.1487701028
 20
609.8325370382
 30
0.0
 11
707.0486875867
 21
609.7165460895
 31
0.0
  0
LINE
  5
232
330
1F
100
AcDbEntity
  8
0
  6
Continuous
 62
     7
370
    25
100
AcDbLine
 10
706.852943551
 20
613.260603894
 30
0.0
 11
707.0486875867
 21
609.7165460895
 31
0.0
  0
SPLINE
  5
233
330
1F
100
AcDbEntity
  8
0
  6
Continuous
 62
     7
370
    25
100
AcDbSpline
210
0.0
220
0.0
230
1.0
 70
     8
 71
     3
 72
    16
 73
    12
 74
     0
 42
0.00000001
 43
0.00000001
 40
0.0
 40
0.0
 40
0.0
 40
0.0
 40
0.2861254310575669
 40
0.7591203623085425
 40
0.8520758313858449
 40
0.9266344548631255
 40
0.9604862301433736
 40
0.9835335436569232
 40
0.9930756629548352
 40
0.9972242292023619
 40
1.0
 40
1.0
 40
1.0
 40
1.0
 10
710.5894384648941
 20
610.3566807202243
 30
0.0
 10
711.8175853020177
 20
610.8867480295763
 30
0.0
 10
715.075985887102
 20
612.2930714257036
 30
0.0
 10
718.8735673417094
 20
613.310883428588
 30
0.0
 10
721.6712289916138
 20
613.8728036463596
 30
0.0
 10
722.5363619305083
 20
614.0273061622524
 30
0.0
 10
723.0619480992424
 20
614.1158268280828
 30
0.0
 10
723.2956103579564
 20
614.1549362117314
 30
0.0
 10
723.3732605051172
 20
614.169256180701
 30
0.0
 10
723.3893421601523
 20
614.172989919324
 30
0.0
 10
723.3904025480741
 20
614.1737237614072
 30
0.0
 10
723.3908276275882
 20
614.1740179379343
 30
0.0
  0
LINE
  5
234
330
1F
100
AcDbEntity
  8
0
  6
Continuous
 62
     7
370
    25
100
AcDbLine
 10
709.1487701028
 20
609.8325370382
 30
0.0
 11
710.5894384649
 21
610.3566807202
 31
0.0
  0
ARC
  5
235
330
1F
100
AcDbEntity
  8
0
  6
Continuous
 62
     7
370
    25
100
AcDbCircle
 10
716.392871256
 20
613.9657831011
 30
0.0
 40
6.83413872820889
100
AcDbArc
 50
211.8771071303
 51
226.9488007428
  0
SPLINE
  5
236
330
1F
100
AcDbEntity
  8
0
  6
Continuous
 62
     7
370
    25
100
AcDbSpline
210
0.0
220
0.0
230
1.0
 70
     8
 71
     3
 72
    10
 73
     6
 74
     0
 42
0.00000001
 43
0.00000001
 40
0.0
 40
0.0
 40
0.0
 40
0.0
 40
0.5975855365574454
 40
0.9790563563181981
 40
1.0
 40
1.0
 40
1.0
 40
1.0
 10
723.5008529472759
 20
614.164891040595
 30
0.0
 10
723.5033720866293
 20
614.1686303383213
 30
0.0
 10
723.50749932741
 20
614.1747566298449
 30
0.0
 10
723.4331282008544
 20
614.1751331887014
 30
0.0
 10
723.3929202487501
 20
614.174073109701
 30
0.0
 10
723.3908276275882
 20
614.1740179379343
 30
0.0
  0
SPLINE
  5
237
330
1F
100
AcDbEntity
  8
0
  6
Continuous
 62
     7
370
    25
100
AcDbSpline
210
0.0
220
0.0
230
1.0
 70
     8
 71
     3
 72
    14
 73
    10
 74
     0
 42
0.00000001
 43
0.00000001
 40
0.0
 40
0.0
 40
0.0
 40
0.0
 40
0.0129036569231464
 40
0.0519665716781148
 40
0.1318891824261205
 40
0.2280032005552168
 40
0.4679440229400844
 40
0.7079115564493632
 40
1.0
 40
1.0
 40
1.0
 40
1.0
 10
723.5008529472759
 20
614.164891040595
 30
0.0
 10
723.4673843708116
 20
614.1570460665337
 30
0.0
 10
723.3325972179789
 20
614.1254522006011
 30
0.0
 10
722.8933237729864
 20
614.0230701533073
 30
0.0
 10
722.0818963547605
 20
613.8206686444903
 30
0.0
 10
720.4284191729399
 20
613.3536179637242
 30
0.0
 10
718.0841291006961
 20
612.5161609043338
 30
0.0
 10
714.9390349241991
 20
611.0712206639835
 30
0.0
 10
712.8657362500065
 20
609.7158497811888
 30
0.0
 10
711.7275353672594
 20
608.9717773740391
 30
0.0
  0
LWPOLYLINE
  5
238
330
1F
100
AcDbEntity
  8
0
  6
Continuous
 62
     7
370
    25
100
AcDbPolyline
 90
        4
 70
   128
 43
0.0
 10
723.5203797613
 20
614.0137954643
 10
723.5181351257
 20
614.0311536112
 10
723.5091600917
 20
614.1005863574
 10
723.5008529473
 20
614.1648910406
  0
LINE
  5
239
330
1F
100
AcDbEntity
  8
0
  6
Continuous
 62
     7
370
    25
100
AcDbLine
 10
721.7322554776
 20
613.584267961
 30
0.0
 11
723.5203797613
 21
614.0137954643
 31
0.0
  0
ARC
  5
23A
330
1F
100
AcDbEntity
  8
0
  6
Continuous
 62
     7
370
    25
100
AcDbCircle
 10
729.9178138761
 20
583.1585743672
 30
0.0
 40
31.5075577752834
100
AcDbArc
 50
105.0579972479
 51
125.1719294169
  0
LINE
  5
23B
330
1F
100
AcDbEntity
  8
0
  6
Continuous
 62
     7
370
    25
100
AcDbLine
 10
711.7275353673
 20
608.971777374
 30
0.0
 11
711.7684552535
 21
608.913709361
 31
0.0
  0
SPLINE
  5
23C
330
1F
100
AcDbEntity
  8
0
  6
Continuous
 62
     7
370
    25
100
AcDbSpline
210
0.0
220
0.0
230
1.0
 70
     8
 71
     3
 72
     9
 73
     5
 74
     0
 42
0.00000001
 43
0.00000001
 40
0.0
 40
0.0
 40
0.0
 40
0.0
 40
0.4998978730609624
 40
1.0
 40
1.0
 40
1.0
 40
1.0
 10
707.0486875867202
 20
609.7165460895335
 30
0.0
 10
706.9004926708244
 20
609.6965797515313
 30
0.0
 10
706.6040422878925
 20
609.6566389174567
 30
0.0
 10
706.3553090591159
 20
609.490472974886
 30
0.0
 10
706.2309170423642
 20
609.4073730335816
 30
0.0
  0
ARC
  5
23D
330
1F
100
AcDbEntity
  8
0
  6
Continuous
 62
     7
370
    25
100
AcDbCircle
 10
723.6021882622
 20
613.6751896008
 30
0.0
 40
0.500076340369035
100
AcDbArc
 50
93.1626296398
 51
101.6913635618
  0
SPLINE
  5
23E
330
1F
100
AcDbEntity
  8
0
  6
Continuous
 62
     7
370
    25
100
AcDbSpline
210
0.0
220
0.0
230
1.0
 70
     8
 71
     3
 72
    12
 73
     8
 74
     0
 42
0.00000001
 43
0.00000001
 40
0.0
 40
0.0
 40
0.0
 40
0.0
 40
0.0460732444350186
 40
0.2494607408078308
 40
0.4779405209378887
 40
0.7057893369168751
 40
0.9999999999999999
 40
0.9999999999999999
 40
0.9999999999999999
 40
0.9999999999999999
 10
694.6878210678633
 20
627.399654249312
 30
0.0
 10
694.816158295585
 20
627.4621596467279
 30
0.0
 10
695.5110323009491
 20
627.8005912665329
 30
0.0
 10
696.8702882519037
 20
628.4191333633581
 30
0.0
 10
698.880242766594
 20
629.2268579149268
 30
0.0
 10
701.3754451757077
 20
630.0989358284663
 30
0.0
 10
703.3057884751383
 20
630.5940725624406
 30
0.0
 10
704.3936483931764
 20
630.8731107039971
 30
0.0
  0
LINE
  5
23F
330
1F
100
AcDbEntity
  8
0
  6
Continuous
 62
     7
370
    25
100
AcDbLine
 10
704.8471084711
 20
628.9255081748
 30
0.0
 11
704.3936483932
 21
630.873110704
 31
0.0
  0
SPLINE
  5
240
330
1F
100
AcDbEntity
  8
0
  6
Continuous
 62
     7
370
    25
100
AcDbSpline
210
0.0
220
0.0
230
1.0
 70
     8
 71
     3
 72
    13
 73
     9
 74
     0
 42
0.00000001
 43
0.00000001
 40
0.0
 40
0.0
 40
0.0
 40
0.0
 40
0.2574896950994368
 40
0.4890886589321025
 40
0.7206004760683485
 40
0.9447506334961274
 40
0.9460032291293288
 40
1.0
 40
1.0
 40
1.0
 40
1.0
 10
704.8471084710635
 20
628.925508174783
 30
0.0
 10
703.9283828950755
 20
628.9535711388978
 30
0.0
 10
702.1833101079375
 20
629.0068753205632
 30
0.0
 10
699.6887448620239
 20
628.8423112017251
 30
0.0
 10
697.3730950560232
 20
628.428937206715
 30
0.0
 10
695.8959864544191
 20
627.9293800201516
 30
0.0
 10
695.0247250098785
 20
627.5551371652217
 30
0.0
 10
694.8546786010555
 20
627.4761567467366
 30
0.0
 10
694.6884874290002
 20
627.3989669465618
 30
0.0
  0
LINE
  5
241
330
1F
100
AcDbEntity
  8
0
  6
Continuous
 62
     7
370
    25
100
AcDbLine
 10
694.688487429
 20
627.3989669466
 30
0.0
 11
694.6878210679
 21
627.3996542493
 31
0.0
  0
ARC
  5
242
330
1F
100
AcDbEntity
  8
0
  6
Continuous
 62
     7
370
    25
100
AcDbCircle
 10
715.3031789492
 20
584.0168815902
 30
0.0
 40
48.10950076354645
100
AcDbArc
 50
102.8580809319
 51
103.1066633214
  0
LWPOLYLINE
  5
243
330
1F
100
AcDbEntity
  8
0
  6
Continuous
 62
     7
370
    25
100
AcDbPolyline
 90
        3
 70
   128
 43
0.0
 10
694.6878210679
 20
627.3996542493
 10
694.6444641912
 20
627.4270457217
 10
694.5398861181
 20
627.4930437517
  0
ARC
  5
244
330
1F
100
AcDbEntity
  8
0
  6
Continuous
 62
     7
370
    25
100
AcDbCircle
 10
715.3031789492
 20
584.0168815902
 30
0.0
 40
48.17977797259051
100
AcDbArc
 50
102.8580809319
 51
115.5281512988
  0
LINE
  5
245
330
1F
100
AcDbEntity
  8
0
  6
Continuous
 62
     7
370
    25
100
AcDbLine
 10
704.5970399847
 20
630.9200014458
 30
0.0
 11
704.5814007127
 21
630.9885164024
 31
0.0
  0
LINE
  5
246
330
1F
100
AcDbEntity
  8
0
  6
Continuous
 62
     7
370
    25
100
AcDbLine
 10
710.9524277868
 20
627.6176237673
 30
0.0
 11
712.0819032043
 21
629.2677955569
 31
0.0
  0
SPLINE
  5
247
330
1F
100
AcDbEntity
  8
0
  6
Continuous
 62
     7
370
    25
100
AcDbSpline
210
0.0
220
0.0
230
1.0
 70
     8
 71
     3
 72
    14
 73
    10
 74
     0
 42
0.00000001
 43
0.00000001
 40
0.0
 40
0.0
 40
0.0
 40
0.0
 40
0.2256458607195977
 40
0.4518169308148963
 40
0.815776144776343
 40
0.8946140573305373
 40
0.9637846180221654
 40
0.9940799143125669
 40
0.9999999999999999
 40
0.9999999999999999
 40
0.9999999999999999
 40
0.9999999999999999
 10
712.0819032043322
 20
629.2677955569396
 30
0.0
 10
712.9276507514033
 20
628.7227718344385
 30
0.0
 10
714.6211143928072
 20
627.6314558017114
 30
0.0
 10
717.8013364928595
 20
626.0660147169093
 30
0.0
 10
720.472614556026
 20
625.1126358826733
 30
0.0
 10
722.423143043277
 20
624.5911877365442
 30
0.0
 10
723.0672195537189
 20
624.4358070619021
 30
0.0
 10
723.3951704499456
 20
624.3602570010576
 30
0.0
 10
723.4877077825444
 20
624.3387362269125
 30
0.0
 10
723.5028347509304
 20
624.3352182513993
 30
0.0
  0
SPLINE
  5
248
330
1F
100
AcDbEntity
  8
0
  6
Continuous
 62
     7
370
    25
100
AcDbSpline
210
0.0
220
0.0
230
1.0
 70
     8
 71
     3
 72
    11
 73
     7
 74
     0
 42
0.00000001
 43
0.00000001
 40
0.0
 40
0.0
 40
0.0
 40
0.0
 40
0.019556121229571
 40
0.168189199674442
 40
0.5898876540792781
 40
1.0
 40
1.0
 40
1.0
 40
1.0
 10
723.3928933595136
 20
624.3269506893063
 30
0.0
 10
723.3948520726615
 20
624.3268925755906
 30
0.0
 10
723.4116976624841
 20
624.3263927781499
 30
0.0
 10
723.4635982262437
 20
624.3255463607363
 30
0.0
 10
723.512882858309
 20
624.3276356592584
 30
0.0
 10
723.5061528732326
 20
624.3327143004419
 30
0.0
 10
723.5028347509306
 20
624.3352182513993
 30
0.0
  0
SPLINE
  5
249
330
1F
100
AcDbEntity
  8
0
  6
Continuous
 62
     7
370
    25
100
AcDbSpline
210
0.0
220
0.0
230
1.0
 70
     8
 71
     3
 72
    17
 73
    13
 74
     0
 42
0.00000001
 43
0.00000001
 40
0.0
 40
0.0
 40
0.0
 40
0.0
 40
0.0068263121770685
 40
0.0088448507297254
 40
0.0223990310416126
 40
0.0309593028397538
 40
0.0563218912149143
 40
0.1198824177066684
 40
0.1957460556357056
 40
0.5558621944880031
 40
0.77803360979772
 40
1.0
 40
1.0
 40
1.0
 40
1.0
 10
723.3928933595136
 20
624.3269506893063
 30
0.0
 10
723.3892732143519
 20
624.3279888723514
 30
0.0
 10
723.3845825933043
 20
624.3293340458251
 30
0.0
 10
723.3410498806011
 20
624.3369240339001
 30
0.0
 10
723.2665179581686
 20
624.3486755407066
 30
0.0
 10
723.0996857126667
 20
624.37439443593
 30
0.0
 10
722.7181095955993
 20
624.4329090149521
 30
0.0
 10
722.035208628865
 20
624.5421059995393
 30
0.0
 10
719.9302093119472
 20
624.9092782319634
 30
0.0
 10
717.1172747301612
 20
625.5434559159287
 30
0.0
 10
713.7184905155946
 20
626.5563962077871
 30
0.0
 10
711.8741649008308
 20
627.2639901284738
 30
0.0
 10
710.9524277868402
 20
627.617623767301
 30
0.0
  0
LINE
  5
24A
330
1F
100
AcDbEntity
  8
0
  6
Continuous
 62
     7
370
    25
100
AcDbLine
 10
706.8589849361
 20
625.2401451515
 30
0.0
 11
707.002346765
 21
627.835793121
 31
0.0
  0
LINE
  5
24B
330
1F
100
AcDbEntity
  8
0
  6
Continuous
 62
     7
370
    25
100
AcDbLine
 10
707.002346765
 20
627.835793121
 30
0.0
 11
710.9524277868
 21
627.6176237673
 31
0.0
  0
LINE
  5
24C
330
1F
100
AcDbEntity
  8
0
  6
Continuous
 62
     7
370
    25
100
AcDbLine
 10
704.040532697
 20
626.3051191294
 30
0.0
 11
705.6494896903
 21
628.3469806303
 31
0.0
  0
LINE
  5
24D
330
1F
100
AcDbEntity
  8
0
  6
Continuous
 62
     7
370
    25
100
AcDbLine
 10
694.688487429
 20
627.3989669466
 30
0.0
 11
694.6890553145
 21
627.3983799057
 31
0.0
  0
ARC
  5
24E
330
1F
100
AcDbEntity
  8
0
  6
Continuous
 62
     7
370
    25
100
AcDbCircle
 10
698.4751995423
 20
619.2423824892
 30
0.0
 40
11.5915549620674
100
AcDbArc
 50
51.762407147
 51
56.6533814372
  0
LWPOLYLINE
  5
24F
330
1F
100
AcDbEntity
  8
0
  6
Continuous
 62
     7
370
    25
100
AcDbPolyline
 90
        4
 70
   128
 43
0.0
 10
723.5028347509
 20
624.3352182514
 10
723.5050769972
 20
624.3525765064
 10
723.5140494801
 20
624.422009368
 10
723.5203797613
 20
624.4709695141
  0
ARC
  5
250
330
1F
100
AcDbEntity
  8
0
  6
Continuous
 62
     7
370
    25
100
AcDbCircle
 10
729.9178138761
 20
655.3261906112
 30
0.0
 40
31.57783498432758
100
AcDbArc
 50
234.8280705831
 51
235.6099480104
  0
LINE
  5
251
330
1F
100
AcDbEntity
  8
0
  6
Continuous
 62
     7
370
    25
100
AcDbLine
 10
711.7279733387
 20
629.5136091146
 30
0.0
 11
711.7684552535
 21
629.5710556174
 31
0.0
  0
ARC
  5
252
330
1F
100
AcDbEntity
  8
0
  6
Continuous
 62
     7
370
    25
100
AcDbCircle
 10
729.9178138761
 20
655.3261906112
 30
0.0
 40
31.5075577752834
100
AcDbArc
 50
234.8280705831
 51
254.9420027521
  0
LINE
  5
253
330
1F
100
AcDbEntity
  8
0
  6
Continuous
 62
     7
370
    25
100
AcDbLine
 10
723.5203797613
 20
624.4709695141
 30
0.0
 11
721.7322554776
 21
624.9004970174
 31
0.0
  0
LINE
  5
254
330
1F
100
AcDbEntity
  8
0
  6
Continuous
 62
     7
370
    25
100
AcDbLine
 10
723.5942171707
 20
614.0241137606
 30
0.0
 11
723.5203797613
 21
614.0137954643
 31
0.0
  0
SPLINE
  5
255
330
1F
100
AcDbEntity
  8
0
  6
Continuous
 62
     7
370
    25
100
AcDbSpline
210
0.0
220
0.0
230
1.0
 70
     8
 71
     3
 72
    10
 73
     6
 74
     0
 42
0.00000001
 43
0.00000001
 40
0.0
 40
0.0
 40
0.0
 40
0.0
 40
0.0490769085761659
 40
0.599580584366531
 40
1.0
 40
1.0
 40
1.0
 40
1.0
 10
705.6494896903034
 20
628.3469806303343
 30
0.0
 10
705.6684372286725
 20
628.332357894733
 30
0.0
 10
705.8999223905789
 20
628.1537095525439
 30
0.0
 10
706.3457961653962
 20
627.9196575591226
 30
0.0
 10
706.8078027422807
 20
627.860643186105
 30
0.0
 10
707.0023467650344
 20
627.8357931209727
 30
0.0
  0
ARC
  5
256
330
1F
100
AcDbEntity
  8
0
  6
Continuous
 62
     7
370
    25
100
AcDbCircle
 10
723.6041881519
 20
624.8249159484
 30
0.0
 40
0.5000763405031025
100
AcDbArc
 50
258.3065203379
 51
266.8373700347
  0
SPLINE
  5
257
330
1F
100
AcDbEntity
  8
0
  6
Continuous
 62
     7
370
    25
100
AcDbSpline
210
0.0
220
0.0
230
1.0
 70
     8
 71
     3
 72
     9
 73
     5
 74
     0
 42
0.00000001
 43
0.00000001
 40
0.0
 40
0.0
 40
0.0
 40
0.0
 40
0.8458911907785723
 40
1.0
 40
1.0
 40
1.0
 40
1.0
 10
723.5203797613411
 20
624.4709695140855
 30
0.0
 10
723.5412203574522
 20
624.4671547070932
 30
0.0
 10
723.565857800587
 20
624.4626448989359
 30
0.0
 10
723.5904303277632
 20
624.4609174351849
 30
0.0
 10
723.594217170666
 20
624.4606512178033
 30
0.0
  0
LINE
  5
258
330
1F
100
AcDbEntity
  8
0
  6
Continuous
 62
     7
370
    25
100
AcDbLine
 10
741.5896373683
 20
623.3943953645
 30
0.0
 11
741.5891793485
 21
623.394420451
 31
0.0
  0
LINE
  5
259
330
1F
100
AcDbEntity
  8
0
  6
Continuous
 62
     7
370
    25
100
AcDbLine
 10
711.7275353673
 20
608.971777374
 30
0.0
 11
709.8887945179
 21
607.9748111384
 31
0.0
  0
LINE
  5
25A
330
1F
100
AcDbEntity
  8
0
  6
Continuous
 62
     7
370
    25
100
AcDbLine
 10
709.1487701028
 20
609.8325370382
 30
0.0
 11
709.8887945179
 21
607.9748111384
 31
0.0
  0
LINE
  5
25B
330
1F
100
AcDbEntity
  8
0
  6
Continuous
 62
     7
370
    25
100
AcDbLine
 10
706.161999776
 20
609.3534155513
 30
0.0
 11
706.0401660294
 21
607.3574350423
 31
0.0
  0
LINE
  5
25C
330
1F
100
AcDbEntity
  8
0
  6
Continuous
 62
     7
370
    25
100
AcDbLine
 10
706.0401660294
 20
607.3574350423
 30
0.0
 11
704.5972587896
 21
607.5657221075
 31
0.0
  0
ARC
  5
25D
330
1F
100
AcDbEntity
  8
0
  6
Continuous
 62
     7
370
    25
100
AcDbCircle
 10
729.9178138761
 20
655.3261906112
 30
0.0
 40
33.57753037464038
100
AcDbArc
 50
234.8280705831
 51
235.6099480104
  0
ARC
  5
25E
330
1F
100
AcDbEntity
  8
0
  6
Continuous
 62
     7
370
    25
100
AcDbCircle
 10
715.3031789492
 20
584.0168815902
 30
0.0
 40
46.10980537323357
100
AcDbArc
 50
102.8580809319
 51
103.1066633214
  0
ARC
  5
25F
330
1F
100
AcDbEntity
  8
0
  6
Continuous
 62
     7
370
    25
100
AcDbCircle
 10
706.5842147476
 20
622.214276965
 30
0.0
 40
6.92994638714431
100
AcDbArc
 50
54.8280705831
 51
102.8580809319
  0
LINE
  5
260
330
1F
100
AcDbEntity
  8
0
  6
Continuous
 62
     7
370
    25
100
AcDbLine
 10
705.0420459896
 20
628.9704498795
 30
0.0
 11
704.5970399847
 21
630.9200014458
 31
0.0
  0
ARC
  5
261
330
1F
100
AcDbEntity
  8
0
  6
Continuous
 62
     7
370
    25
100
AcDbCircle
 10
706.5842147476
 20
622.214276965
 30
0.0
 40
8.929641777457157
100
AcDbArc
 50
54.8280705831
 51
102.8580809319
  0
LINE
  5
262
330
1F
100
AcDbEntity
  8
0
  6
Continuous
 62
     7
370
    25
100
AcDbLine
 10
710.5760849875
 20
627.8790036942
 30
0.0
 11
711.7279733387
 21
629.5136091146
 31
0.0
  0
ARC
  5
263
330
1F
100
AcDbEntity
  8
0
  6
Continuous
 62
     7
370
    25
100
AcDbCircle
 10
706.5842147476
 20
616.2704880134
 30
0.0
 40
6.929946387144304
100
AcDbArc
 50
266.5070253286
 51
291.7198462835
  0
ARC
  5
264
330
1F
100
AcDbEntity
  8
0
  6
Continuous
 62
     7
370
    25
100
AcDbCircle
 10
706.5842147476
 20
616.2704880134
 30
0.0
 40
8.92964177745722
100
AcDbArc
 50
266.5070253286
 51
291.7198462835
  0
ARC
  5
265
330
1F
100
AcDbEntity
  8
0
  6
Continuous
 62
     7
370
    25
100
AcDbCircle
 10
706.5842147476
 20
616.2704880134
 30
0.0
 40
8.999918986501271
100
AcDbArc
 50
257.1419190681
 51
305.1719294169
  0
ARC
  5
266
330
1F
100
AcDbEntity
  8
0
  6
Continuous
 62
     7
370
    25
100
AcDbCircle
 10
706.5842147476
 20
622.214276965
 30
0.0
 40
8.999918986501271
100
AcDbArc
 50
54.8280705831
 51
102.8580809319
  0
SPLINE
  5
267
330
1F
100
AcDbEntity
  8
0
  6
Continuous
 62
     7
370
    25
100
AcDbSpline
210
0.0
220
0.0
230
1.0
 70
    24
 71
     3
 72
    11
 73
     7
 74
     0
 42
0.00000001
 43
0.00000001
 40
0.0
 40
0.0
 40
0.0
 40
0.0
 40
0.0314008682428272
 40
0.4875396429068388
 40
0.9446156650887275
 40
1.0
 40
1.0
 40
1.0
 40
1.0
 10
698.6799218647166
 20
609.4969612003811
 30
0.0
 10
698.6353939287467
 20
609.4969612003811
 30
0.0
 10
697.9440393510854
 20
609.4969612003811
 30
0.0
 10
696.5892902756381
 20
609.4969612003811
 30
0.0
 10
695.2543416491269
 20
609.4969612003811
 30
0.0
 10
694.5692872871343
 20
609.4969612003811
 30
0.0
 10
694.4952497939081
 20
609.4969612003811
 30
0.0
  0
ARC
  5
268
330
1F
100
AcDbEntity
  8
0
  6
Continuous
 62
     7
370
    25
100
AcDbCircle
 10
698.4751995423
 20
618.9969612004
 30
0.0
 40
10.30000000000012
100
AcDbArc
 50
232.7308609266
 51
247.2691390734
  0
SPLINE
  5
269
330
1F
100
AcDbEntity
  8
0
  6
Continuous
 62
     7
370
    25
100
AcDbSpline
210
0.0
220
0.0
230
1.0
 70
    24
 71
     3
 72
    11
 73
     7
 74
     0
 42
0.00000001
 43
0.00000001
 40
0.0
 40
0.0
 40
0.0
 40
0.0
 40
0.2431641197380911
 40
0.4936284730588937
 40
0.7421706076863289
 40
1.0
 40
1.0
 40
1.0
 40
1.0
 10
692.2379330805956
 20
610.8002236124584
 30
0.0
 10
691.9241740788989
 20
611.3436701447292
 30
0.0
 10
691.2872364538789
 20
612.446878472516
 30
0.0
 10
690.2768474848723
 20
614.1969235022425
 30
0.0
 10
689.2451403570363
 20
615.9838926661854
 30
0.0
 10
688.591034614138
 20
617.1168370464078
 30
0.0
 10
688.2579833321691
 20
617.6936987883039
 30
0.0
  0
ARC
  5
26A
330
1F
100
AcDbEntity
  8
0
  6
Continuous
 62
     7
370
    25
100
AcDbCircle
 10
698.4751995423
 20
618.9969612004
 30
0.0
 40
10.29999999999997
100
AcDbArc
 50
172.7308609266
 51
187.2691390734
  0
SPLINE
  5
26B
330
1F
100
AcDbEntity
  8
0
  6
Continuous
 62
     7
370
    25
100
AcDbSpline
210
0.0
220
0.0
230
1.0
 70
    24
 71
     3
 72
    11
 73
     7
 74
     0
 42
0.00000001
 43
0.00000001
 40
0.0
 40
0.0
 40
0.0
 40
0.0
 40
0.2431641197380909
 40
0.4936284730588934
 40
0.7421706076863288
 40
1.0
 40
1.0
 40
1.0
 40
1.0
 10
688.2579833321691
 20
620.3002236124584
 30
0.0
 10
688.5717423338658
 20
620.8436701447292
 30
0.0
 10
689.2086799588858
 20
621.946878472516
 30
0.0
 10
690.2190689278923
 20
623.6969235022425
 30
0.0
 10
691.2507760557284
 20
625.4838926661854
 30
0.0
 10
691.9048817986267
 20
626.6168370464077
 30
0.0
 10
692.2379330805956
 20
627.193698788304
 30
0.0
  0
ARC
  5
26C
330
1F
100
AcDbEntity
  8
0
  6
Continuous
 62
     7
370
    25
100
AcDbCircle
 10
698.4751995423
 20
618.9969612004
 30
0.0
 40
10.30000000000002
100
AcDbArc
 50
112.7308609266
 51
127.2691390734
  0
SPLINE
  5
26D
330
1F
100
AcDbEntity
  8
0
  6
Continuous
 62
     7
370
    25
100
AcDbSpline
210
0.0
220
0.0
230
1.0
 70
    24
 71
     3
 72
    10
 73
     6
 74
     0
 42
0.00000001
 43
0.00000001
 40
0.0
 40
0.0
 40
0.0
 40
0.0
 40
0.0993746184585311
 40
0.9194937980719894
 40
1.0
 40
1.0
 40
1.0
 40
1.0
 10
694.4952497939081
 20
628.4969612003811
 30
0.0
 10
694.5693074091201
 20
628.4969612003811
 30
0.0
 10
695.2545479558892
 20
628.4969612003811
 30
0.0
 10
696.0172548325
 20
628.4969612003811
 30
0.0
 10
696.7307233771936
 20
628.4969612003811
 30
0.0
 10
696.794499775134
 20
628.4969612003811
 30
0.0
  0
ARC
  5
26E
330
1F
100
AcDbEntity
  8
0
  6
Continuous
 62
     7
370
    25
100
AcDbCircle
 10
495.2751995423
 20
618.9969612004
 30
0.0
 40
10.3000000000001
100
AcDbArc
 50
292.7308609266
 51
307.2691390734
  0
SPLINE
  5
26F
330
1F
100
AcDbEntity
  8
0
  6
Continuous
 62
     7
370
    25
100
AcDbSpline
210
0.0
220
0.0
230
1.0
 70
    24
 71
     3
 72
    10
 73
     6
 74
     0
 42
0.00000001
 43
0.00000001
 40
0.0
 40
0.0
 40
0.0
 40
0.0
 40
0.0736508673728088
 40
0.6497531933628996
 40
1.0
 40
1.0
 40
1.0
 40
1.0
 10
499.2551492907609
 20
609.4969612003811
 30
0.0
 10
499.1799388008189
 20
609.4969612003811
 30
0.0
 10
498.5164265061591
 20
609.4969612003811
 30
0.0
 10
497.4660498994469
 20
609.4969612003811
 30
0.0
 10
496.4580106415837
 20
609.4969612003811
 30
0.0
 10
496.0768773101042
 20
609.4969612003811
 30
0.0
  0
SPLINE
  5
270
330
1F
100
AcDbEntity
  8
0
  6
Continuous
 62
     7
370
    25
100
AcDbSpline
210
0.0
220
0.0
230
1.0
 70
    24
 71
     3
 72
    10
 73
     6
 74
     0
 42
0.00000001
 43
0.00000001
 40
0.0
 40
0.0
 40
0.0
 40
0.0
 40
0.3848035719694788
 40
0.9302662133992883
 40
1.0
 40
1.0
 40
1.0
 40
1.0
 10
495.8943039634866
 20
628.4969612003811
 30
0.0
 10
496.3367256602121
 20
628.4969612003811
 30
0.0
 10
497.4062842259811
 20
628.4969612003811
 30
0.0
 10
498.5164476224036
 20
628.4969612003811
 30
0.0
 10
499.1799409506958
 20
628.4969612003811
 30
0.0
 10
499.2551492907609
 20
628.4969612003811
 30
0.0
  0
ARC
  5
271
330
1F
100
AcDbEntity
  8
0
  6
Continuous
 62
     7
370
    25
100
AcDbCircle
 10
495.2751995423
 20
618.9969612004
 30
0.0
 40
10.30000000000002
100
AcDbArc
 50
52.7308609266
 51
67.2691390734
  0
SPLINE
  5
272
330
1F
100
AcDbEntity
  8
0
  6
Continuous
 62
     7
370
    25
100
AcDbSpline
210
0.0
220
0.0
230
1.0
 70
    24
 71
     3
 72
    11
 73
     7
 74
     0
 42
0.00000001
 43
0.00000001
 40
0.0
 40
0.0
 40
0.0
 40
0.0
 40
0.2431641197380913
 40
0.4936284730588932
 40
0.7421706076863291
 40
1.0
 40
1.0
 40
1.0
 40
1.0
 10
501.5124660040734
 20
627.193698788304
 30
0.0
 10
501.8262250057701
 20
626.6502522560331
 30
0.0
 10
502.4631626307901
 20
625.5470439282464
 30
0.0
 10
503.4735515997966
 20
623.7969988985199
 30
0.0
 10
504.5052587276326
 20
622.0100297345768
 30
0.0
 10
505.1593644705309
 20
620.8770853543546
 30
0.0
 10
505.4924157524998
 20
620.3002236124582
 30
0.0
  0
ARC
  5
273
330
1F
100
AcDbEntity
  8
0
  6
Continuous
 62
     7
370
    25
100
AcDbCircle
 10
495.2751995423
 20
618.9969612004
 30
0.0
 40
10.29999999999997
100
AcDbArc
 50
352.7308609266
 51
7.2691390734
  0
SPLINE
  5
274
330
1F
100
AcDbEntity
  8
0
  6
Continuous
 62
     7
370
    25
100
AcDbSpline
210
0.0
220
0.0
230
1.0
 70
    24
 71
     3
 72
    11
 73
     7
 74
     0
 42
0.00000001
 43
0.00000001
 40
0.0
 40
0.0
 40
0.0
 40
0.0
 40
0.2431641197380911
 40
0.493628473058894
 40
0.742170607686329
 40
1.0
 40
1.0
 40
1.0
 40
1.0
 10
505.4924157524998
 20
617.6936987883039
 30
0.0
 10
505.1786567508031
 20
617.1502522560331
 30
0.0
 10
504.5417191257832
 20
616.0470439282464
 30
0.0
 10
503.5313301567766
 20
614.2969988985197
 30
0.0
 10
502.4996230289406
 20
612.510029734577
 30
0.0
 10
501.8455172860424
 20
611.3770853543546
 30
0.0
 10
501.5124660040734
 20
610.8002236124584
 30
0.0
  0
ARC
  5
275
330
1F
100
AcDbEntity
  8
0
  6
Continuous
 62
     7
370
    25
100
AcDbCircle
 10
495.2751995423
 20
618.9969612004
 30
0.0
 40
14.87500000000004
100
AcDbArc
 50
233.3837470415
 51
30.0
  0
ARC
  5
276
330
1F
100
AcDbEntity
  8
0
  6
Continuous
 62
     7
370
    25
100
AcDbCircle
 10
495.2751995423
 20
618.9969612004
 30
0.0
 40
14.87500000000003
100
AcDbArc
 50
30.0
 51
126.6162529585
  0
ARC
  5
277
330
1F
100
AcDbEntity
  8
0
  6
Continuous
 62
     7
370
    25
100
AcDbCircle
 10
495.2751995423
 20
618.9969612004
 30
0.0
 40
10.57500000000004
100
AcDbArc
 50
261.6509017607
 51
30.0
  0
ARC
  5
278
330
1F
100
AcDbEntity
  8
0
  6
Continuous
 62
     7
370
    25
100
AcDbCircle
 10
495.2751995423
 20
618.9969612004
 30
0.0
 40
10.57500000000005
100
AcDbArc
 50
30.0
 51
98.3490982393
  0
SPLINE
  5
279
330
1F
100
AcDbEntity
  8
0
  6
Continuous
 62
     7
370
    25
100
AcDbSpline
210
0.0
220
0.0
230
1.0
 70
     8
 71
     3
 72
     9
 73
     5
 74
     0
 42
0.00000001
 43
0.00000001
 40
0.0
 40
0.0
 40
0.0
 40
0.0
 40
0.5850553834534097
 40
1.0
 40
1.0
 40
1.0
 40
1.0
 10
484.1487888944196
 20
605.7684697484449
 30
0.0
 10
484.4085638142285
 20
605.381923222881
 30
0.0
 10
484.8525814699169
 20
604.7212224815557
 30
0.0
 10
485.5244326619497
 20
604.2430636494296
 30
0.0
 10
485.8032136972041
 20
604.0446542161847
 30
0.0
  0
LINE
  5
27A
330
1F
100
AcDbEntity
  8
0
  6
Continuous
 62
     7
370
    25
100
AcDbLine
 10
482.6434636151
 20
608.3757696142
 30
0.0
 11
484.1487888944
 21
605.7684697484
 31
0.0
  0
SPLINE
  5
27B
330
1F
100
AcDbEntity
  8
0
  6
Continuous
 62
     7
370
    25
100
AcDbSpline
210
0.0
220
0.0
230
1.0
 70
    24
 71
     3
 72
     9
 73
     5
 74
     0
 42
0.00000001
 43
0.00000001
 40
0.0
 40
0.0
 40
0.0
 40
0.0
 40
0.9286188355902005
 40
1.0
 40
1.0
 40
1.0
 40
1.0
 10
484.1487888944205
 20
632.2254526523187
 30
0.0
 10
483.7048276742782
 20
631.4564892624421
 30
0.0
 10
483.226739999199
 20
630.6284171187323
 30
0.0
 10
482.7272598933966
 20
629.7632921981129
 30
0.0
 10
482.6916064218449
 20
629.701538573919
 30
0.0
  0
SPLINE
  5
27C
330
1F
100
AcDbEntity
  8
0
  6
Continuous
 62
     7
370
    25
100
AcDbSpline
210
0.0
220
0.0
230
1.0
 70
     8
 71
     3
 72
     9
 73
     5
 74
     0
 42
0.00000001
 43
0.00000001
 40
0.0
 40
0.0
 40
0.0
 40
0.0
 40
0.584191749740925
 40
1.0
 40
1.0
 40
1.0
 40
1.0
 10
485.8032136972041
 20
633.9492681845776
 30
0.0
 10
485.4155574317536
 20
633.659992281078
 30
0.0
 10
484.7519803346404
 20
633.1648194142443
 30
0.0
 10
484.3259399862319
 20
632.5013349616331
 30
0.0
 10
484.1487888944205
 20
632.2254526523187
 30
0.0
  0
ARC
  5
27D
330
1F
100
AcDbEntity
  8
0
  6
Continuous
 62
     7
370
    25
100
AcDbCircle
 10
495.2751995423
 20
618.9969612004
 30
0.0
 40
17.70000000000002
100
AcDbArc
 50
117.6465635726
 51
122.3534364274
  0
SPLINE
  5
27E
330
1F
100
AcDbEntity
  8
0
  6
Continuous
 62
     7
370
    25
100
AcDbSpline
210
0.0
220
0.0
230
1.0
 70
     8
 71
     3
 72
     9
 73
     5
 74
     0
 42
0.00000001
 43
0.00000001
 40
0.0
 40
0.0
 40
0.0
 40
0.0
 40
0.5850553834536162
 40
1.0
 40
1.0
 40
1.0
 40
1.0
 10
489.3821952151682
 20
635.2469612003812
 30
0.0
 10
488.9175486443809
 20
635.2152627833425
 30
0.0
 10
488.1233561902504
 20
635.16108258445
 30
0.0
 10
487.3733328985694
 20
634.8183218006499
 30
0.0
 10
487.062114771402
 20
634.6760950586489
 30
0.0
  0
SPLINE
  5
27F
330
1F
100
AcDbEntity
  8
0
  6
Continuous
 62
     7
370
    25
100
AcDbSpline
210
0.0
220
0.0
230
1.0
 70
    24
 71
     3
 72
    11
 73
     7
 74
     0
 42
0.00000001
 43
0.00000001
 40
0.0
 40
0.0
 40
0.0
 40
0.0
 40
0.2328716322111479
 40
0.4710265024313248
 40
0.7311421212560302
 40
0.9999999999999999
 40
0.9999999999999999
 40
0.9999999999999999
 40
0.9999999999999999
 10
501.1682038695006
 20
635.2469612003812
 30
0.0
 10
500.2743474391802
 20
635.2469612003812
 30
0.0
 10
498.4663553533609
 20
635.2469612003812
 30
0.0
 10
495.538682612798
 20
635.2469612003812
 30
0.0
 10
492.45158370232
 20
635.2469612003812
 30
0.0
 10
490.4165356813339
 20
635.2469612003812
 30
0.0
 10
489.3821952151682
 20
635.2469612003812
 30
0.0
  0
SPLINE
  5
280
330
1F
100
AcDbEntity
  8
0
  6
Continuous
 62
     7
370
    25
100
AcDbSpline
210
0.0
220
0.0
230
1.0
 70
     8
 71
     3
 72
     9
 73
     5
 74
     0
 42
0.00000001
 43
0.00000001
 40
0.0
 40
0.0
 40
0.0
 40
0.0
 40
0.5841917497409234
 40
1.0
 40
1.0
 40
1.0
 40
1.0
 10
503.488284313267
 20
634.6760950586489
 30
0.0
 10
503.0439358994082
 20
634.8671772807154
 30
0.0
 10
502.283315068909
 20
635.1942654707682
 30
0.0
 10
501.4957005037274
 20
635.2314850092214
 30
0.0
 10
501.1682038695006
 20
635.2469612003812
 30
0.0
  0
ARC
  5
281
330
1F
100
AcDbEntity
  8
0
  6
Continuous
 62
     7
370
    25
100
AcDbCircle
 10
495.2751995423
 20
618.9969612004
 30
0.0
 40
17.70000000000005
100
AcDbArc
 50
57.6465635726
 51
62.3534364274
  0
SPLINE
  5
282
330
1F
100
AcDbEntity
  8
0
  6
Continuous
 62
     7
370
    25
100
AcDbSpline
210
0.0
220
0.0
230
1.0
 70
     8
 71
     3
 72
     9
 73
     5
 74
     0
 42
0.00000001
 43
0.00000001
 40
0.0
 40
0.0
 40
0.0
 40
0.0
 40
0.5850553834536193
 40
1.0
 40
1.0
 40
1.0
 40
1.0
 10
506.4016101902484
 20
632.2254526523187
 30
0.0
 10
506.1418352704396
 20
632.6119991778826
 30
0.0
 10
505.6978176147513
 20
633.2726999192073
 30
0.0
 10
505.0259664227189
 20
633.750858751333
 30
0.0
 10
504.7471853874648
 20
633.9492681845776
 30
0.0
  0
SPLINE
  5
283
330
1F
100
AcDbEntity
  8
0
  6
Continuous
 62
     7
370
    25
100
AcDbSpline
210
0.0
220
0.0
230
1.0
 70
    24
 71
     3
 72
    11
 73
     7
 74
     0
 42
0.00000001
 43
0.00000001
 40
0.0
 40
0.0
 40
0.0
 40
0.0
 40
0.2556279644380972
 40
0.5185037642963867
 40
0.7560467972580103
 40
1.0
 40
1.0
 40
1.0
 40
1.0
 10
512.2946145174147
 20
622.0184697484435
 30
0.0
 10
511.8033214391465
 20
622.8694143214111
 30
0.0
 10
510.8068056197025
 20
624.5954303512341
 30
0.0
 10
509.2865947132493
 20
627.2285128794315
 30
0.0
 10
507.7948789917011
 20
629.8122402996021
 30
0.0
 10
506.8701368281947
 20
631.4139407106965
 30
0.0
 10
506.4016101902484
 20
632.2254526523187
 30
0.0
  0
SPLINE
  5
284
330
1F
100
AcDbEntity
  8
0
  6
Continuous
 62
     7
370
    25
100
AcDbSpline
210
0.0
220
0.0
230
1.0
 70
     8
 71
     3
 72
     9
 73
     5
 74
     0
 42
0.00000001
 43
0.00000001
 40
0.0
 40
0.0
 40
0.0
 40
0.0
 40
0.5841917497409242
 40
1.0
 40
1.0
 40
1.0
 40
1.0
 10
512.9602701583973
 20
619.7237880744524
 30
0.0
 10
512.9035780099891
 20
620.2041462000186
 30
0.0
 10
512.8065342766031
 20
621.0264072569049
 30
0.0
 10
512.44496005983
 20
621.7271112479694
 30
0.0
 10
512.2946145174147
 20
622.0184697484435
 30
0.0
  0
ARC
  5
285
330
1F
100
AcDbEntity
  8
0
  6
Continuous
 62
     7
370
    25
100
AcDbCircle
 10
495.2751995423
 20
618.9969612004
 30
0.0
 40
17.70000000000003
100
AcDbArc
 50
357.6465635726
 51
2.3534364274
  0
SPLINE
  5
286
330
1F
100
AcDbEntity
  8
0
  6
Continuous
 62
     7
370
    25
100
AcDbSpline
210
0.0
220
0.0
230
1.0
 70
     8
 71
     3
 72
     9
 73
     5
 74
     0
 42
0.00000001
 43
0.00000001
 40
0.0
 40
0.0
 40
0.0
 40
0.0
 40
0.5850553834536182
 40
0.9999999999999999
 40
0.9999999999999999
 40
0.9999999999999999
 40
0.9999999999999999
 10
512.2946145174147
 20
615.9754526523187
 30
0.0
 10
512.4994861683931
 20
616.3936975949213
 30
0.0
 10
512.8496609668354
 20
617.1085785351385
 30
0.0
 10
512.9278330664839
 20
617.9294981510641
 30
0.0
 10
512.9602701583973
 20
618.27013432631
 30
0.0
  0
SPLINE
  5
287
330
1F
100
AcDbEntity
  8
0
  6
Continuous
 62
     7
370
    25
100
AcDbSpline
210
0.0
220
0.0
230
1.0
 70
    24
 71
     3
 72
    11
 73
     7
 74
     0
 42
0.00000001
 43
0.00000001
 40
0.0
 40
0.0
 40
0.0
 40
0.0
 40
0.2328716322111471
 40
0.471026502431323
 40
0.7311421212560296
 40
1.0
 40
1.0
 40
1.0
 40
1.0
 10
506.4016101902484
 20
605.7684697484435
 30
0.0
 10
506.8485384054086
 20
606.5425721244371
 30
0.0
 10
507.7525344483183
 20
608.1083392005979
 30
0.0
 10
509.2163708185998
 20
610.6437781678926
 30
0.0
 10
510.7599202738388
 20
613.3172842483617
 30
0.0
 10
511.7774442843319
 20
615.079687532457
 30
0.0
 10
512.2946145174147
 20
615.9754526523187
 30
0.0
  0
SPLINE
  5
288
330
1F
100
AcDbEntity
  8
0
  6
Continuous
 62
     7
370
    25
100
AcDbSpline
210
0.0
220
0.0
230
1.0
 70
     8
 71
     3
 72
     9
 73
     5
 74
     0
 42
0.00000001
 43
0.00000001
 40
0.0
 40
0.0
 40
0.0
 40
0.0
 40
0.5841917497409237
 40
1.0
 40
1.0
 40
1.0
 40
1.0
 10
504.7471853874648
 20
604.0446542161847
 30
0.0
 10
505.1348416529153
 20
604.3339301196844
 30
0.0
 10
505.7984187500285
 20
604.8291029865179
 30
0.0
 10
506.224459098437
 20
605.4925874391291
 30
0.0
 10
506.4016101902484
 20
605.7684697484435
 30
0.0
  0
ARC
  5
289
330
1F
100
AcDbEntity
  8
0
  6
Continuous
 62
     7
370
    25
100
AcDbCircle
 10
495.2751995423
 20
618.9969612004
 30
0.0
 40
17.7000000000001
100
AcDbArc
 50
297.6465635726
 51
302.3534364274
  0
SPLINE
  5
28A
330
1F
100
AcDbEntity
  8
0
  6
Continuous
 62
     7
370
    25
100
AcDbSpline
210
0.0
220
0.0
230
1.0
 70
     8
 71
     3
 72
     9
 73
     5
 74
     0
 42
0.00000001
 43
0.00000001
 40
0.0
 40
0.0
 40
0.0
 40
0.0
 40
0.5850553834536171
 40
1.0
 40
1.0
 40
1.0
 40
1.0
 10
501.1682038695006
 20
602.7469612003812
 30
0.0
 10
501.6328504402881
 20
602.7786596174199
 30
0.0
 10
502.4270428944185
 20
602.8328398163123
 30
0.0
 10
503.1770661860995
 20
603.1756006001124
 30
0.0
 10
503.4882843132669
 20
603.3178273421133
 30
0.0
  0
SPLINE
  5
28B
330
1F
100
AcDbEntity
  8
0
  6
Continuous
 62
     7
370
    25
100
AcDbSpline
210
0.0
220
0.0
230
1.0
 70
    24
 71
     3
 72
    11
 73
     7
 74
     0
 42
0.00000001
 43
0.00000001
 40
0.0
 40
0.0
 40
0.0
 40
0.0
 40
0.2328716322111485
 40
0.471026502431326
 40
0.7311421212560308
 40
1.0
 40
1.0
 40
1.0
 40
1.0
 10
489.3821952151682
 20
602.7469612003812
 30
0.0
 10
490.2760516454887
 20
602.7469612003812
 30
0.0
 10
492.084043731308
 20
602.7469612003812
 30
0.0
 10
495.0117164718709
 20
602.7469612003811
 30
0.0
 10
498.0988153823489
 20
602.7469612003812
 30
0.0
 10
500.1338634033351
 20
602.7469612003812
 30
0.0
 10
501.1682038695006
 20
602.7469612003812
 30
0.0
  0
SPLINE
  5
28C
330
1F
100
AcDbEntity
  8
0
  6
Continuous
 62
     7
370
    25
100
AcDbSpline
210
0.0
220
0.0
230
1.0
 70
     8
 71
     3
 72
     9
 73
     5
 74
     0
 42
0.00000001
 43
0.00000001
 40
0.0
 40
0.0
 40
0.0
 40
0.0
 40
0.5841917497409266
 40
1.0
 40
1.0
 40
1.0
 40
1.0
 10
487.062114771402
 20
603.3178273421133
 30
0.0
 10
487.5064631852607
 20
603.1267451200468
 30
0.0
 10
488.2670840157599
 20
602.7996569299941
 30
0.0
 10
489.0546985809415
 20
602.7624373915407
 30
0.0
 10
489.3821952151682
 20
602.7469612003812
 30
0.0
  0
ARC
  5
28D
330
1F
100
AcDbEntity
  8
0
  6
Continuous
 62
     7
370
    25
100
AcDbCircle
 10
495.2751995423
 20
618.9969612004
 30
0.0
 40
17.70000000000012
100
AcDbArc
 50
237.6465635726
 51
242.3534364274
  0
ARC
  5
28E
330
1F
100
AcDbEntity
  8
0
  6
Continuous
 62
     7
370
    25
100
AcDbCircle
 10
495.2751995423
 20
618.9969612004
 30
0.0
 40
16.20000000000004
100
AcDbArc
 50
223.9250761661
 51
136.0749238339
  0
LINE
  5
28F
330
1F
100
AcDbEntity
  8
0
  6
Continuous
 62
     7
370
    25
100
AcDbLine
 10
690.0314518554
 20
614.1219612004
 30
0.0
 11
689.4456499051
 21
615.3186826154
 31
0.0
  0
LINE
  5
290
330
1F
100
AcDbEntity
  8
0
  6
Continuous
 62
     7
370
    25
100
AcDbLine
 10
689.3710241789
 20
622.4864441064
 30
0.0
 11
689.4763093942
 21
622.7496237353
 31
0.0
  0
LWPOLYLINE
  5
291
330
1F
100
AcDbEntity
  8
0
  6
Continuous
 62
     7
370
    25
100
AcDbPolyline
 90
        3
 70
   128
 43
0.0
 10
691.2988475095
 20
612.3967739681
 10
691.1066411924
 20
612.6120690444
 10
690.0314518554
 20
614.1219612004
  0
ARC
  5
292
330
1F
100
AcDbEntity
  8
0
  6
Continuous
 62
     7
370
    25
100
AcDbCircle
 10
698.4751995423
 20
618.9969612004
 30
0.0
 40
14.87500000000004
100
AcDbArc
 50
55.1611835908
 51
308.4167037132
  0
ARC
  5
293
330
1F
100
AcDbEntity
  8
0
  6
Continuous
 62
     7
370
    25
100
AcDbCircle
 10
698.4751995423
 20
618.9969612004
 30
0.0
 40
10.57500000000009
100
AcDbArc
 50
84.5490172093
 51
281.0490866707
  0
ARC
  5
294
330
1F
100
AcDbEntity
  8
0
  6
Continuous
 62
     7
370
    25
100
AcDbCircle
 10
698.4751995423
 20
618.9969612004
 30
0.0
 40
16.20000000000009
100
AcDbArc
 50
210.0
 51
318.1420914366
  0
ARC
  5
295
330
1F
100
AcDbEntity
  8
0
  6
Continuous
 62
     7
370
    25
100
AcDbCircle
 10
698.4751995423
 20
618.9969612004
 30
0.0
 40
16.19999999999999
100
AcDbArc
 50
45.9729863763
 51
210.0
  0
SPLINE
  5
296
330
1F
100
AcDbEntity
  8
0
  6
Continuous
 62
     7
370
    25
100
AcDbSpline
210
0.0
220
0.0
230
1.0
 70
     8
 71
     3
 72
     9
 73
     5
 74
     0
 42
0.00000001
 43
0.00000001
 40
0.0
 40
0.0
 40
0.0
 40
0.0
 40
0.5850553834534097
 40
1.0
 40
1.0
 40
1.0
 40
1.0
 10
687.3487888944196
 20
605.7684697484449
 30
0.0
 10
687.6085638142285
 20
605.381923222881
 30
0.0
 10
688.0525814699168
 20
604.7212224815557
 30
0.0
 10
688.7244326619497
 20
604.2430636494296
 30
0.0
 10
689.0032136972042
 20
604.0446542161847
 30
0.0
  0
SPLINE
  5
297
330
1F
100
AcDbEntity
  8
0
  6
Continuous
 62
     7
370
    25
100
AcDbSpline
210
0.0
220
0.0
230
1.0
 70
    24
 71
     3
 72
    11
 73
     7
 74
     0
 42
0.00000001
 43
0.00000001
 40
0.0
 40
0.0
 40
0.0
 40
0.0
 40
0.2379053903768482
 40
0.4814905141303176
 40
0.7366519444348056
 40
0.9999999999999999
 40
0.9999999999999999
 40
0.9999999999999999
 40
0.9999999999999999
 10
681.4557845672541
 20
615.9754526523191
 30
0.0
 10
681.9125166780293
 20
615.1843694310081
 30
0.0
 10
682.8368848837629
 20
613.5833167337763
 30
0.0
 10
684.3132109762826
 20
611.0262449329925
 30
0.0
 10
685.845344360746
 20
608.3725120671293
 30
0.0
 10
686.8423933253925
 20
606.6455726027276
 30
0.0
 10
687.3487888944196
 20
605.7684697484449
 30
0.0
  0
SPLINE
  5
298
330
1F
100
AcDbEntity
  8
0
  6
Continuous
 62
     7
370
    25
100
AcDbSpline
210
0.0
220
0.0
230
1.0
 70
     8
 71
     3
 72
     9
 73
     5
 74
     0
 42
0.00000001
 43
0.00000001
 40
0.0
 40
0.0
 40
0.0
 40
0.0
 40
0.5841917497409942
 40
1.0
 40
1.0
 40
1.0
 40
1.0
 10
680.7901289262717
 20
618.27013432631
 30
0.0
 10
680.8468210746798
 20
617.7897762007436
 30
0.0
 10
680.9438648080659
 20
616.9675151438574
 30
0.0
 10
681.305439024839
 20
616.2668111527929
 30
0.0
 10
681.4557845672541
 20
615.9754526523191
 30
0.0
  0
ARC
  5
299
330
1F
100
AcDbEntity
  8
0
  6
Continuous
 62
     7
370
    25
100
AcDbCircle
 10
698.4751995423
 20
618.9969612004
 30
0.0
 40
17.70000000000003
100
AcDbArc
 50
177.6465635726
 51
182.3534364274
  0
SPLINE
  5
29A
330
1F
100
AcDbEntity
  8
0
  6
Continuous
 62
     7
370
    25
100
AcDbSpline
210
0.0
220
0.0
230
1.0
 70
     8
 71
     3
 72
     9
 73
     5
 74
     0
 42
0.00000001
 43
0.00000001
 40
0.0
 40
0.0
 40
0.0
 40
0.0
 40
0.5850553834536183
 40
1.0
 40
1.0
 40
1.0
 40
1.0
 10
681.4557845672543
 20
622.0184697484435
 30
0.0
 10
681.2509129162759
 20
621.6002248058411
 30
0.0
 10
680.9007381178336
 20
620.8853438656239
 30
0.0
 10
680.8225660181851
 20
620.064424249698
 30
0.0
 10
680.7901289262717
 20
619.7237880744524
 30
0.0
  0
SPLINE
  5
29B
330
1F
100
AcDbEntity
  8
0
  6
Continuous
 62
     7
370
    25
100
AcDbSpline
210
0.0
220
0.0
230
1.0
 70
    24
 71
     3
 72
    11
 73
     7
 74
     0
 42
0.00000001
 43
0.00000001
 40
0.0
 40
0.0
 40
0.0
 40
0.0
 40
0.2328716322111468
 40
0.4710265024313225
 40
0.7311421212560294
 40
1.0
 40
1.0
 40
1.0
 40
1.0
 10
687.3487888944205
 20
632.2254526523187
 30
0.0
 10
686.9018606792603
 20
631.4513502763251
 30
0.0
 10
685.9978646363508
 20
629.8855832001644
 30
0.0
 10
684.5340282660691
 20
627.3501442328698
 30
0.0
 10
682.9904788108302
 20
624.6766381524005
 30
0.0
 10
681.972954800337
 20
622.9142348683052
 30
0.0
 10
681.4557845672542
 20
622.0184697484435
 30
0.0
  0
SPLINE
  5
29C
330
1F
100
AcDbEntity
  8
0
  6
Continuous
 62
     7
370
    25
100
AcDbSpline
210
0.0
220
0.0
230
1.0
 70
     8
 71
     3
 72
     9
 73
     5
 74
     0
 42
0.00000001
 43
0.00000001
 40
0.0
 40
0.0
 40
0.0
 40
0.0
 40
0.584191749740925
 40
1.0
 40
1.0
 40
1.0
 40
1.0
 10
689.0032136972042
 20
633.9492681845776
 30
0.0
 10
688.6155574317536
 20
633.659992281078
 30
0.0
 10
687.9519803346404
 20
633.1648194142443
 30
0.0
 10
687.5259399862321
 20
632.5013349616331
 30
0.0
 10
687.3487888944205
 20
632.2254526523187
 30
0.0
  0
ARC
  5
29D
330
1F
100
AcDbEntity
  8
0
  6
Continuous
 62
     7
370
    25
100
AcDbCircle
 10
698.4751995423
 20
618.9969612004
 30
0.0
 40
17.70000000000002
100
AcDbArc
 50
117.6465635726
 51
122.3534364274
  0
SPLINE
  5
29E
330
1F
100
AcDbEntity
  8
0
  6
Continuous
 62
     7
370
    25
100
AcDbSpline
210
0.0
220
0.0
230
1.0
 70
     8
 71
     3
 72
     9
 73
     5
 74
     0
 42
0.00000001
 43
0.00000001
 40
0.0
 40
0.0
 40
0.0
 40
0.0
 40
0.5850553834536162
 40
1.0
 40
1.0
 40
1.0
 40
1.0
 10
692.5821952151683
 20
635.2469612003812
 30
0.0
 10
692.1175486443809
 20
635.2152627833425
 30
0.0
 10
691.3233561902505
 20
635.1610825844499
 30
0.0
 10
690.5733328985694
 20
634.8183218006499
 30
0.0
 10
690.262114771402
 20
634.6760950586489
 30
0.0
  0
SPLINE
  5
29F
330
1F
100
AcDbEntity
  8
0
  6
Continuous
 62
     7
370
    25
100
AcDbSpline
210
0.0
220
0.0
230
1.0
 70
    24
 71
     3
 72
    11
 73
     7
 74
     0
 42
0.00000001
 43
0.00000001
 40
0.0
 40
0.0
 40
0.0
 40
0.0
 40
0.2328716322111479
 40
0.4710265024313248
 40
0.7311421212560302
 40
0.9999999999999999
 40
0.9999999999999999
 40
0.9999999999999999
 40
0.9999999999999999
 10
704.3682038695007
 20
635.2469612003812
 30
0.0
 10
703.4743474391804
 20
635.2469612003812
 30
0.0
 10
701.6663553533609
 20
635.2469612003812
 30
0.0
 10
698.738682612798
 20
635.2469612003812
 30
0.0
 10
695.6515837023201
 20
635.2469612003812
 30
0.0
 10
693.6165356813339
 20
635.2469612003812
 30
0.0
 10
692.5821952151683
 20
635.2469612003812
 30
0.0
  0
SPLINE
  5
2A0
330
1F
100
AcDbEntity
  8
0
  6
Continuous
 62
     7
370
    25
100
AcDbSpline
210
0.0
220
0.0
230
1.0
 70
     8
 71
     3
 72
     9
 73
     5
 74
     0
 42
0.00000001
 43
0.00000001
 40
0.0
 40
0.0
 40
0.0
 40
0.0
 40
0.5841917497409234
 40
1.0
 40
1.0
 40
1.0
 40
1.0
 10
706.688284313267
 20
634.6760950586489
 30
0.0
 10
706.2439358994083
 20
634.8671772807154
 30
0.0
 10
705.4833150689091
 20
635.1942654707682
 30
0.0
 10
704.6957005037274
 20
635.2314850092214
 30
0.0
 10
704.3682038695007
 20
635.2469612003812
 30
0.0
  0
ARC
  5
2A1
330
1F
100
AcDbEntity
  8
0
  6
Continuous
 62
     7
370
    25
100
AcDbCircle
 10
698.4751995423
 20
618.9969612004
 30
0.0
 40
17.70000000000002
100
AcDbArc
 50
57.6465635726
 51
62.3534364274
  0
SPLINE
  5
2A2
330
1F
100
AcDbEntity
  8
0
  6
Continuous
 62
     7
370
    25
100
AcDbSpline
210
0.0
220
0.0
230
1.0
 70
     8
 71
     3
 72
     9
 73
     5
 74
     0
 42
0.00000001
 43
0.00000001
 40
0.0
 40
0.0
 40
0.0
 40
0.0
 40
0.5850553834536193
 40
1.0
 40
1.0
 40
1.0
 40
1.0
 10
709.6016101902485
 20
632.2254526523187
 30
0.0
 10
709.3418352704396
 20
632.6119991778826
 30
0.0
 10
708.8978176147514
 20
633.2726999192072
 30
0.0
 10
708.225966422719
 20
633.750858751333
 30
0.0
 10
707.9471853874649
 20
633.9492681845776
 30
0.0
  0
LINE
  5
2A3
330
1F
100
AcDbEntity
  8
0
  6
Continuous
 62
     7
370
    25
100
AcDbLine
 10
710.9166656497
 20
629.9477097819
 30
0.0
 11
709.6016101902
 21
632.2254526523
 31
0.0
  0
SPLINE
  5
2A4
330
1F
100
AcDbEntity
  8
0
  6
Continuous
 62
     7
370
    25
100
AcDbSpline
210
0.0
220
0.0
230
1.0
 70
    24
 71
     3
 72
     9
 73
     5
 74
     0
 42
0.00000001
 43
0.00000001
 40
0.0
 40
0.0
 40
0.0
 40
0.0
 40
0.7598805654552347
 40
1.0
 40
1.0
 40
1.0
 40
1.0
 10
709.6016101902485
 20
605.7684697484435
 30
0.0
 10
710.0466887622614
 20
606.53936844853
 30
0.0
 10
710.6324105088707
 20
607.5538682727555
 30
0.0
 10
711.2442750666158
 20
608.6136487741205
 30
0.0
 10
711.3911956382395
 20
608.8681226688498
 30
0.0
  0
SPLINE
  5
2A5
330
1F
100
AcDbEntity
  8
0
  6
Continuous
 62
     7
370
    25
100
AcDbSpline
210
0.0
220
0.0
230
1.0
 70
     8
 71
     3
 72
     9
 73
     5
 74
     0
 42
0.00000001
 43
0.00000001
 40
0.0
 40
0.0
 40
0.0
 40
0.0
 40
0.5841917497409237
 40
1.0
 40
1.0
 40
1.0
 40
1.0
 10
707.9471853874649
 20
604.0446542161845
 30
0.0
 10
708.3348416529154
 20
604.3339301196844
 30
0.0
 10
708.9984187500286
 20
604.8291029865179
 30
0.0
 10
709.424459098437
 20
605.4925874391291
 30
0.0
 10
709.6016101902485
 20
605.7684697484435
 30
0.0
  0
ARC
  5
2A6
330
1F
100
AcDbEntity
  8
0
  6
Continuous
 62
     7
370
    25
100
AcDbCircle
 10
698.4751995423
 20
618.9969612004
 30
0.0
 40
17.70000000000015
100
AcDbArc
 50
297.6465635726
 51
302.3534364274
  0
SPLINE
  5
2A7
330
1F
100
AcDbEntity
  8
0
  6
Continuous
 62
     7
370
    25
100
AcDbSpline
210
0.0
220
0.0
230
1.0
 70
     8
 71
     3
 72
     9
 73
     5
 74
     0
 42
0.00000001
 43
0.00000001
 40
0.0
 40
0.0
 40
0.0
 40
0.0
 40
0.5850553834536171
 40
1.0
 40
1.0
 40
1.0
 40
1.0
 10
704.3682038695007
 20
602.7469612003811
 30
0.0
 10
704.8328504402881
 20
602.7786596174199
 30
0.0
 10
705.6270428944185
 20
602.8328398163123
 30
0.0
 10
706.3770661860996
 20
603.1756006001124
 30
0.0
 10
706.688284313267
 20
603.3178273421133
 30
0.0
  0
SPLINE
  5
2A8
330
1F
100
AcDbEntity
  8
0
  6
Continuous
 62
     7
370
    25
100
AcDbSpline
210
0.0
220
0.0
230
1.0
 70
    24
 71
     3
 72
    11
 73
     7
 74
     0
 42
0.00000001
 43
0.00000001
 40
0.0
 40
0.0
 40
0.0
 40
0.0
 40
0.2328716322111485
 40
0.471026502431326
 40
0.7311421212560308
 40
1.0
 40
1.0
 40
1.0
 40
1.0
 10
692.5821952151683
 20
602.7469612003811
 30
0.0
 10
693.4760516454886
 20
602.7469612003811
 30
0.0
 10
695.2840437313081
 20
602.7469612003812
 30
0.0
 10
698.211716471871
 20
602.7469612003811
 30
0.0
 10
701.298815382349
 20
602.7469612003812
 30
0.0
 10
703.333863403335
 20
602.7469612003811
 30
0.0
 10
704.3682038695007
 20
602.7469612003811
 30
0.0
  0
SPLINE
  5
2A9
330
1F
100
AcDbEntity
  8
0
  6
Continuous
 62
     7
370
    25
100
AcDbSpline
210
0.0
220
0.0
230
1.0
 70
     8
 71
     3
 72
     9
 73
     5
 74
     0
 42
0.00000001
 43
0.00000001
 40
0.0
 40
0.0
 40
0.0
 40
0.0
 40
0.5841917497409266
 40
1.0
 40
1.0
 40
1.0
 40
1.0
 10
690.2621147714021
 20
603.3178273421133
 30
0.0
 10
690.7064631852608
 20
603.1267451200468
 30
0.0
 10
691.46708401576
 20
602.7996569299941
 30
0.0
 10
692.2546985809415
 20
602.7624373915407
 30
0.0
 10
692.5821952151683
 20
602.7469612003811
 30
0.0
  0
ARC
  5
2AA
330
1F
100
AcDbEntity
  8
0
  6
Continuous
 62
     7
370
    25
100
AcDbCircle
 10
698.4751995423
 20
618.9969612004
 30
0.0
 40
17.70000000000007
100
AcDbArc
 50
237.6465635726
 51
242.3534364274
  0
SPLINE
  5
2AB
330
1F
100
AcDbEntity
  8
0
  6
Continuous
 62
     7
370
    25
100
AcDbSpline
210
0.0
220
0.0
230
1.0
 70
    24
 71
     3
 72
    10
 73
     6
 74
     0
 42
0.00000001
 43
0.00000001
 40
0.0
 40
0.0
 40
0.0
 40
0.0
 40
0.1516742927762401
 40
0.573718668931815
 40
1.0
 40
1.0
 40
1.0
 40
1.0
 10
712.846565905804
 20
628.9192457168002
 30
0.0
 10
712.6241717737336
 20
629.3044436528511
 30
0.0
 10
711.7829503439568
 20
630.7614819096405
 30
0.0
 10
710.3309803252874
 20
633.2763677530426
 30
0.0
 10
709.1291273511798
 20
635.3580381674245
 30
0.0
 10
708.5251995423345
 20
636.4040718164483
 30
0.0
  0
SPLINE
  5
2AC
330
1F
100
AcDbEntity
  8
0
  6
Continuous
 62
     7
370
    25
100
AcDbSpline
210
0.0
220
0.0
230
1.0
 70
    24
 71
     3
 72
     9
 73
     5
 74
     0
 42
0.00000001
 43
0.00000001
 40
0.0
 40
0.0
 40
0.0
 40
0.0
 40
0.6197129473236728
 40
1.0
 40
1.0
 40
1.0
 40
1.0
 10
708.5251995423345
 20
601.5898505843139
 30
0.0
 10
709.3964475682893
 20
603.0988964312618
 30
0.0
 10
710.802337230136
 20
605.533968755416
 30
0.0
 10
712.256326192102
 20
608.0523515111855
 30
0.0
 10
712.809259369072
 20
609.0100598668879
 30
0.0
  0
SPLINE
  5
2AD
330
1F
100
AcDbEntity
  8
0
  6
Continuous
 62
     7
370
    25
100
AcDbSpline
210
0.0
220
0.0
230
1.0
 70
    24
 71
     3
 72
     9
 73
     5
 74
     0
 42
0.00000001
 43
0.00000001
 40
0.0
 40
0.0
 40
0.0
 40
0.0
 40
0.5881605129007254
 40
1.0
 40
1.0
 40
1.0
 40
1.0
 10
688.4251995423346
 20
601.5898505843139
 30
0.0
 10
690.1683225991525
 20
601.5898505843139
 30
0.0
 10
693.1320085634162
 20
601.5898505843139
 30
0.0
 10
696.1970537940277
 20
601.5898505843139
 30
0.0
 10
697.4593604497389
 20
601.5898505843139
 30
0.0
  0
SPLINE
  5
2AE
330
1F
100
AcDbEntity
  8
0
  6
Continuous
 62
     7
370
    25
100
AcDbSpline
210
0.0
220
0.0
230
1.0
 70
    24
 71
     3
 72
     9
 73
     5
 74
     0
 42
0.00000001
 43
0.00000001
 40
0.0
 40
0.0
 40
0.0
 40
0.0
 40
0.4345208978429723
 40
1.0
 40
1.0
 40
1.0
 40
1.0
 10
700.2062635664415
 20
601.5898505843139
 30
0.0
 10
701.4314691117072
 20
601.5898505843139
 30
0.0
 10
704.2511391237772
 20
601.5898505843139
 30
0.0
 10
706.9813323359818
 20
601.5898505843139
 30
0.0
 10
708.5251995423345
 20
601.5898505843139
 30
0.0
  0
SPLINE
  5
2AF
330
1F
100
AcDbEntity
  8
0
  6
Continuous
 62
     7
370
    25
100
AcDbSpline
210
0.0
220
0.0
230
1.0
 70
    24
 71
     3
 72
     9
 73
     5
 74
     0
 42
0.00000001
 43
0.00000001
 40
0.0
 40
0.0
 40
0.0
 40
0.0
 40
0.5290062514329625
 40
1.0
 40
1.0
 40
1.0
 40
1.0
 10
685.6922597649964
 20
606.3234411326897
 30
0.0
 10
686.1814738906821
 20
605.4760974112213
 30
0.0
 10
687.1062533698673
 20
603.8743323674755
 30
0.0
 10
688.0028895206002
 20
602.3213129985033
 30
0.0
 10
688.4251995423346
 20
601.5898505843139
 30
0.0
  0
SPLINE
  5
2B0
330
1F
100
AcDbEntity
  8
0
  6
Continuous
 62
     7
370
    25
100
AcDbSpline
210
0.0
220
0.0
230
1.0
 70
    24
 71
     3
 72
     9
 73
     5
 74
     0
 42
0.00000001
 43
0.00000001
 40
0.0
 40
0.0
 40
0.0
 40
0.0
 40
0.9659881130670709
 40
1.0
 40
1.0
 40
1.0
 40
1.0
 10
688.4251995423346
 20
636.4040718164483
 30
0.0
 10
687.5573920786138
 20
634.9009851980967
 30
0.0
 10
686.6590296122628
 20
633.3449757627637
 30
0.0
 10
685.729809872786
 20
631.7355199625939
 30
0.0
 10
685.698205356071
 20
631.680779333895
 30
0.0
  0
SPLINE
  5
2B1
330
1F
100
AcDbEntity
  8
0
  6
Continuous
 62
     7
370
    25
100
AcDbSpline
210
0.0
220
0.0
230
1.0
 70
    24
 71
     3
 72
     9
 73
     5
 74
     0
 42
0.00000001
 43
0.00000001
 40
0.0
 40
0.0
 40
0.0
 40
0.0
 40
0.6058510256477487
 40
1.0
 40
1.0
 40
1.0
 40
1.0
 10
708.5251995423345
 20
636.4040718164483
 30
0.0
 10
706.782428028544
 20
636.4040718164483
 30
0.0
 10
703.9058602915708
 20
636.4040718164483
 30
0.0
 10
700.9308929224128
 20
636.4040718164483
 30
0.0
 10
699.7583125851279
 20
636.4040718164483
 30
0.0
  0
SPLINE
  5
2B2
330
1F
100
AcDbEntity
  8
0
  6
Continuous
 62
     7
370
    25
100
AcDbSpline
210
0.0
220
0.0
230
1.0
 70
    24
 71
     3
 72
     9
 73
     5
 74
     0
 42
0.00000001
 43
0.00000001
 40
0.0
 40
0.0
 40
0.0
 40
0.0
 40
0.4538337404283768
 40
1.0
 40
1.0
 40
1.0
 40
1.0
 10
697.0418775555345
 20
636.4040718164483
 30
0.0
 10
695.7166957348849
 20
636.4040718164483
 30
0.0
 10
692.7967237217886
 20
636.4040718164483
 30
0.0
 10
689.9693924743293
 20
636.4040718164483
 30
0.0
 10
688.4251995423346
 20
636.4040718164483
 30
0.0
  0
SPLINE
  5
2B3
330
1F
100
AcDbEntity
  8
0
  6
Continuous
 62
     7
370
    25
100
AcDbSpline
210
0.0
220
0.0
230
1.0
 70
    24
 71
     3
 72
    10
 73
     6
 74
     0
 42
0.00000001
 43
0.00000001
 40
0.0
 40
0.0
 40
0.0
 40
0.0
 40
0.1444117226198174
 40
0.5700692474338062
 40
1.0
 40
1.0
 40
1.0
 40
1.0
 10
480.9411397155971
 20
609.0100598668877
 30
0.0
 10
481.1510803715465
 20
608.6464319842091
 30
0.0
 10
481.9798268858297
 20
607.2110009148751
 30
0.0
 10
483.4194001806462
 20
604.7175868270333
 30
0.0
 10
484.6212655199913
 20
602.6358949954316
 30
0.0
 10
485.2251995423345
 20
601.5898505843139
 30
0.0
  0
SPLINE
  5
2B4
330
1F
100
AcDbEntity
  8
0
  6
Continuous
 62
     7
370
    25
100
AcDbSpline
210
0.0
220
0.0
230
1.0
 70
    24
 71
     3
 72
     9
 73
     5
 74
     0
 42
0.00000001
 43
0.00000001
 40
0.0
 40
0.0
 40
0.0
 40
0.0
 40
0.5920686517903692
 40
1.0
 40
1.0
 40
1.0
 40
1.0
 10
485.2251995423345
 20
636.4040718164483
 30
0.0
 10
484.3536768448795
 20
634.894550224507
 30
0.0
 10
482.8816808274929
 20
632.3449783338544
 30
0.0
 10
481.3593397040935
 20
629.7082061616751
 30
0.0
 10
480.7383290371903
 20
628.6325841345565
 30
0.0
  0
SPLINE
  5
2B5
330
1F
100
AcDbEntity
  8
0
  6
Continuous
 62
     7
370
    25
100
AcDbSpline
210
0.0
220
0.0
230
1.0
 70
    24
 71
     3
 72
     9
 73
     5
 74
     0
 42
0.00000001
 43
0.00000001
 40
0.0
 40
0.0
 40
0.0
 40
0.0
 40
0.6162682864357912
 40
1.0
 40
1.0
 40
1.0
 40
1.0
 10
505.3251995423345
 20
636.4040718164483
 30
0.0
 10
503.5826350386769
 20
636.4040718164483
 30
0.0
 10
500.7550280661752
 20
636.4040718164483
 30
0.0
 10
497.8306847867848
 20
636.4040718164483
 30
0.0
 10
496.7085215291344
 20
636.4040718164483
 30
0.0
  0
SPLINE
  5
2B6
330
1F
100
AcDbEntity
  8
0
  6
Continuous
 62
     7
370
    25
100
AcDbSpline
210
0.0
220
0.0
230
1.0
 70
    24
 71
     3
 72
     9
 73
     5
 74
     0
 42
0.00000001
 43
0.00000001
 40
0.0
 40
0.0
 40
0.0
 40
0.0
 40
0.4630847895199843
 40
1.0
 40
1.0
 40
1.0
 40
1.0
 10
493.9920864995412
 20
636.4040718164483
 30
0.0
 10
492.6164589900046
 20
636.4040718164483
 30
0.0
 10
489.6458852621078
 20
636.4040718164483
 30
0.0
 10
486.7695485002426
 20
636.4040718164483
 30
0.0
 10
485.2251995423345
 20
636.4040718164483
 30
0.0
  0
SPLINE
  5
2B7
330
1F
100
AcDbEntity
  8
0
  6
Continuous
 62
     7
370
    25
100
AcDbSpline
210
0.0
220
0.0
230
1.0
 70
    24
 71
     3
 72
     9
 73
     5
 74
     0
 42
0.00000001
 43
0.00000001
 40
0.0
 40
0.0
 40
0.0
 40
0.0
 40
0.5286328760408042
 40
1.0
 40
1.0
 40
1.0
 40
1.0
 10
508.0559535268201
 20
631.6742671723481
 30
0.0
 10
507.5674737798996
 20
632.5203389124828
 30
0.0
 10
506.6434303292181
 20
634.1208291174644
 30
0.0
 10
505.7475079143305
 20
635.6726122596895
 30
0.0
 10
505.3251995423345
 20
636.4040718164483
 30
0.0
  0
SPLINE
  5
2B8
330
1F
100
AcDbEntity
  8
0
  6
Continuous
 62
     7
370
    25
100
AcDbSpline
210
0.0
220
0.0
230
1.0
 70
    24
 71
     3
 72
     9
 73
     5
 74
     0
 42
0.00000001
 43
0.00000001
 40
0.0
 40
0.0
 40
0.0
 40
0.0
 40
0.9651475940341748
 40
1.0
 40
1.0
 40
1.0
 40
1.0
 10
505.3251995423345
 20
601.5898505843139
 30
0.0
 10
506.1930153573848
 20
603.092951667593
 30
0.0
 10
507.0921688344432
 20
604.6503311736601
 30
0.0
 10
508.022206457331
 20
606.2612035894525
 30
0.0
 10
508.0546205061274
 20
606.3173463688469
 30
0.0
  0
SPLINE
  5
2B9
330
1F
100
AcDbEntity
  8
0
  6
Continuous
 62
     7
370
    25
100
AcDbSpline
210
0.0
220
0.0
230
1.0
 70
    24
 71
     3
 72
     9
 73
     5
 74
     0
 42
0.00000001
 43
0.00000001
 40
0.0
 40
0.0
 40
0.0
 40
0.0
 40
0.6380134089095435
 40
1.0
 40
1.0
 40
1.0
 40
1.0
 10
485.2251995423345
 20
601.5898505843139
 30
0.0
 10
486.9673319304113
 20
601.5898505843139
 30
0.0
 10
489.697889570343
 20
601.5898505843139
 30
0.0
 10
492.5218864973648
 20
601.5898505843139
 30
0.0
 10
493.5441355182274
 20
601.5898505843139
 30
0.0
  0
SPLINE
  5
2BA
330
1F
100
AcDbEntity
  8
0
  6
Continuous
 62
     7
370
    25
100
AcDbSpline
210
0.0
220
0.0
230
1.0
 70
    24
 71
     3
 72
     9
 73
     5
 74
     0
 42
0.00000001
 43
0.00000001
 40
0.0
 40
0.0
 40
0.0
 40
0.0
 40
0.4787933681683263
 40
1.0
 40
1.0
 40
1.0
 40
1.0
 10
496.2910386349301
 20
601.5898505843139
 30
0.0
 10
497.7564392560573
 20
601.5898505843139
 30
0.0
 10
500.8170510325597
 20
601.5898505843139
 30
0.0
 10
503.7805856474111
 20
601.5898505843139
 30
0.0
 10
505.3251995423345
 20
601.5898505843139
 30
0.0
  0
ARC
  5
2BB
330
1F
100
AcDbEntity
  8
0
  6
Continuous
 62
     7
370
    25
100
AcDbCircle
 10
495.2751995423
 20
618.9969612004
 30
0.0
 40
25.79999999999995
100
AcDbArc
 50
27.7177476896
 51
90.0
  0
ARC
  5
2BC
330
1F
100
AcDbEntity
  8
0
  6
Continuous
 62
     7
370
    25
100
AcDbCircle
 10
495.2751995423
 20
618.9969612004
 30
0.0
 40
25.80000000000003
100
AcDbArc
 50
191.8273896223
 51
332.2822523104
  0
ARC
  5
2BD
330
1F
100
AcDbEntity
  8
0
  6
Continuous
 62
     7
370
    25
100
AcDbCircle
 10
495.2751995423
 20
618.9969612004
 30
0.0
 40
25.8
100
AcDbArc
 50
90.0
 51
168.1084633881
  0
ARC
  5
2BE
330
1F
100
AcDbEntity
  8
0
  6
Continuous
 62
     7
370
    25
100
AcDbCircle
 10
698.4751995423
 20
618.9969612004
 30
0.0
 40
25.80000000000007
100
AcDbArc
 50
207.7177476896
 51
270.0
  0
ARC
  5
2BF
330
1F
100
AcDbEntity
  8
0
  6
Continuous
 62
     7
370
    25
100
AcDbCircle
 10
698.4751995423
 20
618.9969612004
 30
0.0
 40
25.80000000000004
100
AcDbArc
 50
12.355358281
 51
152.2822523104
  0
ARC
  5
2C0
330
1F
100
AcDbEntity
  8
0
  6
Continuous
 62
     7
370
    25
100
AcDbCircle
 10
698.4751995423
 20
618.9969612004
 30
0.0
 40
25.80000000000007
100
AcDbArc
 50
270.0
 51
348.9141211324
  0
SPLINE
  5
2C1
330
1F
100
AcDbEntity
  8
0
  6
Continuous
 62
     8
370
    25
100
AcDbSpline
210
0.0
220
0.0
230
1.0
 70
     8
 71
     3
 72
    16
 73
    12
 74
     0
 42
0.00000001
 43
0.00000001
 40
0.0
 40
0.0
 40
0.0
 40
0.0
 40
0.0961490818557367
 40
0.1898118314713863
 40
0.2837145723291145
 40
0.2938991301868718
 40
0.4289456490880268
 40
0.5643578936429551
 40
0.7523444602197986
 40
0.9406047997644947
 40
1.0
 40
1.0
 40
1.0
 40
1.0
 10
575.0948675714692
 20
618.9969612003812
 30
0.0
 10
575.1292917121082
 20
619.5275277147183
 30
0.0
 10
575.1972498148314
 20
620.5749407514319
 30
0.0
 10
575.7101366758478
 20
622.0398104686875
 30
0.0
 10
576.2095362863457
 20
622.9637629175845
 30
0.0
 10
576.8988931652685
 20
624.0067155291468
 30
0.0
 10
577.8318366403017
 20
625.1195706111637
 30
0.0
 10
579.5783047950679
 20
626.6276902210749
 30
0.0
 10
581.7209083910392
 20
627.9443742850067
 30
0.0
 10
583.6264385676652
 20
628.893388193482
 30
0.0
 10
584.7669297904915
 20
629.2076836485243
 30
0.0
 10
585.0404536721165
 20
629.2830610921378
 30
0.0
  0
SPLINE
  5
2C2
330
1F
100
AcDbEntity
  8
0
  6
Continuous
 62
     8
370
    25
100
AcDbSpline
210
0.0
220
0.0
230
1.0
 70
     8
 71
     3
 72
    21
 73
    17
 74
     0
 42
0.00000001
 43
0.00000001
 40
0.0
 40
0.0
 40
0.0
 40
0.0
 40
0.0663563158339427
 40
0.1658649658082602
 40
0.265207497561921
 40
0.3310728964868671
 40
0.3967595905559012
 40
0.481652255226674
 40
0.542255432907143
 40
0.5653486080949367
 40
0.6354345020703395
 40
0.6509793826393807
 40
0.7070400396849487
 40
0.7632636108295996
 40
0.8866965935532711
 40
1.0
 40
1.0
 40
1.0
 40
1.0
 10
606.1453217032887
 20
630.0139973870265
 30
0.0
 10
606.8197615787965
 20
629.8690358883127
 30
0.0
 10
608.5055987969262
 20
629.506688555953
 30
0.0
 10
611.103812748665
 20
628.4379214491082
 30
0.0
 10
613.5756583018346
 20
627.0542367649269
 30
0.0
 10
615.5525984202884
 20
625.4808922497676
 30
0.0
 10
617.1839071184428
 20
623.6859359221777
 30
0.0
 10
618.3770769121705
 20
621.487043426871
 30
0.0
 10
618.6985612318131
 20
619.4474960596109
 30
0.0
 10
618.5903457561222
 20
617.5984726702538
 30
0.0
 10
618.2055836032139
 20
616.3291182509604
 30
0.0
 10
617.4603520424536
 20
614.8631534693124
 30
0.0
 10
616.6237427622157
 20
613.6561714929616
 30
0.0
 10
614.7849389181897
 20
611.7873622542362
 30
0.0
 10
612.1438480433487
 20
609.9797761458964
 30
0.0
 10
609.8133315327408
 20
609.0946439475496
 30
0.0
 10
608.6979328381947
 20
608.6710145529313
 30
0.0
  0
SPLINE
  5
2C3
330
1F
100
AcDbEntity
  8
0
  6
Continuous
 62
     8
370
    25
100
AcDbSpline
210
0.0
220
0.0
230
1.0
 70
     8
 71
     3
 72
    15
 73
    11
 74
     0
 42
0.00000001
 43
0.00000001
 40
0.0
 40
0.0
 40
0.0
 40
0.0
 40
0.1470288848989916
 40
0.3452979151469482
 40
0.5430476916550921
 40
0.6556896590239909
 40
0.7680052823731757
 40
0.844972886296423
 40
0.9217575037793772
 40
1.0
 40
1.0
 40
1.0
 40
1.0
 10
587.6092191150444
 20
607.9755181469366
 30
0.0
 10
586.7989881605945
 20
608.1611380515291
 30
0.0
 10
584.8961575735891
 20
608.5970671283878
 30
0.0
 10
582.0262250632438
 20
609.8390238034799
 30
0.0
 10
579.4935191827844
 20
611.4033348655146
 30
0.0
 10
577.6144113319547
 20
613.0995235532076
 30
0.0
 10
576.4547237984387
 20
614.5569056960866
 30
0.0
 10
575.6732844376409
 20
616.0427406184941
 30
0.0
 10
575.1904979503727
 20
617.470061478839
 30
0.0
 10
575.1269435866963
 20
618.4848137083403
 30
0.0
 10
575.0948675714692
 20
618.9969612003812
 30
0.0
  0
SPLINE
  5
2C4
330
1F
100
AcDbEntity
  8
0
  6
Continuous
 62
     8
370
    25
100
AcDbSpline
210
0.0
220
0.0
230
1.0
 70
     8
 71
     3
 72
    13
 73
     9
 74
     0
 42
0.00000001
 43
0.00000001
 40
0.0
 40
0.0
 40
0.0
 40
0.0
 40
0.246873581239535
 40
0.4413811989636142
 40
0.6398169724544361
 40
0.7569724566612596
 40
0.8777345843649657
 40
1.0
 40
1.0
 40
1.0
 40
1.0
 10
675.8619291021703
 20
626.1969612003811
 30
0.0
 10
676.5127609780417
 20
626.8575773146686
 30
0.0
 10
677.6763725409052
 20
628.0386819558166
 30
0.0
 10
679.4521229717068
 20
629.3034656571608
 30
0.0
 10
680.791348609364
 20
630.1165956312786
 30
0.0
 10
681.7436045899973
 20
630.6268303123957
 30
0.0
 10
682.3680481433083
 20
630.9367870227308
 30
0.0
 10
682.4339137457265
 20
630.967749665983
 30
0.0
 10
682.4670502583418
 20
630.9833267499398
 30
0.0
  0
SPLINE
  5
2C5
330
1F
100
AcDbEntity
  8
0
  6
Continuous
 62
     8
370
    25
100
AcDbSpline
210
0.0
220
0.0
230
1.0
 70
     8
 71
     3
 72
    13
 73
     9
 74
     0
 42
0.00000001
 43
0.00000001
 40
0.0
 40
0.0
 40
0.0
 40
0.0
 40
0.0616988709538129
 40
0.2371847626742214
 40
0.2807307886799653
 40
0.487411842866282
 40
0.6949099454175248
 40
0.9999999999999999
 40
0.9999999999999999
 40
0.9999999999999999
 40
0.9999999999999999
 10
682.4938186594944
 20
606.9976312293577
 30
0.0
 10
682.4817115341839
 20
607.0034206422403
 30
0.0
 10
682.4351689378766
 20
607.0256764874339
 30
0.0
 10
682.003160018523
 20
607.2349655097411
 30
0.0
 10
681.1516347190802
 20
607.681336968584
 30
0.0
 10
680.019745236043
 20
608.3305586807668
 30
0.0
 10
678.0288330535984
 20
609.6465675317266
 30
0.0
 10
676.6704388989871
 20
610.9946116790865
 30
0.0
 10
675.8619291021703
 20
611.796961200381
 30
0.0
  0
SPLINE
  5
2C6
330
1F
100
AcDbEntity
  8
0
  6
Continuous
 62
     8
370
    25
100
AcDbSpline
210
0.0
220
0.0
230
1.0
 70
     8
 71
     3
 72
    14
 73
    10
 74
     0
 42
0.00000001
 43
0.00000001
 40
0.0
 40
0.0
 40
0.0
 40
0.0
 40
0.0338406719493978
 40
0.1227065900592135
 40
0.2392973242781097
 40
0.3605097605622855
 40
0.5545600826377888
 40
0.7532538867057824
 40
1.0
 40
1.0
 40
1.0
 40
1.0
 10
511.3071778208531
 20
630.9718764509759
 30
0.0
 10
511.2906300007549
 20
630.9798691705378
 30
0.0
 10
511.2306274517451
 20
631.0088508457301
 30
0.0
 10
511.4838639449485
 20
630.8872138262682
 30
0.0
 10
511.984272671068
 20
630.6378107290082
 30
0.0
 10
512.945383103452
 20
630.1250399385249
 30
0.0
 10
514.2840302013602
 20
629.3122994147029
 30
0.0
 10
516.0633902588326
 20
628.0496076588674
 30
0.0
 10
517.2378770662511
 20
626.8573809325023
 30
0.0
 10
517.88846998249
 20
626.1969612003908
 30
0.0
  0
SPLINE
  5
2C7
330
1F
100
AcDbEntity
  8
0
  6
Continuous
 62
     8
370
    25
100
AcDbSpline
210
0.0
220
0.0
230
1.0
 70
     8
 71
     3
 72
    13
 73
     9
 74
     0
 42
0.00000001
 43
0.00000001
 40
0.0
 40
0.0
 40
0.0
 40
0.0
 40
0.3086570593896741
 40
0.5142462440525061
 40
0.7190373955263313
 40
0.8855430685586471
 40
0.9382954799300373
 40
1.0
 40
1.0
 40
1.0
 40
1.0
 10
517.8884699824987
 20
611.796961200381
 30
0.0
 10
517.0698041018303
 20
610.9857180877328
 30
0.0
 10
515.7058441940281
 20
609.6341250785928
 30
0.0
 10
513.7165595396093
 20
608.3219923256911
 30
0.0
 10
512.2914409133682
 20
607.5064090077333
 30
0.0
 10
511.5411258735251
 20
607.1351782568171
 30
0.0
 10
511.2891040406359
 20
607.0131557779831
 30
0.0
 10
511.2679575419864
 20
607.0030618334911
 30
0.0
 10
511.2565573189164
 20
606.9976201184927
 30
0.0
  0
LINE
  5
2C8
330
1F
100
AcDbEntity
  8
0
  6
Continuous
 62
     8
370
    25
100
AcDbLine
 10
588.815965695
 20
611.4226001733
 30
0.0
 11
588.9751995423
 21
611.2566643602
 31
0.0
  0
ARC
  5
2C9
330
1F
100
AcDbEntity
  8
0
  6
Continuous
 62
     8
370
    25
100
AcDbCircle
 10
596.8751995423
 20
618.9969612004
 30
0.0
 40
11.05993649053892
100
AcDbArc
 50
315.5850271977
 51
223.2235523034
  0
ARC
  5
2CA
330
1F
100
AcDbEntity
  8
0
  6
Continuous
 62
     8
370
    25
100
AcDbCircle
 10
596.8751995423
 20
618.9969612004
 30
0.0
 40
11.30993649053895
100
AcDbArc
 50
314.3068486059
 51
225.6931513941
  0
LINE
  5
2CB
330
1F
100
AcDbEntity
  8
0
  6
Continuous
 62
     8
370
    25
100
AcDbLine
 10
604.7751995423
 20
606.6312248905
 30
0.0
 11
605.032458401
 21
606.7378930093
 31
0.0
  0
ARC
  5
2CC
330
1F
100
AcDbEntity
  8
0
  6
Continuous
 62
     8
370
    25
100
AcDbCircle
 10
588.7177090355
 20
607.081906975
 30
0.0
 40
0.3529502268474549
100
AcDbArc
 50
279.5385256861
 51
316.8476542184
  0
ARC
  5
2CD
330
1F
100
AcDbEntity
  8
0
  6
Continuous
 62
     8
370
    25
100
AcDbCircle
 10
596.8751995423
 20
618.9969612004
 30
0.0
 40
9.374999999999927
100
AcDbArc
 50
327.4227936768
 51
212.5772063232
  0
LWPOLYLINE
  5
2CE
330
1F
100
AcDbEntity
  8
0
  6
Continuous
 62
     8
370
    25
100
AcDbPolyline
 90
       16
 70
   128
 43
0.0
 10
588.9751995423
 20
361.323973112
 10
589.0215096808
 20
361.6248015971
 10
589.38873949
 20
362.2123921619
 10
590.1060278506
 20
362.7584412392
 10
591.1398351561
 20
363.2374161812
 10
592.441821726
 20
363.626920652
 10
593.9511081151
 20
363.9087418553
 10
595.5971217696
 20
364.069702145
 10
597.3028969202
 20
364.1022751967
 10
598.9886734167
 20
364.0049379308
 10
600.5756262239
 20
363.7822417296
 10
601.9895511921
 20
363.4445996201
 10
603.1643347614
 20
363.0077993719
 10
604.0450453577
 20
362.4922652793
 10
604.5905019324
 20
361.9221031434
 10
604.7751995423
 20
361.323973112
  0
LWPOLYLINE
  5
2CF
330
1F
100
AcDbEntity
  8
0
  6
Continuous
 62
     8
370
    25
100
AcDbPolyline
 90
       16
 70
   128
 43
0.0
 10
588.9751995423
 20
596.323973112
 10
589.0215096808
 20
596.6248015971
 10
589.38873949
 20
597.2123921619
 10
590.1060278506
 20
597.7584412392
 10
591.1398351561
 20
598.2374161812
 10
592.441821726
 20
598.626920652
 10
593.9511081151
 20
598.9087418553
 10
595.5971217696
 20
599.069702145
 10
597.3028969202
 20
599.1022751967
 10
598.9886734167
 20
599.0049379308
 10
600.5756262239
 20
598.7822417296
 10
601.9895511921
 20
598.4445996201
 10
603.1643347614
 20
598.0077993719
 10
604.0450453577
 20
597.4922652793
 10
604.5905019324
 20
596.9221031434
 10
604.7751995423
 20
596.323973112
  0
ARC
  5
2D0
330
1F
100
AcDbEntity
  8
0
  6
Continuous
 62
     8
370
    25
100
AcDbCircle
 10
596.8751995423
 20
313.9969612004
 30
0.0
 40
8.410472292019506
100
AcDbArc
 50
159.9351921799
 51
270.0
  0
ARC
  5
2D1
330
1F
100
AcDbEntity
  8
0
  6
Continuous
 62
     8
370
    25
100
AcDbCircle
 10
596.8751995423
 20
313.9969612004
 30
0.0
 40
8.410472292019506
100
AcDbArc
 50
270.0
 51
20.0648078201
  0
ARC
  5
2D2
330
1F
100
AcDbEntity
  8
0
  6
Continuous
 62
     8
370
    25
100
AcDbCircle
 10
495.2751995423
 20
618.9969612004
 30
0.0
 40
24.80000000000003
100
AcDbArc
 50
90.0
 51
167.1597533419
  0
ARC
  5
2D3
330
1F
100
AcDbEntity
  8
0
  6
Continuous
 62
     8
370
    25
100
AcDbCircle
 10
495.2751995423
 20
618.9969612004
 30
0.0
 40
24.80000000000002
100
AcDbArc
 50
192.8474248147
 51
331.0614722598
  0
ARC
  5
2D4
330
1F
100
AcDbEntity
  8
0
  6
Continuous
 62
     8
370
    25
100
AcDbCircle
 10
495.2751995423
 20
618.9969612004
 30
0.0
 40
24.80000000000001
100
AcDbArc
 50
28.9385277402
 51
90.0
  0
ARC
  5
2D5
330
1F
100
AcDbEntity
  8
0
  6
Continuous
 62
     8
370
    25
100
AcDbCircle
 10
698.4751995423
 20
618.9969612004
 30
0.0
 40
24.80000000000007
100
AcDbArc
 50
270.0
 51
347.7891131326
  0
ARC
  5
2D6
330
1F
100
AcDbEntity
  8
0
  6
Continuous
 62
     8
370
    25
100
AcDbCircle
 10
698.4751995423
 20
618.9969612004
 30
0.0
 40
24.80000000000002
100
AcDbArc
 50
13.4605379577
 51
151.0614722598
  0
ARC
  5
2D7
330
1F
100
AcDbEntity
  8
0
  6
Continuous
 62
     8
370
    25
100
AcDbCircle
 10
698.4751995423
 20
618.9969612004
 30
0.0
 40
24.80000000000007
100
AcDbArc
 50
208.9385277402
 51
270.0
  0
ENDSEC
  0
SECTION
  2
OBJECTS
  0
DICTIONARY
  5
C
330
0
100
AcDbDictionary
281
     1
  3
ACAD_GROUP
350
D
  3
ACAD_LAYOUT
350
1A
  3
ACAD_MLINESTYLE
350
17
  3
ACAD_PLOTSETTINGS
350
19
  3
ACAD_PLOTSTYLENAME
350
E
  3
ACAD_SCALELIST
350
47
  3
DWGPROPS
350
2D8
  0
DICTIONARY
  5
D
102
{ACAD_REACTORS
330
C
102
}
330
C
100
AcDbDictionary
281
     1
  0
DICTIONARY
  5
1A
102
{ACAD_REACTORS
330
C
102
}
330
C
100
AcDbDictionary
281
     1
  3
Layout1
350
1E
  3
Layout2
350
26
  3
Model
350
22
  0
DICTIONARY
  5
17
102
{ACAD_REACTORS
330
C
102
}
330
C
100
AcDbDictionary
281
     1
  3
Standard
350
18
  0
DICTIONARY
  5
19
102
{ACAD_REACTORS
330
C
102
}
330
C
100
AcDbDictionary
281
     1
  0
ACDBDICTIONARYWDFLT
  5
E
102
{ACAD_REACTORS
330
C
102
}
330
C
100
AcDbDictionary
281
     1
  3
Normal
350
F
100
AcDbDictionaryWithDefault
340
F
  0
DICTIONARY
  5
47
102
{ACAD_REACTORS
330
C
102
}
330
C
100
AcDbDictionary
281
     1
  3
A0
350
48
  3
A1
350
49
  3
A2
350
4A
  3
A3
350
4B
  3
A4
350
4C
  3
A5
350
4D
  3
A6
350
4E
  3
A7
350
4F
  3
A8
350
50
  3
A9
350
51
  3
B0
350
52
  3
B1
350
53
  3
B2
350
54
  3
B3
350
55
  3
B4
350
56
  3
B5
350
57
  3
B6
350
58
  3
B7
350
59
  3
B8
350
5A
  3
B9
350
5B
  3
C0
350
5C
  3
C1
350
5D
  3
C2
350
5E
  3
C3
350
5F
  3
C4
350
60
  3
C5
350
61
  3
C6
350
62
  3
C7
350
63
  3
C8
350
64
  3
C9
350
65
  3
D0
350
66
  3
D1
350
67
  3
D2
350
68
  0
XRECORD
  5
2D8
102
{ACAD_REACTORS
330
C
102
}
330
C
100
AcDbXrecord
280
     1
  1
DWGPROPS COOKIE
  2

  3

  4

  6

  7

  8
designer5
  9

300
=
301
=
302
=
303
=
304
=
305
=
306
=
307
=
308
=
309
=
 40
0.0
 41
2460383.223448796
 42
2460383.223449259
  1

 90
        0
  0
LAYOUT
  5
1E
102
{ACAD_REACTORS
330
1A
102
}
330
1A
100
AcDbPlotSettings
  1

  2
none_device
  4

  6

 40
0.0
 41
0.0
 42
0.0
 43
0.0
 44
0.0
 45
0.0
 46
0.0
 47
0.0
 48
0.0
 49
0.0
140
0.0
141
0.0
142
1.0
143
1.0
 70
   688
 72
     1
 73
     0
 74
     5
  7

 75
    16
147
1.0
148
0.0
149
0.0
100
AcDbLayout
  1
Layout1
 70
     1
 71
     1
 10
0.0
 20
0.0
 11
420.0
 21
297.0
 12
0.0
 22
0.0
 32
0.0
 14
1.0000000000E+20
 24
1.0000000000E+20
 34
1.0000000000E+20
 15
-1.0000000000E+20
 25
-1.0000000000E+20
 35
-1.0000000000E+20
146
0.0
 13
0.0
 23
0.0
 33
0.0
 16
1.0
 26
0.0
 36
0.0
 17
0.0
 27
1.0
 37
0.0
 76
     0
330
1B
  0
LAYOUT
  5
26
102
{ACAD_REACTORS
330
1A
102
}
330
1A
100
AcDbPlotSettings
  1

  2
none_device
  4

  6

 40
0.0
 41
0.0
 42
0.0
 43
0.0
 44
0.0
 45
0.0
 46
0.0
 47
0.0
 48
0.0
 49
0.0
140
0.0
141
0.0
142
1.0
143
1.0
 70
   688
 72
     1
 73
     0
 74
     5
  7

 75
    16
147
1.0
148
0.0
149
0.0
100
AcDbLayout
  1
Layout2
 70
     1
 71
     2
 10
0.0
 20
0.0
 11
0.0
 21
0.0
 12
0.0
 22
0.0
 32
0.0
 14
0.0
 24
0.0
 34
0.0
 15
0.0
 25
0.0
 35
0.0
146
0.0
 13
0.0
 23
0.0
 33
0.0
 16
1.0
 26
0.0
 36
0.0
 17
0.0
 27
1.0
 37
0.0
 76
     0
330
23
  0
LAYOUT
  5
22
102
{ACAD_REACTORS
330
1A
102
}
330
1A
100
AcDbPlotSettings
  1

  2
none_device
  4
Letter_(8.50_x_11.00_Inches)
  6

 40
6.35
 41
6.35
 42
6.35000508
 43
6.35000508
 44
215.9
 45
279.4
 46
0.0
 47
0.0
 48
0.0
 49
0.0
140
0.0
141
0.0
142
1.0
143
1.0
 70
  1712
 72
     1
 73
     0
 74
     0
  7

 75
     0
147
1.0
148
0.0
149
0.0
100
AcDbLayout
  1
Model
 70
     1
 71
     0
 10
0.0
 20
0.0
 11
1189.0
 21
841.0
 12
0.0
 22
0.0
 32
0.0
 14
0.0
 24
0.0
 34
0.0
 15
1189.0
 25
841.0
 35
0.0
146
0.0
 13
0.0
 23
0.0
 33
0.0
 16
1.0
 26
0.0
 36
0.0
 17
0.0
 27
1.0
 37
0.0
 76
     0
330
1F
331
29
  0
MLINESTYLE
  5
18
102
{ACAD_REACTORS
330
17
102
}
330
17
100
AcDbMlineStyle
  2
Standard
 70
     0
  3

 62
   256
 51
90.0
 52
90.0
 71
     2
 49
0.5
 62
   256
  6
BYLAYER
 49
-0.5
 62
   256
  6
BYLAYER
  0
ACDBPLACEHOLDER
  5
F
102
{ACAD_REACTORS
330
E
102
}
330
E
  0
SCALE
  5
48
102
{ACAD_REACTORS
330
47
102
}
330
47
100
AcDbScale
 70
     0
300
1:1
140
1.0
141
1.0
290
     1
  0
SCALE
  5
49
102
{ACAD_REACTORS
330
47
102
}
330
47
100
AcDbScale
 70
     0
300
1:2
140
1.0
141
2.0
290
     0
  0
SCALE
  5
4A
102
{ACAD_REACTORS
330
47
102
}
330
47
100
AcDbScale
 70
     0
300
1:4
140
1.0
141
4.0
290
     0
  0
SCALE
  5
4B
102
{ACAD_REACTORS
330
47
102
}
330
47
100
AcDbScale
 70
     0
300
1:5
140
1.0
141
5.0
290
     0
  0
SCALE
  5
4C
102
{ACAD_REACTORS
330
47
102
}
330
47
100
AcDbScale
 70
     0
300
1:8
140
1.0
141
8.0
290
     0
  0
SCALE
  5
4D
102
{ACAD_REACTORS
330
47
102
}
330
47
100
AcDbScale
 70
     0
300
1:10
140
1.0
141
10.0
290
     0
  0
SCALE
  5
4E
102
{ACAD_REACTORS
330
47
102
}
330
47
100
AcDbScale
 70
     0
300
1:16
140
1.0
141
16.0
290
     0
  0
SCALE
  5
4F
102
{ACAD_REACTORS
330
47
102
}
330
47
100
AcDbScale
 70
     0
300
1:20
140
1.0
141
20.0
290
     0
  0
SCALE
  5
50
102
{ACAD_REACTORS
330
47
102
}
330
47
100
AcDbScale
 70
     0
300
1:30
140
1.0
141
30.0
290
     0
  0
SCALE
  5
51
102
{ACAD_REACTORS
330
47
102
}
330
47
100
AcDbScale
 70
     0
300
1:40
140
1.0
141
40.0
290
     0
  0
SCALE
  5
52
102
{ACAD_REACTORS
330
47
102
}
330
47
100
AcDbScale
 70
     0
300
1:50
140
1.0
141
50.0
290
     0
  0
SCALE
  5
53
102
{ACAD_REACTORS
330
47
102
}
330
47
100
AcDbScale
 70
     0
300
1:100
140
1.0
141
100.0
290
     0
  0
SCALE
  5
54
102
{ACAD_REACTORS
330
47
102
}
330
47
100
AcDbScale
 70
     0
300
2:1
140
2.0
141
1.0
290
     0
  0
SCALE
  5
55
102
{ACAD_REACTORS
330
47
102
}
330
47
100
AcDbScale
 70
     0
300
4:1
140
4.0
141
1.0
290
     0
  0
SCALE
  5
56
102
{ACAD_REACTORS
330
47
102
}
330
47
100
AcDbScale
 70
     0
300
8:1
140
8.0
141
1.0
290
     0
  0
SCALE
  5
57
102
{ACAD_REACTORS
330
47
102
}
330
47
100
AcDbScale
 70
     0
300
10:1
140
10.0
141
1.0
290
     0
  0
SCALE
  5
58
102
{ACAD_REACTORS
330
47
102
}
330
47
100
AcDbScale
 70
     0
300
100:1
140
100.0
141
1.0
290
     0
  0
SCALE
  5
59
102
{ACAD_REACTORS
330
47
102
}
330
47
100
AcDbScale
 70
     0
300
1/128" = 1'-0"
140
0.0078125
141
12.0
290
     0
  0
SCALE
  5
5A
102
{ACAD_REACTORS
330
47
102
}
330
47
100
AcDbScale
 70
     0
300
1/64" = 1'-0"
140
0.015625
141
12.0
290
     0
  0
SCALE
  5
5B
102
{ACAD_REACTORS
330
47
102
}
330
47
100
AcDbScale
 70
     0
300
1/32" = 1'-0"
140
0.03125
141
12.0
290
     0
  0
SCALE
  5
5C
102
{ACAD_REACTORS
330
47
102
}
330
47
100
AcDbScale
 70
     0
300
1/16" = 1'-0"
140
0.0625
141
12.0
290
     0
  0
SCALE
  5
5D
102
{ACAD_REACTORS
330
47
102
}
330
47
100
AcDbScale
 70
     0
300
3/32" = 1'-0"
140
0.09375
141
12.0
290
     0
  0
SCALE
  5
5E
102
{ACAD_REACTORS
330
47
102
}
330
47
100
AcDbScale
 70
     0
300
1/8" = 1'-0"
140
0.125
141
12.0
290
     0
  0
SCALE
  5
5F
102
{ACAD_REACTORS
330
47
102
}
330
47
100
AcDbScale
 70
     0
300
3/16" = 1'-0"
140
0.1875
141
12.0
290
     0
  0
SCALE
  5
60
102
{ACAD_REACTORS
330
47
102
}
330
47
100
AcDbScale
 70
     0
300
1/4" = 1'-0"
140
0.25
141
12.0
290
     0
  0
SCALE
  5
61
102
{ACAD_REACTORS
330
47
102
}
330
47
100
AcDbScale
 70
     0
300
3/8" = 1'-0"
140
0.375
141
12.0
290
     0
  0
SCALE
  5
62
102
{ACAD_REACTORS
330
47
102
}
330
47
100
AcDbScale
 70
     0
300
1/2" = 1'-0"
140
0.5
141
12.0
290
     0
  0
SCALE
  5
63
102
{ACAD_REACTORS
330
47
102
}
330
47
100
AcDbScale
 70
     0
300
3/4" = 1'-0"
140
0.75
141
12.0
290
     0
  0
SCALE
  5
64
102
{ACAD_REACTORS
330
47
102
}
330
47
100
AcDbScale
 70
     0
300
1" = 1'-0"
140
1.0
141
12.0
290
     0
  0
SCALE
  5
65
102
{ACAD_REACTORS
330
47
102
}
330
47
100
AcDbScale
 70
     0
300
1-1/2" = 1'-0"
140
1.5
141
12.0
290
     0
  0
SCALE
  5
66
102
{ACAD_REACTORS
330
47
102
}
330
47
100
AcDbScale
 70
     0
300
3" = 1'-0"
140
3.0
141
12.0
290
     0
  0
SCALE
  5
67
102
{ACAD_REACTORS
330
47
102
}
330
47
100
AcDbScale
 70
     0
300
6" = 1'-0"
140
6.0
141
12.0
290
     0
  0
SCALE
  5
68
102
{ACAD_REACTORS
330
47
102
}
330
47
100
AcDbScale
 70
     0
300
1'-0" = 1'-0"
140
12.0
141
12.0
290
     0
  0
ENDSEC
  0
EOF
