  0
SECTION
  2
HEADER
  9
$ACADVER
  1
AC1015
  9
$ACADMAINTVER
 70
     6
  9
$DWGCODEPAGE
  3
ANSI_1252
  9
$INSBASE
 10
0.0
 20
0.0
 30
0.0
  9
$EXTMIN
 10
0.0
 20
0.0
 30
0.0
  9
$EXTMAX
 10
1189.0
 20
841.0
 30
0.0
  9
$LIMMIN
 10
0.0
 20
0.0
  9
$LIMMAX
 10
1189.0
 20
841.0
  9
$ORTHOMODE
 70
     0
  9
$REGENMODE
 70
     1
  9
$FILLMODE
 70
     1
  9
$QTEXTMODE
 70
     0
  9
$MIRRTEXT
 70
     1
  9
$LTSCALE
 40
1.0
  9
$ATTMODE
 70
     1
  9
$TEXTSIZE
 40
3.5
  9
$TRACEWID
 40
1.0
  9
$TEXTSTYLE
  7
Standard
  9
$CLAYER
  8
0
  9
$CELTYPE
  6
ByLayer
  9
$CECOLOR
 62
   256
  9
$CELTSCALE
 40
1.0
  9
$DISPSILH
 70
     0
  9
$DIMSCALE
 40
1.0
  9
$DIMASZ
 40
3.302
  9
$DIMEXO
 40
1.0
  9
$DIMDLI
 40
3.75
  9
$DIMRND
 40
0.0
  9
$DIMDLE
 40
0.0
  9
$DIMEXE
 40
1.0
  9
$DIMTP
 40
0.0
  9
$DIMTM
 40
0.0
  9
$DIMTXT
 40
3.5
  9
$DIMCEN
 40
2.5
  9
$DIMTSZ
 40
0.0
  9
$DIMTOL
 70
     0
  9
$DIMLIM
 70
     0
  9
$DIMTIH
 70
     1
  9
$DIMTOH
 70
     1
  9
$DIMSE1
 70
     0
  9
$DIMSE2
 70
     0
  9
$DIMTAD
 70
     1
  9
$DIMZIN
 70
     1
  9
$DIMBLK
  1

  9
$DIMASO
 70
     1
  9
$DIMSHO
 70
     1
  9
$DIMPOST
  1

  9
$DIMAPOST
  1

  9
$DIMALT
 70
     0
  9
$DIMALTD
 70
     3
  9
$DIMALTF
 40
0.0393700787
  9
$DIMLFAC
 40
2.0
  9
$DIMTOFL
 70
     1
  9
$DIMTVP
 40
0.0
  9
$DIMTIX
 70
     0
  9
$DIMSOXD
 70
     0
  9
$DIMSAH
 70
     0
  9
$DIMBLK1
  1

  9
$DIMBLK2
  1

  9
$DIMSTYLE
  2
ISO-25
  9
$DIMCLRD
 70
     0
  9
$DIMCLRE
 70
     0
  9
$DIMCLRT
 70
     0
  9
$DIMTFAC
 40
1.0
  9
$DIMGAP
 40
1.524
  9
$DIMJUST
 70
     0
  9
$DIMSD1
 70
     0
  9
$DIMSD2
 70
     0
  9
$DIMTOLJ
 70
     0
  9
$DIMTZIN
 70
     1
  9
$DIMALTZ
 70
     0
  9
$DIMALTTZ
 70
     0
  9
$DIMUPT
 70
     0
  9
$DIMDEC
 70
     2
  9
$DIMTDEC
 70
     2
  9
$DIMALTU
 70
     2
  9
$DIMALTTD
 70
     3
  9
$DIMTXSTY
  7
Standard
  9
$DIMAUNIT
 70
     0
  9
$DIMADEC
 70
     2
  9
$DIMALTRND
 40
0.0
  9
$DIMAZIN
 70
     0
  9
$DIMDSEP
 70
    44
  9
$DIMATFIT
 70
     3
  9
$DIMFRAC
 70
     0
  9
$DIMLDRBLK
  1

  9
$DIMLUNIT
 70
     2
  9
$DIMLWD
 70
    -2
  9
$DIMLWE
 70
    -2
  9
$DIMTMOVE
 70
     0
  9
$LUNITS
 70
     2
  9
$LUPREC
 70
     2
  9
$SKETCHINC
 40
1.0
  9
$FILLETRAD
 40
10.0
  9
$AUNITS
 70
     0
  9
$AUPREC
 70
     2
  9
$MENU
  1
.
  9
$ELEVATION
 40
0.0
  9
$PELEVATION
 40
0.0
  9
$THICKNESS
 40
0.0
  9
$LIMCHECK
 70
     0
  9
$CHAMFERA
 40
0.0
  9
$CHAMFERB
 40
0.0
  9
$CHAMFERC
 40
0.0
  9
$CHAMFERD
 40
0.0
  9
$SKPOLY
 70
     0
  9
$TDCREATE
 40
2460383.579316968
  9
$TDUCREATE
 40
2460383.350150301
  9
$TDUPDATE
 40
2460383.579317523
  9
$TDUUPDATE
 40
2460383.350150857
  9
$TDINDWG
 40
0.0000000116
  9
$TDUSRTIMER
 40
0.0000000116
  9
$USRTIMER
 70
     1
  9
$ANGBASE
 50
0.0
  9
$ANGDIR
 70
     0
  9
$PDMODE
 70
     0
  9
$PDSIZE
 40
-1.0
  9
$PLINEWID
 40
0.0
  9
$SPLFRAME
 70
     0
  9
$SPLINETYPE
 70
     6
  9
$SPLINESEGS
 70
     8
  9
$HANDSEED
  5
2D8
  9
$SURFTAB1
 70
     6
  9
$SURFTAB2
 70
     6
  9
$SURFTYPE
 70
     6
  9
$SURFU
 70
     6
  9
$SURFV
 70
     6
  9
$UCSBASE
  2

  9
$UCSNAME
  2

  9
$UCSORG
 10
0.0
 20
0.0
 30
0.0
  9
$UCSXDIR
 10
1.0
 20
0.0
 30
0.0
  9
$UCSYDIR
 10
0.0
 20
1.0
 30
0.0
  9
$UCSORTHOREF
  2

  9
$UCSORTHOVIEW
 70
     0
  9
$UCSORGTOP
 10
0.0
 20
0.0
 30
0.0
  9
$UCSORGBOTTOM
 10
0.0
 20
0.0
 30
0.0
  9
$UCSORGLEFT
 10
0.0
 20
0.0
 30
0.0
  9
$UCSORGRIGHT
 10
0.0
 20
0.0
 30
0.0
  9
$UCSORGFRONT
 10
0.0
 20
0.0
 30
0.0
  9
$UCSORGBACK
 10
0.0
 20
0.0
 30
0.0
  9
$PUCSBASE
  2

  9
$PUCSNAME
  2

  9
$PUCSORG
 10
0.0
 20
0.0
 30
0.0
  9
$PUCSXDIR
 10
1.0
 20
0.0
 30
0.0
  9
$PUCSYDIR
 10
0.0
 20
1.0
 30
0.0
  9
$PUCSORTHOREF
  2

  9
$PUCSORTHOVIEW
 70
     0
  9
$PUCSORGTOP
 10
0.0
 20
0.0
 30
0.0
  9
$PUCSORGBOTTOM
 10
0.0
 20
0.0
 30
0.0
  9
$PUCSORGLEFT
 10
0.0
 20
0.0
 30
0.0
  9
$PUCSORGRIGHT
 10
0.0
 20
0.0
 30
0.0
  9
$PUCSORGFRONT
 10
0.0
 20
0.0
 30
0.0
  9
$PUCSORGBACK
 10
0.0
 20
0.0
 30
0.0
  9
$USERI1
 70
     0
  9
$USERI2
 70
     0
  9
$USERI3
 70
     0
  9
$USERI4
 70
     0
  9
$USERI5
 70
     0
  9
$USERR1
 40
0.0
  9
$USERR2
 40
0.0
  9
$USERR3
 40
0.0
  9
$USERR4
 40
0.0
  9
$USERR5
 40
0.0
  9
$WORLDVIEW
 70
     1
  9
$SHADEDGE
 70
     3
  9
$SHADEDIF
 70
    70
  9
$TILEMODE
 70
     1
  9
$MAXACTVP
 70
    64
  9
$PINSBASE
 10
0.0
 20
0.0
 30
0.0
  9
$PLIMCHECK
 70
     0
  9
$PEXTMIN
 10
1.0000000000E+20
 20
1.0000000000E+20
 30
1.0000000000E+20
  9
$PEXTMAX
 10
-1.0000000000E+20
 20
-1.0000000000E+20
 30
-1.0000000000E+20
  9
$PLIMMIN
 10
0.0
 20
0.0
  9
$PLIMMAX
 10
420.0
 20
297.0
  9
$UNITMODE
 70
     0
  9
$VISRETAIN
 70
     1
  9
$PLINEGEN
 70
     0
  9
$PSLTSCALE
 70
     1
  9
$TREEDEPTH
 70
  3020
  9
$CMLSTYLE
  2
Standard
  9
$CMLJUST
 70
     0
  9
$CMLSCALE
 40
20.0
  9
$PROXYGRAPHICS
 70
     1
  9
$MEASUREMENT
 70
     1
  9
$CELWEIGHT
370
    -1
  9
$ENDCAPS
280
     0
  9
$JOINSTYLE
280
     0
  9
$LWDISPLAY
290
     1
  9
$INSUNITS
 70
     4
  9
$HYPERLINKBASE
  1

  9
$STYLESHEET
  1

  9
$XEDIT
290
     1
  9
$CEPSNTYPE
380
     0
  9
$PSTYLEMODE
290
     1
  9
$FINGERPRINTGUID
  2
{14ab8dd9-6668-421f-8ce9-69d7f34e1752}
  9
$VERSIONGUID
  2
{FAEB1C32-E019-11D5-929B-00C0DF256EC4}
  9
$EXTNAMES
290
     1
  9
$PSVPSCALE
 40
0.0
  9
$OLESTARTUP
290
     0
  0
ENDSEC
  0
SECTION
  2
CLASSES
  0
CLASS
  1
ACDBDICTIONARYWDFLT
  2
AcDbDictionaryWithDefault
  3
ObjectDBX Classes
 90
        0
280
     0
281
     0
  0
CLASS
  1
VISUALSTYLE
  2
AcDbVisualStyle
  3
ObjectDBX Classes
 90
     4095
280
     0
281
     0
  0
CLASS
  1
MATERIAL
  2
AcDbMaterial
  3
ObjectDBX Classes
 90
     1153
280
     0
281
     0
  0
CLASS
  1
SCALE
  2
AcDbScale
  3
ObjectDBX Classes
 90
     1153
280
     0
281
     0
  0
CLASS
  1
TABLESTYLE
  2
AcDbTableStyle
  3
ObjectDBX Classes
 90
     4095
280
     0
281
     0
  0
CLASS
  1
MLEADERSTYLE
  2
AcDbMLeaderStyle
  3
ACDB_MLEADERSTYLE_CLASS
 90
     4095
280
     0
281
     0
  0
CLASS
  1
SUN
  2
AcDbSun
  3
SCENEOE
 90
     1153
280
     0
281
     0
  0
CLASS
  1
ACDBPLACEHOLDER
  2
AcDbPlaceHolder
  3
ObjectDBX Classes
 90
        0
280
     0
281
     0
  0
CLASS
  1
LAYOUT
  2
AcDbLayout
  3
ObjectDBX Classes
 90
        0
280
     0
281
     0
  0
ENDSEC
  0
SECTION
  2
TABLES
  0
TABLE
  2
VPORT
  5
8
330
0
100
AcDbSymbolTable
 70
     1
  0
VPORT
  5
29
330
8
100
AcDbSymbolTableRecord
100
AcDbViewportTableRecord
  2
*Active
 70
     0
 10
0.0
 20
0.0
 11
1.0
 21
1.0
 12
594.5
 22
420.5
 13
0.0
 23
0.0
 14
10.0
 24
10.0
 15
10.0
 25
10.0
 16
0.0
 26
0.0
 36
1.0
 17
0.0
 27
0.0
 37
0.0
 40
841.0
 41
1.4137931034
 42
50.0
 43
0.0
 44
0.0
 50
0.0
 51
0.0
 71
     0
 72
  2000
 73
     1
 74
     3
 75
     0
 76
     0
 77
     0
 78
     0
281
     0
 65
     1
110
0.0
120
0.0
130
0.0
111
1.0
121
0.0
131
0.0
112
0.0
122
1.0
132
0.0
 79
     0
146
0.0
  0
ENDTAB
  0
TABLE
  2
LTYPE
  5
5
330
0
100
AcDbSymbolTable
 70
     6
  0
LTYPE
  5
14
330
5
100
AcDbSymbolTableRecord
100
AcDbLinetypeTableRecord
  2
ByBlock
 70
     0
  3

 72
    65
 73
     0
 40
0.0
  0
LTYPE
  5
15
330
5
100
AcDbSymbolTableRecord
100
AcDbLinetypeTableRecord
  2
ByLayer
 70
     0
  3

 72
    65
 73
     0
 40
0.0
  0
LTYPE
  5
16
330
5
100
AcDbSymbolTableRecord
100
AcDbLinetypeTableRecord
  2
Continuous
 70
     0
  3
Solid line
 72
    65
 73
     0
 40
0.0
  0
LTYPE
  5
6E
330
5
100
AcDbSymbolTableRecord
100
AcDbLinetypeTableRecord
  2
HIDDEN
 70
     0
  3
Hidden __ __ __ __ __ __ __ __ __ __ __ __ __ __
 72
    65
 73
     2
 40
1.905
 49
1.27
 74
     0
 49
-0.635
 74
     0
  0
LTYPE
  5
6F
330
5
100
AcDbSymbolTableRecord
100
AcDbLinetypeTableRecord
  2
PHANTOM
 70
     0
  3
Phantom ______  __  __  ______  __  __  ______
 72
    65
 73
     6
 40
12.7
 49
6.35
 74
     0
 49
-1.27
 74
     0
 49
1.27
 74
     0
 49
-1.27
 74
     0
 49
1.27
 74
     0
 49
-1.27
 74
     0
  0
LTYPE
  5
70
330
5
100
AcDbSymbolTableRecord
100
AcDbLinetypeTableRecord
  2
CENTER
 70
     0
  3
Center ____ _ ____ _ ____ _ ____ _ ____ _ ____
 72
    65
 73
     4
 40
10.16
 49
6.35
 74
     0
 49
-1.27
 74
     0
 49
1.27
 74
     0
 49
-1.27
 74
     0
  0
LTYPE
  5
71
330
5
100
AcDbSymbolTableRecord
100
AcDbLinetypeTableRecord
  2
CENTERX2
 70
     0
  3
Center (2x) ________  __  ________  __  _____
 72
    65
 73
     4
 40
20.32
 49
12.7
 74
     0
 49
-2.54
 74
     0
 49
2.54
 74
     0
 49
-2.54
 74
     0
  0
LTYPE
  5
72
330
5
100
AcDbSymbolTableRecord
100
AcDbLinetypeTableRecord
  2
DOT2
 70
     0
  3
Dot (.5x) ........................................
 72
    65
 73
     2
 40
0.635
 49
0.0
 74
     0
 49
-0.635
 74
     0
  0
ENDTAB
  0
TABLE
  2
LAYER
  5
2
330
0
100
AcDbSymbolTable
 70
     1
  0
LAYER
  5
10
330
2
100
AcDbSymbolTableRecord
100
AcDbLayerTableRecord
  2
0
 70
     0
 62
     7
  6
Continuous
370
    -3
390
F
  0
ENDTAB
  0
TABLE
  2
STYLE
  5
3
330
0
100
AcDbSymbolTable
 70
     1
  0
STYLE
  5
11
330
3
100
AcDbSymbolTableRecord
100
AcDbTextStyleTableRecord
  2
Standard
 70
     0
 40
0.0
 41
1.0
 50
0.0
 71
     0
 42
3.5
  3
txt
  4

  0
ENDTAB
  0
TABLE
  2
VIEW
  5
6
330
0
100
AcDbSymbolTable
 70
     0
  0
ENDTAB
  0
TABLE
  2
UCS
  5
7
330
0
100
AcDbSymbolTable
 70
     0
  0
ENDTAB
  0
TABLE
  2
APPID
  5
9
330
0
100
AcDbSymbolTable
 70
     1
  0
APPID
  5
12
330
9
100
AcDbSymbolTableRecord
100
AcDbRegAppTableRecord
  2
ACAD
 70
     0
  0
ENDTAB
  0
TABLE
  2
DIMSTYLE
  5
A
330
0
100
AcDbSymbolTable
 70
     1
100
AcDbDimStyleTable
  0
DIMSTYLE
105
27
330
A
100
AcDbSymbolTableRecord
100
AcDbDimStyleTableRecord
  2
ISO-25
 70
     0
 41
2.5
 42
0.625
 43
3.75
 44
1.25
 73
     0
 74
     0
 77
     1
 78
     8
140
2.5
141
2.5
143
0.0393700787
147
0.625
171
     3
172
     1
178
     0
271
     2
272
     2
274
     3
278
    44
283
     0
284
     8
340
11
  0
ENDTAB
  0
TABLE
  2
BLOCK_RECORD
  5
1
330
0
100
AcDbSymbolTable
 70
     1
  0
BLOCK_RECORD
  5
1F
330
1
100
AcDbSymbolTableRecord
100
AcDbBlockTableRecord
  2
*Model_Space
340
22
  0
BLOCK_RECORD
  5
1B
330
1
100
AcDbSymbolTableRecord
100
AcDbBlockTableRecord
  2
*Paper_Space
340
1E
  0
BLOCK_RECORD
  5
23
330
1
100
AcDbSymbolTableRecord
100
AcDbBlockTableRecord
  2
*Paper_Space0
340
26
  0
ENDTAB
  0
ENDSEC
  0
SECTION
  2
BLOCKS
  0
BLOCK
  5
20
330
1F
100
AcDbEntity
  8
0
100
AcDbBlockBegin
  2
*Model_Space
 70
     0
 10
0.0
 20
0.0
 30
0.0
  3
*Model_Space
  1

  0
ENDBLK
  5
21
330
1F
100
AcDbEntity
  8
0
100
AcDbBlockEnd
  0
BLOCK
  5
1C
330
1B
100
AcDbEntity
 67
     1
  8
0
100
AcDbBlockBegin
  2
*Paper_Space
 70
     0
 10
0.0
 20
0.0
 30
0.0
  3
*Paper_Space
  1

  0
ENDBLK
  5
1D
330
1B
100
AcDbEntity
 67
     1
  8
0
100
AcDbBlockEnd
  0
BLOCK
  5
24
330
23
100
AcDbEntity
  8
0
100
AcDbBlockBegin
  2
*Paper_Space0
 70
     0
 10
0.0
 20
0.0
 30
0.0
  3
*Paper_Space0
  1

  0
ENDBLK
  5
25
330
23
100
AcDbEntity
  8
0
100
AcDbBlockEnd
  0
ENDSEC
  0
SECTION
  2
ENTITIES
  0
LINE
  5
73
330
1F
100
AcDbEntity
  8
0
  6
Continuous
 62
     7
370
    25
100
AcDbLine
 10
603.7760297483
 20
288.129175858
 30
0.0
 11
603.7760297483
 21
240.8021639464
 31
0.0
  0
LINE
  5
74
330
1F
100
AcDbEntity
  8
0
  6
Continuous
 62
     7
370
    25
100
AcDbLine
 10
619.5760297483
 20
240.8021639464
 30
0.0
 11
619.5760297483
 21
288.129175858
 31
0.0
  0
LINE
  5
75
330
1F
100
AcDbEntity
  8
0
  6
Continuous
 62
     7
370
    25
100
AcDbLine
 10
619.5760297483
 20
288.129175858
 30
0.0
 11
619.5760297483
 21
675.329175858
 31
0.0
  0
LINE
  5
76
330
1F
100
AcDbEntity
  8
0
  6
Continuous
 62
     7
370
    25
100
AcDbLine
 10
603.7760297483
 20
675.329175858
 30
0.0
 11
603.7760297483
 21
288.129175858
 31
0.0
  0
LINE
  5
77
330
1F
100
AcDbEntity
  8
0
  6
Continuous
 62
     7
370
    25
100
AcDbLine
 10
603.7760297483
 20
698.0021639464
 30
0.0
 11
603.7760297483
 21
675.329175858
 31
0.0
  0
LINE
  5
78
330
1F
100
AcDbEntity
  8
0
  6
Continuous
 62
     7
370
    25
100
AcDbLine
 10
619.5760297483
 20
675.329175858
 30
0.0
 11
619.5760297483
 21
698.0021639464
 31
0.0
  0
SPLINE
  5
79
330
1F
100
AcDbEntity
  8
0
  6
Continuous
 62
     7
370
    25
100
AcDbSpline
210
0.0
220
0.0
230
1.0
 70
     8
 71
     3
 72
    17
 73
    13
 74
     0
 42
0.00000001
 43
0.00000001
 40
0.0
 40
0.0
 40
0.0
 40
0.0
 40
0.1727939157605292
 40
0.4670908646424644
 40
0.583603646444573
 40
0.6237329378319886
 40
0.6617158152047128
 40
0.7176264960718008
 40
0.7837734229449179
 40
0.864011767563451
 40
0.9541263261861292
 40
1.0
 40
1.0
 40
1.0
 40
1.0
 10
769.693571466957
 20
694.9408481848592
 30
0.0
 10
769.7773650698267
 20
694.9468253549181
 30
0.0
 10
770.0038731979845
 20
694.9629826456343
 30
0.0
 10
770.1824775680127
 20
694.9797567885388
 30
0.0
 10
770.2644455509663
 20
694.9896740788071
 30
0.0
 10
770.3262764798216
 20
695.0022064687656
 30
0.0
 10
770.3949040659115
 20
695.0228276295269
 30
0.0
 10
770.4880237210095
 20
695.0689240711982
 30
0.0
 10
770.5902639620299
 20
695.1550377113709
 30
0.0
 10
770.6749625904591
 20
695.2866745578842
 30
0.0
 10
770.7181546292094
 20
695.4284630239079
 30
0.0
 10
770.7030969899713
 20
695.5172008731765
 30
0.0
 10
770.6980175120015
 20
695.5471353099975
 30
0.0
  0
SPLINE
  5
7A
330
1F
100
AcDbEntity
  8
0
  6
Continuous
 62
     7
370
    25
100
AcDbSpline
210
0.0
220
0.0
230
1.0
 70
     8
 71
     3
 72
    10
 73
     6
 74
     0
 42
0.00000001
 43
0.00000001
 40
0.0
 40
0.0
 40
0.0
 40
0.0
 40
0.2705197672748134
 40
0.6900585277324403
 40
1.0
 40
1.0
 40
1.0
 40
1.0
 10
770.697967620267
 20
701.0501578713393
 30
0.0
 10
770.6968286099099
 20
701.0826640616806
 30
0.0
 10
770.6939231519536
 20
701.1655828593532
 30
0.0
 10
770.6375050586689
 20
701.2764389408832
 30
0.0
 10
770.5781375558428
 20
701.3395887272762
 30
0.0
 10
770.5529134984861
 20
701.3664198008131
 30
0.0
  0
LINE
  5
7B
330
1F
100
AcDbEntity
  8
0
  6
Continuous
 62
     7
370
    25
100
AcDbLine
 10
766.2102507761
 20
694.6986806565
 30
0.0
 11
769.693571467
 21
694.9408481849
 31
0.0
  0
LINE
  5
7C
330
1F
100
AcDbEntity
  8
0
  6
Continuous
 62
     7
370
    25
100
AcDbLine
 10
769.693571467
 20
701.5543222856
 30
0.0
 11
766.2102507761
 21
701.7964898139
 31
0.0
  0
ARC
  5
7D
330
1F
100
AcDbEntity
  8
0
  6
Continuous
 62
     7
370
    25
100
AcDbCircle
 10
721.3850449535
 20
695.2756907594
 30
0.0
 40
8.999995138923012
100
AcDbArc
 50
257.1419190681
 51
270.0
  0
ARC
  5
7E
330
1F
100
AcDbEntity
  8
0
  6
Continuous
 62
     7
370
    25
100
AcDbCircle
 10
721.3850449535
 20
695.2756907594
 30
0.0
 40
8.999995138922941
100
AcDbArc
 50
270.0
 51
305.1719294169
  0
SPLINE
  5
7F
330
1F
100
AcDbEntity
  8
0
  6
Continuous
 62
     7
370
    25
100
AcDbSpline
210
0.0
220
0.0
230
1.0
 70
     8
 71
     3
 72
    10
 73
     6
 74
     0
 42
0.00000001
 43
0.00000001
 40
0.0
 40
0.0
 40
0.0
 40
0.0
 40
0.270519767274804
 40
0.6900585277324287
 40
1.0
 40
1.0
 40
1.0
 40
1.0
 10
452.6540918763006
 20
695.1995913102421
 30
0.0
 10
452.6552308866578
 20
695.1670851199009
 30
0.0
 10
452.6581363446141
 20
695.0841663222283
 30
0.0
 10
452.7145544378987
 20
694.9733102406983
 30
0.0
 10
452.773921940725
 20
694.9101604543054
 30
0.0
 10
452.7991459980816
 20
694.8833293807684
 30
0.0
  0
SPLINE
  5
80
330
1F
100
AcDbEntity
  8
0
  6
Continuous
 62
     7
370
    25
100
AcDbSpline
210
0.0
220
0.0
230
1.0
 70
     8
 71
     3
 72
    17
 73
    13
 74
     0
 42
0.00000001
 43
0.00000001
 40
0.0
 40
0.0
 40
0.0
 40
0.0
 40
0.1727939157605296
 40
0.4670908646424595
 40
0.5836036464445749
 40
0.6237329378319906
 40
0.6617158152047107
 40
0.7176264960718011
 40
0.7837734229449181
 40
0.8640117675634507
 40
0.9541263261861291
 40
1.0
 40
1.0
 40
1.0
 40
1.0
 10
453.6584880296106
 20
701.3089009967223
 30
0.0
 10
453.5746944267408
 20
701.3029238266633
 30
0.0
 10
453.3481862985832
 20
701.2867665359472
 30
0.0
 10
453.1695819285549
 20
701.2699923930428
 30
0.0
 10
453.0876139456014
 20
701.2600751027743
 30
0.0
 10
453.0257830167461
 20
701.2475427128157
 30
0.0
 10
452.9571554306561
 20
701.2269215520546
 30
0.0
 10
452.8640357755582
 20
701.1808251103832
 30
0.0
 10
452.7617955345377
 20
701.0947114702105
 30
0.0
 10
452.6770969061086
 20
700.9630746236974
 30
0.0
 10
452.6339048673584
 20
700.8212861576737
 30
0.0
 10
452.6489625065964
 20
700.7325483084051
 30
0.0
 10
452.654041984566
 20
700.7026138715838
 30
0.0
  0
LINE
  5
81
330
1F
100
AcDbEntity
  8
0
  6
Continuous
 62
     7
370
    25
100
AcDbLine
 10
457.1418087205
 20
701.5510685251
 30
0.0
 11
453.6584880296
 21
701.3089009967
 31
0.0
  0
LINE
  5
82
330
1F
100
AcDbEntity
  8
0
  6
Continuous
 62
     7
370
    25
100
AcDbLine
 10
453.6584880296
 20
694.695426896
 30
0.0
 11
457.1418087205
 21
694.4532593677
 31
0.0
  0
ARC
  5
83
330
1F
100
AcDbEntity
  8
0
  6
Continuous
 62
     7
370
    25
100
AcDbCircle
 10
510.0760297483
 20
698.0021639464
 30
0.0
 40
9.141196303514018
100
AcDbArc
 50
295.4997205711
 51
0.0
  0
ARC
  5
84
330
1F
100
AcDbEntity
  8
0
  6
Continuous
 62
     7
370
    25
100
AcDbCircle
 10
510.0760297483
 20
698.0021639464
 30
0.0
 40
9.141196303513937
100
AcDbArc
 50
0.0
 51
64.520479159
  0
SPLINE
  5
85
330
1F
100
AcDbEntity
  8
0
  6
Continuous
 62
     7
370
    25
100
AcDbSpline
210
0.0
220
0.0
230
1.0
 70
     8
 71
     3
 72
    12
 73
     8
 74
     0
 42
0.00000001
 43
0.00000001
 40
0.0
 40
0.0
 40
0.0
 40
0.0
 40
0.010111213567807
 40
0.2471911270340457
 40
0.4435553485533592
 40
0.7066495735705471
 40
1.0
 40
1.0
 40
1.0
 40
1.0
 10
701.8767424050588
 20
711.4453466952353
 30
0.0
 10
701.8633810257893
 20
711.4356960956841
 30
0.0
 10
701.5367323620833
 20
711.1997657037828
 30
0.0
 10
700.9027882218239
 20
710.8368812428383
 30
0.0
 10
699.8536826757562
 20
710.394545669106
 30
0.0
 10
698.6579108081387
 20
710.0662239746225
 30
0.0
 10
697.7467642115363
 20
710.0268958169383
 30
0.0
 10
697.2664195052691
 20
710.0061625206486
 30
0.0
  0
SPLINE
  5
86
330
1F
100
AcDbEntity
  8
0
  6
Continuous
 62
     7
370
    25
100
AcDbSpline
210
0.0
220
0.0
230
1.0
 70
     8
 71
     3
 72
    13
 73
     9
 74
     0
 42
0.00000001
 43
0.00000001
 40
0.0
 40
0.0
 40
0.0
 40
0.0
 40
0.2245277801877857
 40
0.4326004429281387
 40
0.6194870271029321
 40
0.7818100676624089
 40
0.9152378004374497
 40
0.9999999999999999
 40
0.9999999999999999
 40
0.9999999999999999
 40
0.9999999999999999
 10
526.0953932277386
 20
710.0008206819296
 30
0.0
 10
525.7271042121105
 20
710.0134798569413
 30
0.0
 10
525.0175172240189
 20
710.0378704455475
 30
0.0
 10
524.0195662747324
 20
710.2458917083395
 30
0.0
 10
523.1503736802977
 20
710.5308271492307
 30
0.0
 10
522.4299297444741
 20
710.8599248288418
 30
0.0
 10
521.885435062792
 20
711.1658083496126
 30
0.0
 10
521.5905172106168
 20
711.3677756833326
 30
0.0
 10
521.4759478280023
 20
711.4462357445394
 30
0.0
  0
SPLINE
  5
87
330
1F
100
AcDbEntity
  8
0
  6
Continuous
 62
     7
370
    25
100
AcDbSpline
210
0.0
220
0.0
230
1.0
 70
     8
 71
     3
 72
    13
 73
     9
 74
     0
 42
0.00000001
 43
0.00000001
 40
0.0
 40
0.0
 40
0.0
 40
0.0
 40
0.0841652697808864
 40
0.1931522504184889
 40
0.389721598124001
 40
0.5847071704246675
 40
0.9005282885255913
 40
1.0
 40
1.0
 40
1.0
 40
1.0
 10
521.3497137805049
 20
684.4696253473448
 30
0.0
 10
521.463055998718
 20
684.5500422102546
 30
0.0
 10
521.7231669039915
 20
684.7345921806057
 30
0.0
 10
522.2868921489209
 20
685.0718017463103
 30
0.0
 10
523.04514273756
 20
685.4378554173596
 30
0.0
 10
524.1738084649229
 20
685.8072048988341
 30
0.0
 10
525.1925018817266
 20
686.0133445012161
 30
0.0
 10
525.8897157408741
 20
685.9826678845344
 30
0.0
 10
526.0567137020573
 20
685.975320164212
 30
0.0
  0
SPLINE
  5
88
330
1F
100
AcDbEntity
  8
0
  6
Continuous
 62
     7
370
    25
100
AcDbSpline
210
0.0
220
0.0
230
1.0
 70
     8
 71
     3
 72
    14
 73
    10
 74
     0
 42
0.00000001
 43
0.00000001
 40
0.0
 40
0.0
 40
0.0
 40
0.0
 40
0.110392003749533
 40
0.3215458028786831
 40
0.5131485595554145
 40
0.6823365456853135
 40
0.8252270634682551
 40
0.9368059708259731
 40
1.0
 40
1.0
 40
1.0
 40
1.0
 10
697.2946988012677
 20
685.9825844391959
 30
0.0
 10
697.480249657268
 20
685.9868943101641
 30
0.0
 10
698.0207154241804
 20
685.9994479451528
 30
0.0
 10
698.8771248792232
 20
685.8624841883092
 30
0.0
 10
699.806695305506
 20
685.617563410027
 30
0.0
 10
700.5952628274074
 20
685.3044087899153
 30
0.0
 10
701.2272149500145
 20
684.978836341759
 30
0.0
 10
701.6844351703338
 20
684.6972367390384
 30
0.0
 10
701.9179762208748
 20
684.5301462662553
 30
0.0
 10
702.0024195005615
 20
684.4697300460939
 30
0.0
  0
LINE
  5
89
330
1F
100
AcDbEntity
  8
0
  6
Continuous
 62
     7
370
    25
100
AcDbLine
 10
601.093024504
 20
710.0021639464
 30
0.0
 11
526.1076175439
 21
710.0021639464
 31
0.0
  0
LINE
  5
8A
330
1F
100
AcDbEntity
  8
0
  6
Continuous
 62
     7
370
    25
100
AcDbLine
 10
697.2671797984
 20
710.0021639464
 30
0.0
 11
620.022326774
 21
710.0021639464
 31
0.0
  0
LINE
  5
8B
330
1F
100
AcDbEntity
  8
0
  6
Continuous
 62
     7
370
    25
100
AcDbLine
 10
622.2590349925
 20
686.0021639464
 30
0.0
 11
697.2960422639
 21
686.0021639464
 31
0.0
  0
LINE
  5
8C
330
1F
100
AcDbEntity
  8
0
  6
Continuous
 62
     7
370
    25
100
AcDbLine
 10
526.0560172326
 20
686.0021639464
 30
0.0
 11
603.3297327226
 21
686.0021639464
 31
0.0
  0
ARC
  5
8D
330
1F
100
AcDbEntity
  8
0
  6
Continuous
 62
     7
370
    25
100
AcDbCircle
 10
611.6760297483
 20
240.8021639464
 30
0.0
 40
7.900000000000091
100
AcDbArc
 50
180.0
 51
0.0
  0
ARC
  5
8E
330
1F
100
AcDbEntity
  8
0
  6
Continuous
 62
     7
370
    25
100
AcDbCircle
 10
611.6760297483
 20
240.8021639464
 30
0.0
 40
10.82500000000008
100
AcDbArc
 50
136.8689719021
 51
180.0
  0
ARC
  5
8F
330
1F
100
AcDbEntity
  8
0
  6
Continuous
 62
     7
370
    25
100
AcDbCircle
 10
611.6760297483
 20
240.8021639464
 30
0.0
 40
10.82500000000016
100
AcDbArc
 50
180.0
 51
43.1310280979
  0
ARC
  5
90
330
1F
100
AcDbEntity
  8
0
  6
Continuous
 62
     7
370
    25
100
AcDbCircle
 10
611.6760297483
 20
698.0021639464
 30
0.0
 40
7.900000000000091
100
AcDbArc
 50
0.0
 51
180.0
  0
LWPOLYLINE
  5
91
330
1F
100
AcDbEntity
  8
0
  6
Continuous
 62
     7
370
    25
100
AcDbPolyline
 90
       32
 70
   128
 43
0.0
 10
608.2083202279
 20
691.0213093968
 10
606.0235625339
 20
692.4831409902
 10
604.5151959293
 20
694.6656299638
 10
603.8144097205
 20
697.2243911392
 10
604.0002444851
 20
699.8709391051
 10
605.051726384
 20
702.3066505521
 10
606.8503521144
 20
704.2569889139
 10
609.1931389845
 20
705.5018475034
 10
611.8160138028
 20
705.9009236252
 10
614.4230455253
 20
705.4091811815
 10
616.7202701098
 20
704.0821013783
 10
618.4486579061
 20
702.0692892009
 10
619.4131971467
 20
699.5978583561
 10
619.5051605173
 20
696.9463650067
 10
618.714168305
 20
694.4140438736
 10
617.1293871552
 20
692.2863181653
 10
614.929620285
 20
690.8032648209
 10
612.3629263229
 20
690.132083064
 10
609.7187070157
 20
690.3484793618
 10
607.295304409
 20
691.4280293644
 10
605.3658745495
 20
693.2490658654
 10
604.148164047
 20
695.6060758879
 10
603.7794143952
 20
698.2333910334
 10
604.3012418798
 20
700.8345664416
 10
605.6547771798
 20
703.1163127032
 10
607.687419312
 20
704.8213271493
 10
610.1698292073
 20
705.7572500149
 10
612.8222076429
 20
705.8185746466
 10
615.3452202402
 20
704.9983801476
 10
617.4544987159
 20
703.3891200805
 10
617.8049984095
 20
702.9867143925
 10
617.8049984095
 20
702.9867143925
  0
ARC
  5
92
330
1F
100
AcDbEntity
  8
0
  6
Continuous
 62
     7
370
    25
100
AcDbCircle
 10
611.6760297483
 20
698.0021639464
 30
0.0
 40
9.600000000000023
100
AcDbArc
 50
0.0
 51
214.6221618397
  0
ARC
  5
93
330
1F
100
AcDbEntity
  8
0
  6
Continuous
 62
     7
370
    25
100
AcDbCircle
 10
611.6760297483
 20
698.0021639464
 30
0.0
 40
9.600000000000104
100
AcDbArc
 50
325.3778381603
 51
0.0
  0
ARC
  5
94
330
1F
100
AcDbEntity
  8
0
  6
Continuous
 62
     7
370
    25
100
AcDbCircle
 10
611.6760297483
 20
698.0021639464
 30
0.0
 40
10.5
100
AcDbArc
 50
0.0
 51
221.2029536038
  0
ARC
  5
95
330
1F
100
AcDbEntity
  8
0
  6
Continuous
 62
     7
370
    25
100
AcDbCircle
 10
611.6760297483
 20
698.0021639464
 30
0.0
 40
10.50000000000014
100
AcDbArc
 50
318.7970463962
 51
0.0
  0
ARC
  5
96
330
1F
100
AcDbEntity
  8
0
  6
Continuous
 62
     7
370
    25
100
AcDbCircle
 10
611.6760297483
 20
240.8021639464
 30
0.0
 40
11.54999999999998
100
AcDbArc
 50
133.1556534408
 51
274.9657006069
  0
ARC
  5
97
330
1F
100
AcDbEntity
  8
0
  6
Continuous
 62
     7
370
    25
100
AcDbCircle
 10
611.6760297483
 20
240.8021639464
 30
0.0
 40
11.55000000000006
100
AcDbArc
 50
274.9657006069
 51
46.8443465592
  0
ARC
  5
98
330
1F
100
AcDbEntity
  8
0
  6
Continuous
 62
     7
370
    25
100
AcDbCircle
 10
611.6760297483
 20
698.0021639464
 30
0.0
 40
14.22500000000011
100
AcDbArc
 50
303.7355336397
 51
223.2235523034
  0
LWPOLYLINE
  5
99
330
1F
100
AcDbEntity
  8
0
  6
Continuous
 62
     7
370
    25
100
AcDbPolyline
 90
        3
 70
   128
 43
0.0
 10
603.7760297483
 20
686.172513698
 10
602.9620480014
 20
686.7586259305
 10
601.310454722
 20
688.260219614
  0
LINE
  5
9A
330
1F
100
AcDbEntity
  8
0
  6
Continuous
 62
     7
370
    25
100
AcDbLine
 10
619.5508096623
 20
710.1388200339
 30
0.0
 11
619.4187774812
 21
709.9353312772
 31
0.0
  0
SPLINE
  5
9B
330
1F
100
AcDbEntity
  8
0
  6
Continuous
 62
     7
370
    25
100
AcDbSpline
210
0.0
220
0.0
230
1.0
 70
     8
 71
     3
 72
    11
 73
     7
 74
     0
 42
0.00000001
 43
0.00000001
 40
0.0
 40
0.0
 40
0.0
 40
0.0
 40
0.1446702591042557
 40
0.3907520209323692
 40
0.5962314811354859
 40
0.9999999999999999
 40
0.9999999999999999
 40
0.9999999999999999
 40
0.9999999999999999
 10
624.2773593764542
 20
705.1097001779867
 30
0.0
 10
624.078241479939
 20
705.3771981379823
 30
0.0
 10
623.5404272743875
 20
706.0997057847558
 30
0.0
 10
622.6508493204354
 20
707.1494998968209
 30
0.0
 10
621.3080420343505
 20
708.5961457477094
 30
0.0
 10
620.2512080404172
 20
709.5239403030349
 30
0.0
 10
619.55080966229
 20
710.1388200339248
 30
0.0
  0
LINE
  5
9C
330
1F
100
AcDbEntity
  8
0
  6
Continuous
 62
     7
370
    25
100
AcDbLine
 10
624.0660796894
 20
704.9905319573
 30
0.0
 11
624.2773593765
 21
705.109700178
 31
0.0
  0
LINE
  5
9D
330
1F
100
AcDbEntity
  8
0
  6
Continuous
 62
     7
370
    25
100
AcDbLine
 10
597.2279873025
 20
698.7535953573
 30
0.0
 11
597.4702298258
 21
698.7409965128
 31
0.0
  0
SPLINE
  5
9E
330
1F
100
AcDbEntity
  8
0
  6
Continuous
 62
     7
370
    25
100
AcDbSpline
210
0.0
220
0.0
230
1.0
 70
     8
 71
     3
 72
    11
 73
     7
 74
     0
 42
0.00000001
 43
0.00000001
 40
0.0
 40
0.0
 40
0.0
 40
0.0
 40
0.144670259104256
 40
0.3907520209323621
 40
0.5962314811354645
 40
1.0
 40
1.0
 40
1.0
 40
1.0
 10
599.2200579993057
 20
705.3614674100282
 30
0.0
 10
599.0879569187466
 20
705.0552772733004
 30
0.0
 10
598.7311540449881
 20
704.2282626853897
 30
0.0
 10
598.2667946521725
 20
702.9329685225882
 30
0.0
 10
597.685366238066
 20
701.0467403750075
 30
0.0
 10
597.4102895806279
 20
699.6675980110155
 30
0.0
 10
597.2279873024686
 20
698.7535953573431
 30
0.0
  0
LINE
  5
9F
330
1F
100
AcDbEntity
  8
0
  6
Continuous
 62
     7
370
    25
100
AcDbLine
 10
599.2200579993
 20
705.36146741
 30
0.0
 11
599.4289005493
 21
705.2380779441
 31
0.0
  0
LINE
  5
A0
330
1F
100
AcDbEntity
  8
0
  6
Continuous
 62
     7
370
    25
100
AcDbLine
 10
605.1027672165
 20
710.8902514449
 30
0.0
 11
605.2129775587
 21
710.6741638436
 31
0.0
  0
SPLINE
  5
A1
330
1F
100
AcDbEntity
  8
0
  6
Continuous
 62
     7
370
    25
100
AcDbSpline
210
0.0
220
0.0
230
1.0
 70
     8
 71
     3
 72
    11
 73
     7
 74
     0
 42
0.00000001
 43
0.00000001
 40
0.0
 40
0.0
 40
0.0
 40
0.0
 40
0.1446702591042559
 40
0.390752020932366
 40
0.5962314811354593
 40
1.0
 40
1.0
 40
1.0
 40
1.0
 10
611.821387627476
 20
712.4690036416387
 30
0.0
 10
611.490168650402
 20
712.4303114649063
 30
0.0
 10
610.5955515710918
 20
712.3258045237692
 30
0.0
 10
609.2416142243242
 20
712.0803044730326
 30
0.0
 10
607.3173785241328
 20
711.6407221763405
 30
0.0
 10
605.9854678727613
 20
711.1893743676741
 30
0.0
 10
605.102767216475
 20
710.8902514448915
 30
0.0
  0
LINE
  5
A2
330
1F
100
AcDbEntity
  8
0
  6
Continuous
 62
     7
370
    25
100
AcDbLine
 10
611.8213876275
 20
712.4690036416
 30
0.0
 11
611.8189504904
 21
712.226445955
 31
0.0
  0
SPLINE
  5
A3
330
1F
100
AcDbEntity
  8
0
  6
Continuous
 62
     7
370
    25
100
AcDbSpline
210
0.0
220
0.0
230
1.0
 70
     8
 71
     3
 72
    11
 73
     7
 74
     0
 42
0.00000001
 43
0.00000001
 40
0.0
 40
0.0
 40
0.0
 40
0.0
 40
0.1446702591042542
 40
0.3907520209323655
 40
0.596231481135479
 40
1.0
 40
1.0
 40
1.0
 40
1.0
 10
599.0747001201133
 20
690.894627714766
 30
0.0
 10
599.2738180166285
 20
690.6271297547705
 30
0.0
 10
599.8116322221802
 20
689.9046221079969
 30
0.0
 10
600.7012101761321
 20
688.8548279959319
 30
0.0
 10
602.0440174622171
 20
687.4081821450433
 30
0.0
 10
603.1008514561505
 20
686.4803875897179
 30
0.0
 10
603.8012498342777
 20
685.8655078588279
 30
0.0
  0
LINE
  5
A4
330
1F
100
AcDbEntity
  8
0
  6
Continuous
 62
     7
370
    25
100
AcDbLine
 10
599.0747001201
 20
690.8946277148
 30
0.0
 11
599.2859798071
 21
691.0137959355
 31
0.0
  0
LINE
  5
A5
330
1F
100
AcDbEntity
  8
0
  6
Continuous
 62
     7
370
    25
100
AcDbLine
 10
625.8818296708
 20
697.26333138
 30
0.0
 11
626.1240721941
 21
697.2507325354
 31
0.0
  0
SPLINE
  5
A6
330
1F
100
AcDbEntity
  8
0
  6
Continuous
 62
     7
370
    25
100
AcDbSpline
210
0.0
220
0.0
230
1.0
 70
     8
 71
     3
 72
    11
 73
     7
 74
     0
 42
0.00000001
 43
0.00000001
 40
0.0
 40
0.0
 40
0.0
 40
0.0
 40
0.1446702591042545
 40
0.3907520209323574
 40
0.596231481135475
 40
0.9999999999999999
 40
0.9999999999999999
 40
0.9999999999999999
 40
0.9999999999999999
 10
624.1320014972619
 20
690.6428604827245
 30
0.0
 10
624.264102577821
 20
690.9490506194525
 30
0.0
 10
624.6209054515796
 20
691.776065207363
 30
0.0
 10
625.0852648443952
 20
693.0713593701645
 30
0.0
 10
625.6666932585017
 20
694.9575875177453
 30
0.0
 10
625.9417699159396
 20
696.3367298817374
 30
0.0
 10
626.124072194099
 20
697.2507325354098
 30
0.0
  0
LINE
  5
A7
330
1F
100
AcDbEntity
  8
0
  6
Continuous
 62
     7
370
    25
100
AcDbLine
 10
623.9231589473
 20
690.7662499486
 30
0.0
 11
624.1320014973
 21
690.6428604827
 31
0.0
  0
SPLINE
  5
A8
330
1F
100
AcDbEntity
  8
0
  6
Continuous
 62
     7
370
    25
100
AcDbSpline
210
0.0
220
0.0
230
1.0
 70
     8
 71
     3
 72
     9
 73
     5
 74
     0
 42
0.00000001
 43
0.00000001
 40
0.0
 40
0.0
 40
0.0
 40
0.0
 40
0.586384789828358
 40
1.0
 40
1.0
 40
1.0
 40
1.0
 10
623.4060309197852
 20
689.1008888963302
 30
0.0
 10
623.5536074662177
 20
689.4000269380188
 30
0.0
 10
623.8052793188857
 20
689.9101664349456
 30
0.0
 10
624.0364045756213
 20
690.4284786619977
 30
0.0
 10
624.1320014972619
 20
690.6428604827245
 30
0.0
  0
ARC
  5
A9
330
1F
100
AcDbEntity
  8
0
  6
Continuous
 62
     7
370
    25
100
AcDbCircle
 10
611.6760297483
 20
698.0021639464
 30
0.0
 40
14.72500000000013
100
AcDbArc
 50
303.6400367407
 51
322.8070678661
  0
SPLINE
  5
AA
330
1F
100
AcDbEntity
  8
0
  6
Continuous
 62
     7
370
    25
100
AcDbSpline
210
0.0
220
0.0
230
1.0
 70
     8
 71
     3
 72
     9
 73
     5
 74
     0
 42
0.00000001
 43
0.00000001
 40
0.0
 40
0.0
 40
0.0
 40
0.0
 40
0.5862283062032674
 40
0.9999999999999999
 40
0.9999999999999999
 40
0.9999999999999999
 40
0.9999999999999999
 10
597.2279873024686
 20
698.7535953573431
 30
0.0
 10
597.1737346652127
 20
698.4252695023272
 30
0.0
 10
597.0811894286865
 20
697.8652046751232
 30
0.0
 10
597.0101358134888
 20
697.300827814589
 30
0.0
 10
596.9807358387782
 20
697.0673046450659
 30
0.0
  0
SPLINE
  5
AB
330
1F
100
AcDbEntity
  8
0
  6
Continuous
 62
     7
370
    25
100
AcDbSpline
210
0.0
220
0.0
230
1.0
 70
     8
 71
     3
 72
     9
 73
     5
 74
     0
 42
0.00000001
 43
0.00000001
 40
0.0
 40
0.0
 40
0.0
 40
0.0
 40
0.5863847898283641
 40
1.0
 40
1.0
 40
1.0
 40
1.0
 10
598.1022988431205
 20
692.294322470458
 30
0.0
 10
598.2875717132449
 20
692.0169484114004
 30
0.0
 10
598.6035295507232
 20
691.5439244451089
 30
0.0
 10
598.9368384780747
 20
691.0846079877937
 30
0.0
 10
599.0747001201133
 20
690.894627714766
 30
0.0
  0
ARC
  5
AC
330
1F
100
AcDbEntity
  8
0
  6
Continuous
 62
     7
370
    25
100
AcDbCircle
 10
611.6760297483
 20
698.0021639464
 30
0.0
 40
14.72499999999998
100
AcDbArc
 50
183.6400367407
 51
202.8070678661
  0
SPLINE
  5
AD
330
1F
100
AcDbEntity
  8
0
  6
Continuous
 62
     7
370
    25
100
AcDbSpline
210
0.0
220
0.0
230
1.0
 70
     8
 71
     3
 72
     9
 73
     5
 74
     0
 42
0.00000001
 43
0.00000001
 40
0.0
 40
0.0
 40
0.0
 40
0.0
 40
0.586228306203287
 40
1.0
 40
1.0
 40
1.0
 40
1.0
 10
626.124072194099
 20
697.2507325354098
 30
0.0
 10
626.178324831355
 20
697.5790583904255
 30
0.0
 10
626.2708700678812
 20
698.1391232176295
 30
0.0
 10
626.3419236830787
 20
698.703500078164
 30
0.0
 10
626.3713236577895
 20
698.937023247687
 30
0.0
  0
SPLINE
  5
AE
330
1F
100
AcDbEntity
  8
0
  6
Continuous
 62
     7
370
    25
100
AcDbSpline
210
0.0
220
0.0
230
1.0
 70
     8
 71
     3
 72
     9
 73
     5
 74
     0
 42
0.00000001
 43
0.00000001
 40
0.0
 40
0.0
 40
0.0
 40
0.0
 40
0.5863847898283613
 40
1.0
 40
1.0
 40
1.0
 40
1.0
 10
625.2497606534472
 20
703.7100054222947
 30
0.0
 10
625.0644877833228
 20
703.9873794813523
 30
0.0
 10
624.7485299458443
 20
704.4604034476438
 30
0.0
 10
624.4152210184927
 20
704.919719904959
 30
0.0
 10
624.2773593764542
 20
705.1097001779867
 30
0.0
  0
ARC
  5
AF
330
1F
100
AcDbEntity
  8
0
  6
Continuous
 62
     7
370
    25
100
AcDbCircle
 10
611.6760297483
 20
698.0021639464
 30
0.0
 40
14.7250000000001
100
AcDbArc
 50
3.6400367407
 51
22.8070678661
  0
SPLINE
  5
B0
330
1F
100
AcDbEntity
  8
0
  6
Continuous
 62
     7
370
    25
100
AcDbSpline
210
0.0
220
0.0
230
1.0
 70
     8
 71
     3
 72
     9
 73
     5
 74
     0
 42
0.00000001
 43
0.00000001
 40
0.0
 40
0.0
 40
0.0
 40
0.0
 40
0.58622830620327
 40
1.0
 40
1.0
 40
1.0
 40
1.0
 10
605.102767216475
 20
710.8902514448915
 30
0.0
 10
604.791302366684
 20
710.7730726794696
 30
0.0
 10
604.2599993802961
 20
710.5731867916985
 30
0.0
 10
603.7357078741665
 20
710.3525325972231
 30
0.0
 10
603.5187708896319
 20
710.2612321374318
 30
0.0
  0
SPLINE
  5
B1
330
1F
100
AcDbEntity
  8
0
  6
Continuous
 62
     7
370
    25
100
AcDbSpline
210
0.0
220
0.0
230
1.0
 70
     8
 71
     3
 72
     9
 73
     5
 74
     0
 42
0.00000001
 43
0.00000001
 40
0.0
 40
0.0
 40
0.0
 40
0.0
 40
0.5863847898283645
 40
1.0
 40
1.0
 40
1.0
 40
1.0
 10
599.9460285767824
 20
706.9034389964226
 30
0.0
 10
599.7984520303498
 20
706.6043009547341
 30
0.0
 10
599.5467801776819
 20
706.0941614578071
 30
0.0
 10
599.3156549209463
 20
705.575849230755
 30
0.0
 10
599.2200579993057
 20
705.3614674100282
 30
0.0
  0
ARC
  5
B2
330
1F
100
AcDbEntity
  8
0
  6
Continuous
 62
     7
370
    25
100
AcDbCircle
 10
611.6760297483
 20
698.0021639464
 30
0.0
 40
14.72499999999997
100
AcDbArc
 50
123.6400367407
 51
142.8070678661
  0
SPLINE
  5
B3
330
1F
100
AcDbEntity
  8
0
  6
Continuous
 62
     7
370
    25
100
AcDbSpline
210
0.0
220
0.0
230
1.0
 70
     8
 71
     3
 72
     9
 73
     5
 74
     0
 42
0.00000001
 43
0.00000001
 40
0.0
 40
0.0
 40
0.0
 40
0.0
 40
0.5862283062032709
 40
1.0
 40
1.0
 40
1.0
 40
1.0
 10
619.55080966229
 20
710.1388200339248
 30
0.0
 10
619.2935974497551
 20
710.3499671235187
 30
0.0
 10
618.8548396998934
 20
710.7101460629517
 30
0.0
 10
618.4016018089613
 20
711.0538687290107
 30
0.0
 10
618.2140647991375
 20
711.1960914387423
 30
0.0
  0
SPLINE
  5
B4
330
1F
100
AcDbEntity
  8
0
  6
Continuous
 62
     7
370
    25
100
AcDbSpline
210
0.0
220
0.0
230
1.0
 70
     8
 71
     3
 72
     9
 73
     5
 74
     0
 42
0.00000001
 43
0.00000001
 40
0.0
 40
0.0
 40
0.0
 40
0.0
 40
0.5863847898283634
 40
1.0
 40
1.0
 40
1.0
 40
1.0
 10
613.5197594819458
 20
712.6112804723409
 30
0.0
 10
613.1869100653888
 20
712.5895164897099
 30
0.0
 10
612.6192803752424
 20
712.5524009590746
 30
0.0
 10
612.0548461911553
 20
712.4934051893376
 30
0.0
 10
611.821387627476
 20
712.4690036416387
 30
0.0
  0
ARC
  5
B5
330
1F
100
AcDbEntity
  8
0
  6
Continuous
 62
     7
370
    25
100
AcDbCircle
 10
611.6760297483
 20
698.0021639464
 30
0.0
 40
14.72500000000003
100
AcDbArc
 50
63.6400367407
 51
82.8070678661
  0
SPLINE
  5
B6
330
1F
100
AcDbEntity
  8
0
  6
Continuous
 62
     7
370
    25
100
AcDbSpline
210
0.0
220
0.0
230
1.0
 70
    24
 71
     3
 72
    12
 73
     8
 74
     0
 42
0.00000001
 43
0.00000001
 40
0.0
 40
0.0
 40
0.0
 40
0.0
 40
0.3013828945620945
 40
0.4108442493795588
 40
0.6247185195336505
 40
0.6986171054378635
 40
0.9999999999999999
 40
0.9999999999999999
 40
0.9999999999999999
 40
0.9999999999999999
 10
603.5770268871571
 20
685.7390392426071
 30
0.0
 10
603.1119234353157
 20
686.2339162980013
 30
0.0
 10
602.4778958179446
 20
686.9085312015914
 30
0.0
 10
601.5091798694099
 20
687.9392595142419
 30
0.0
 10
600.892055064461
 20
688.5958895716512
 30
0.0
 10
599.9788048379401
 20
689.567601523368
 30
0.0
 10
599.3996721802637
 20
690.1838073657005
 30
0.0
 10
598.934579481074
 20
690.678672980112
 30
0.0
  0
ARC
  5
B7
330
1F
100
AcDbEntity
  8
0
  6
Continuous
 62
     7
370
    25
100
AcDbCircle
 10
599.3127452901
 20
690.5867383698
 30
0.0
 40
0.3891803587955168
100
AcDbArc
 50
127.7094634934
 51
166.3360839426
  0
SPLINE
  5
B8
330
1F
100
AcDbEntity
  8
0
  6
Continuous
 62
     7
370
    25
100
AcDbSpline
210
0.0
220
0.0
230
1.0
 70
    24
 71
     3
 72
    12
 73
     8
 74
     0
 42
0.00000001
 43
0.00000001
 40
0.0
 40
0.0
 40
0.0
 40
0.0
 40
0.3013828945620993
 40
0.4108442493795574
 40
0.6247185195336497
 40
0.6986171054378605
 40
1.0
 40
1.0
 40
1.0
 40
1.0
 10
626.3457087020879
 20
697.1197840752025
 30
0.0
 10
626.149684326287
 20
696.4695541428229
 30
0.0
 10
625.8824644906922
 20
695.5831626676836
 30
0.0
 10
625.4741855618041
 20
694.228865890876
 30
0.0
 10
625.2140896536737
 20
693.3661051037801
 30
0.0
 10
624.8291875315864
 20
692.0893512317427
 30
0.0
 10
624.5851039470044
 20
691.2797047168675
 30
0.0
 10
624.3890841030595
 20
690.6294898170488
 30
0.0
  0
ARC
  5
B9
330
1F
100
AcDbEntity
  8
0
  6
Continuous
 62
     7
370
    25
100
AcDbCircle
 10
624.2796189065
 20
691.0029583196
 30
0.0
 40
0.3891803587986417
100
AcDbArc
 50
247.7094634934
 51
286.3360839425
  0
ARC
  5
BA
330
1F
100
AcDbEntity
  8
0
  6
Continuous
 62
     7
370
    25
100
AcDbCircle
 10
626.0480645399
 20
696.8690465543
 30
0.0
 40
0.3891803587989263
100
AcDbArc
 50
40.1110206644
 51
78.7376411133
  0
ARC
  5
BB
330
1F
100
AcDbEntity
  8
0
  6
Continuous
 62
     7
370
    25
100
AcDbCircle
 10
597.3039949567
 20
699.1352813385
 30
0.0
 40
0.3891803588342921
100
AcDbArc
 50
220.1110206663
 51
258.7376411115
  0
SPLINE
  5
BC
330
1F
100
AcDbEntity
  8
0
  6
Continuous
 62
     7
370
    25
100
AcDbSpline
210
0.0
220
0.0
230
1.0
 70
    24
 71
     3
 72
    12
 73
     8
 74
     0
 42
0.00000001
 43
0.00000001
 40
0.0
 40
0.0
 40
0.0
 40
0.0
 40
0.3013828945621505
 40
0.4108442493795785
 40
0.6247185195336594
 40
0.6986171054378614
 40
1.0
 40
1.0
 40
1.0
 40
1.0
 10
597.0063507944798
 20
698.8845438175504
 30
0.0
 10
597.2023751702807
 20
699.5347737499301
 30
0.0
 10
597.4695950058756
 20
700.4211652250693
 30
0.0
 10
597.8778739347636
 20
701.7754620018769
 30
0.0
 10
598.137969842894
 20
702.6382227889727
 30
0.0
 10
598.522871964981
 20
703.9149766610101
 30
0.0
 10
598.7669555495631
 20
704.7246231758852
 30
0.0
 10
598.9629753935081
 20
705.3748380757039
 30
0.0
  0
ARC
  5
BD
330
1F
100
AcDbEntity
  8
0
  6
Continuous
 62
     7
370
    25
100
AcDbCircle
 10
599.07244059
 20
705.0013695731
 30
0.0
 40
0.3891803587965559
100
AcDbArc
 50
67.7094634934
 51
106.3360839426
  0
ARC
  5
BE
330
1F
100
AcDbEntity
  8
0
  6
Continuous
 62
     7
370
    25
100
AcDbCircle
 10
605.4713207995
 20
711.015269876
 30
0.0
 40
0.3891803588385655
100
AcDbArc
 50
160.1110206665
 51
198.7376411113
  0
SPLINE
  5
BF
330
1F
100
AcDbEntity
  8
0
  6
Continuous
 62
     7
370
    25
100
AcDbSpline
210
0.0
220
0.0
230
1.0
 70
    24
 71
     3
 72
    12
 73
     8
 74
     0
 42
0.00000001
 43
0.00000001
 40
0.0
 40
0.0
 40
0.0
 40
0.0
 40
0.3013828945621499
 40
0.4108442493795587
 40
0.6247185195336379
 40
0.6986171054378637
 40
1.0
 40
1.0
 40
1.0
 40
1.0
 10
605.1053536556065
 20
711.1476685213196
 30
0.0
 10
605.7664814832489
 20
711.303021398305
 30
0.0
 10
606.6677289362148
 20
711.5147979698542
 30
0.0
 10
608.0447238136375
 20
711.838366434011
 30
0.0
 10
608.9219445267166
 20
712.0444971636975
 30
0.0
 10
610.2200968753249
 20
712.3495390840184
 30
0.0
 10
611.0433131175835
 20
712.5429797565611
 30
0.0
 10
611.7044256607179
 20
712.6983290419682
 30
0.0
  0
ARC
  5
C0
330
1F
100
AcDbEntity
  8
0
  6
Continuous
 62
     7
370
    25
100
AcDbCircle
 10
611.4357250482
 20
712.4167951497
 30
0.0
 40
0.389180358797102
100
AcDbArc
 50
7.7094634934
 51
46.3360839425
  0
SPLINE
  5
C1
330
1F
100
AcDbEntity
  8
0
  6
Continuous
 62
     7
370
    25
100
AcDbSpline
210
0.0
220
0.0
230
1.0
 70
    24
 71
     3
 72
    12
 73
     8
 74
     0
 42
0.00000001
 43
0.00000001
 40
0.0
 40
0.0
 40
0.0
 40
0.0
 40
0.3013828945621527
 40
0.4108442493795539
 40
0.6247185195336458
 40
0.6986171054378585
 40
1.0
 40
1.0
 40
1.0
 40
1.0
 10
619.7750326094106
 20
710.2652886501457
 30
0.0
 10
620.240136061252
 20
709.7704115947512
 30
0.0
 10
620.8741636786231
 20
709.0957966911612
 30
0.0
 10
621.8428796271578
 20
708.0650683785107
 30
0.0
 10
622.4600044321064
 20
707.4084383211015
 30
0.0
 10
623.3732546586275
 20
706.4367263693847
 30
0.0
 10
623.952387316304
 20
705.8205205270523
 30
0.0
 10
624.4174800154935
 20
705.3256549126407
 30
0.0
  0
ARC
  5
C2
330
1F
100
AcDbEntity
  8
0
  6
Continuous
 62
     7
370
    25
100
AcDbCircle
 10
624.0393142065
 20
705.4175895229
 30
0.0
 40
0.3891803587950791
100
AcDbArc
 50
307.7094634933
 51
346.3360839427
  0
ARC
  5
C3
330
1F
100
AcDbEntity
  8
0
  6
Continuous
 62
     7
370
    25
100
AcDbCircle
 10
619.8433555911
 20
709.8821524839
 30
0.0
 40
0.3891803587999011
100
AcDbArc
 50
100.1110206645
 51
138.7376411133
  0
LINE
  5
C4
330
1F
100
AcDbEntity
  8
0
  6
Continuous
 62
     7
370
    25
100
AcDbLine
 10
624.3890841031
 20
690.629489817
 30
0.0
 11
623.8847500336
 21
688.9565697704
 31
0.0
  0
LINE
  5
C5
330
1F
100
AcDbEntity
  8
0
  6
Continuous
 62
     7
370
    25
100
AcDbLine
 10
623.8847500336
 20
688.9565697704
 30
0.0
 11
623.4060309198
 21
689.1008888963
 31
0.0
  0
LINE
  5
C6
330
1F
100
AcDbEntity
  8
0
  6
Continuous
 62
     7
370
    25
100
AcDbLine
 10
598.9345794811
 20
690.6786729801
 30
0.0
 11
597.737955257
 21
691.9518991196
 31
0.0
  0
LINE
  5
C7
330
1F
100
AcDbEntity
  8
0
  6
Continuous
 62
     7
370
    25
100
AcDbLine
 10
598.1022988431
 20
692.2943224705
 30
0.0
 11
597.737955257
 21
691.9518991196
 31
0.0
  0
LINE
  5
C8
330
1F
100
AcDbEntity
  8
0
  6
Continuous
 62
     7
370
    25
100
AcDbLine
 10
598.9629753935
 20
705.3748380757
 30
0.0
 11
599.467309463
 21
707.0477581223
 31
0.0
  0
LINE
  5
C9
330
1F
100
AcDbEntity
  8
0
  6
Continuous
 62
     7
370
    25
100
AcDbLine
 10
599.467309463
 20
707.0477581223
 30
0.0
 11
599.9460285768
 21
706.9034389964
 31
0.0
  0
LINE
  5
CA
330
1F
100
AcDbEntity
  8
0
  6
Continuous
 62
     7
370
    25
100
AcDbLine
 10
624.4174800155
 20
705.3256549126
 30
0.0
 11
625.6141042396
 21
704.0524287732
 31
0.0
  0
LINE
  5
CB
330
1F
100
AcDbEntity
  8
0
  6
Continuous
 62
     7
370
    25
100
AcDbLine
 10
625.6141042396
 20
704.0524287732
 30
0.0
 11
625.2497606534
 21
703.7100054223
 31
0.0
  0
LINE
  5
CC
330
1F
100
AcDbEntity
  8
0
  6
Continuous
 62
     7
370
    25
100
AcDbLine
 10
611.7044256607
 20
712.698329042
 30
0.0
 11
613.4053839543
 21
713.0980229491
 31
0.0
  0
LINE
  5
CD
330
1F
100
AcDbEntity
  8
0
  6
Continuous
 62
     7
370
    25
100
AcDbLine
 10
613.4053839543
 20
713.0980229491
 30
0.0
 11
613.5197594819
 21
712.6112804723
 31
0.0
  0
LINE
  5
CE
330
1F
100
AcDbEntity
  8
0
  6
Continuous
 62
     7
370
    25
100
AcDbLine
 10
619.9476641346
 20
685.2563532786
 30
0.0
 11
619.5760297483
 21
685.1690260346
 31
0.0
  0
LINE
  5
CF
330
1F
100
AcDbEntity
  8
0
  6
Continuous
 62
     7
370
    25
100
AcDbLine
 10
619.9476641346
 20
685.2563532786
 30
0.0
 11
619.8332886069
 21
685.7430957553
 31
0.0
  0
LINE
  5
D0
330
1F
100
AcDbEntity
  8
0
  6
Continuous
 62
     7
370
    25
100
AcDbLine
 10
596.9807358388
 20
697.0673046451
 30
0.0
 11
596.502016725
 21
697.2116237709
 31
0.0
  0
LINE
  5
D1
330
1F
100
AcDbEntity
  8
0
  6
Continuous
 62
     7
370
    25
100
AcDbLine
 10
596.502016725
 20
697.2116237709
 30
0.0
 11
597.0063507945
 21
698.8845438176
 31
0.0
  0
LINE
  5
D2
330
1F
100
AcDbEntity
  8
0
  6
Continuous
 62
     7
370
    25
100
AcDbLine
 10
626.8500427716
 20
698.7927041218
 30
0.0
 11
626.3457087021
 21
697.1197840752
 31
0.0
  0
LINE
  5
D3
330
1F
100
AcDbEntity
  8
0
  6
Continuous
 62
     7
370
    25
100
AcDbLine
 10
626.3713236578
 20
698.9370232477
 30
0.0
 11
626.8500427716
 21
698.7927041218
 31
0.0
  0
LINE
  5
D4
330
1F
100
AcDbEntity
  8
0
  6
Continuous
 62
     7
370
    25
100
AcDbLine
 10
603.5187708896
 20
710.2612321374
 30
0.0
 11
603.404395362
 21
710.7479746142
 31
0.0
  0
LINE
  5
D5
330
1F
100
AcDbEntity
  8
0
  6
Continuous
 62
     7
370
    25
100
AcDbLine
 10
603.404395362
 20
710.7479746142
 30
0.0
 11
605.1053536556
 21
711.1476685213
 31
0.0
  0
LINE
  5
D6
330
1F
100
AcDbEntity
  8
0
  6
Continuous
 62
     7
370
    25
100
AcDbLine
 10
618.5784083853
 20
711.5385147896
 30
0.0
 11
619.7750326094
 21
710.2652886501
 31
0.0
  0
LINE
  5
D7
330
1F
100
AcDbEntity
  8
0
  6
Continuous
 62
     7
370
    25
100
AcDbLine
 10
618.2140647991
 20
711.1960914387
 30
0.0
 11
618.5784083853
 21
711.5385147896
 31
0.0
  0
LINE
  5
D8
330
1F
100
AcDbEntity
  8
0
  6
Continuous
 62
     7
370
    25
100
AcDbLine
 10
621.8176567116
 20
685.6957671326
 30
0.0
 11
621.703281184
 21
686.1825096094
 31
0.0
  0
LINE
  5
D9
330
1F
100
AcDbEntity
  8
0
  6
Continuous
 62
     7
370
    25
100
AcDbLine
 10
622.0267409077
 20
685.8012304372
 30
0.0
 11
621.703281184
 21
686.1825096094
 31
0.0
  0
ARC
  5
DA
330
1F
100
AcDbEntity
  8
0
  6
Continuous
 62
     7
370
    25
100
AcDbCircle
 10
621.703281184
 20
686.1825096094
 30
0.0
 40
0.5000000000000199
100
AcDbArc
 50
283.2235523034
 51
310.309742062
  0
LINE
  5
DB
330
1F
100
AcDbEntity
  8
0
  6
Continuous
 62
     7
370
    25
100
AcDbLine
 10
621.8176567116
 20
685.6957671326
 30
0.0
 11
619.9476641346
 21
685.2563532786
 31
0.0
  0
LINE
  5
DC
330
1F
100
AcDbEntity
  8
0
  6
Continuous
 62
     7
370
    25
100
AcDbLine
 10
619.8332886069
 20
685.7430957553
 30
0.0
 11
621.703281184
 21
686.1825096094
 31
0.0
  0
ARC
  5
DD
330
1F
100
AcDbEntity
  8
0
  6
Continuous
 62
     7
370
    25
100
AcDbCircle
 10
611.6760297483
 20
698.0021639464
 30
0.0
 40
16.00000000000009
100
AcDbArc
 50
310.309742062
 51
316.1373625449
  0
ARC
  5
DE
330
1F
100
AcDbEntity
  8
0
  6
Continuous
 62
     7
370
    25
100
AcDbCircle
 10
611.6760297483
 20
698.0021639464
 30
0.0
 40
15.50000000000011
100
AcDbArc
 50
310.309742062
 51
316.1373625449
  0
LINE
  5
DF
330
1F
100
AcDbEntity
  8
0
  6
Continuous
 62
     7
370
    25
100
AcDbLine
 10
623.2120797544
 20
686.9152549877
 30
0.0
 11
622.8515781917
 21
687.2617208927
 31
0.0
  0
LINE
  5
E0
330
1F
100
AcDbEntity
  8
0
  6
Continuous
 62
     7
370
    25
100
AcDbLine
 10
622.8515781917
 20
687.2617208927
 30
0.0
 11
623.4060309198
 21
689.1008888963
 31
0.0
  0
LINE
  5
E1
330
1F
100
AcDbEntity
  8
0
  6
Continuous
 62
     7
370
    25
100
AcDbLine
 10
623.8847500336
 20
688.9565697704
 30
0.0
 11
623.3302973055
 21
687.1174017668
 31
0.0
  0
LINE
  5
E2
330
1F
100
AcDbEntity
  8
0
  6
Continuous
 62
     7
370
    25
100
AcDbLine
 10
623.3302973055
 20
687.1174017668
 30
0.0
 11
622.8515781917
 21
687.2617208927
 31
0.0
  0
ARC
  5
E3
330
1F
100
AcDbEntity
  8
0
  6
Continuous
 62
     7
370
    25
100
AcDbCircle
 10
622.8515781917
 20
687.2617208927
 30
0.0
 40
0.5000000000000329
100
AcDbArc
 50
316.1373625449
 51
343.2235523034
  0
LINE
  5
E4
330
1F
100
AcDbEntity
  8
0
  6
Continuous
 62
     7
370
    25
100
AcDbLine
 10
596.7867589942
 20
693.69407662
 30
0.0
 11
598.1022988431
 21
692.2943224705
 31
0.0
  0
LINE
  5
E5
330
1F
100
AcDbEntity
  8
0
  6
Continuous
 62
     7
370
    25
100
AcDbLine
 10
597.737955257
 20
691.9518991196
 30
0.0
 11
596.422415408
 21
693.3516532691
 31
0.0
  0
LINE
  5
E6
330
1F
100
AcDbEntity
  8
0
  6
Continuous
 62
     7
370
    25
100
AcDbLine
 10
596.7867589942
 20
693.69407662
 30
0.0
 11
596.422415408
 21
693.3516532691
 31
0.0
  0
ARC
  5
E7
330
1F
100
AcDbEntity
  8
0
  6
Continuous
 62
     7
370
    25
100
AcDbCircle
 10
596.7867589942
 20
693.69407662
 30
0.0
 40
0.4999999999999973
100
AcDbArc
 50
196.1373625449
 51
223.2235523034
  0
LINE
  5
E8
330
1F
100
AcDbEntity
  8
0
  6
Continuous
 62
     7
370
    25
100
AcDbLine
 10
596.7867589942
 20
693.69407662
 30
0.0
 11
596.3064599376
 21
693.5551060611
 31
0.0
  0
ARC
  5
E9
330
1F
100
AcDbEntity
  8
0
  6
Continuous
 62
     7
370
    25
100
AcDbCircle
 10
611.6760297483
 20
698.0021639464
 30
0.0
 40
15.50000000000005
100
AcDbArc
 50
190.309742062
 51
196.1373625449
  0
ARC
  5
EA
330
1F
100
AcDbEntity
  8
0
  6
Continuous
 62
     7
370
    25
100
AcDbCircle
 10
611.6760297483
 20
698.0021639464
 30
0.0
 40
16.00000000000005
100
AcDbArc
 50
190.309742062
 51
196.1373625449
  0
LINE
  5
EB
330
1F
100
AcDbEntity
  8
0
  6
Continuous
 62
     7
370
    25
100
AcDbLine
 10
596.4262831107
 20
695.2281366414
 30
0.0
 11
595.9343557998
 21
695.1386518897
 31
0.0
  0
LINE
  5
EC
330
1F
100
AcDbEntity
  8
0
  6
Continuous
 62
     7
370
    25
100
AcDbLine
 10
596.9807358388
 20
697.0673046451
 30
0.0
 11
596.4262831107
 21
695.2281366414
 31
0.0
  0
ARC
  5
ED
330
1F
100
AcDbEntity
  8
0
  6
Continuous
 62
     7
370
    25
100
AcDbCircle
 10
596.4262831107
 20
695.2281366414
 30
0.0
 40
0.5000000000000329
100
AcDbArc
 50
163.2235523034
 51
190.309742062
  0
LINE
  5
EE
330
1F
100
AcDbEntity
  8
0
  6
Continuous
 62
     7
370
    25
100
AcDbLine
 10
596.4262831107
 20
695.2281366414
 30
0.0
 11
595.9475639969
 21
695.3724557673
 31
0.0
  0
LINE
  5
EF
330
1F
100
AcDbEntity
  8
0
  6
Continuous
 62
     7
370
    25
100
AcDbLine
 10
595.9475639969
 20
695.3724557673
 30
0.0
 11
596.502016725
 21
697.2116237709
 31
0.0
  0
LINE
  5
F0
330
1F
100
AcDbEntity
  8
0
  6
Continuous
 62
     7
370
    25
100
AcDbLine
 10
626.3713236578
 20
698.9370232477
 30
0.0
 11
626.9257763859
 21
700.7761912513
 31
0.0
  0
LINE
  5
F1
330
1F
100
AcDbEntity
  8
0
  6
Continuous
 62
     7
370
    25
100
AcDbLine
 10
626.9257763859
 20
700.7761912513
 30
0.0
 11
627.4044954997
 21
700.6318721254
 31
0.0
  0
LINE
  5
F2
330
1F
100
AcDbEntity
  8
0
  6
Continuous
 62
     7
370
    25
100
AcDbLine
 10
627.4044954997
 20
700.6318721254
 30
0.0
 11
626.8500427716
 21
698.7927041218
 31
0.0
  0
LINE
  5
F3
330
1F
100
AcDbEntity
  8
0
  6
Continuous
 62
     7
370
    25
100
AcDbLine
 10
625.6141042396
 20
704.0524287732
 30
0.0
 11
626.9296440885
 21
702.6526746236
 31
0.0
  0
LINE
  5
F4
330
1F
100
AcDbEntity
  8
0
  6
Continuous
 62
     7
370
    25
100
AcDbLine
 10
626.9296440885
 20
702.6526746236
 30
0.0
 11
626.5653005024
 21
702.3102512727
 31
0.0
  0
LINE
  5
F5
330
1F
100
AcDbEntity
  8
0
  6
Continuous
 62
     7
370
    25
100
AcDbLine
 10
626.5653005024
 20
702.3102512727
 30
0.0
 11
625.2497606534
 21
703.7100054223
 31
0.0
  0
ARC
  5
F6
330
1F
100
AcDbEntity
  8
0
  6
Continuous
 62
     7
370
    25
100
AcDbCircle
 10
611.6760297483
 20
698.0021639464
 30
0.0
 40
16.00000000000007
100
AcDbArc
 50
10.309742062
 51
16.1373625449
  0
LINE
  5
F7
330
1F
100
AcDbEntity
  8
0
  6
Continuous
 62
     7
370
    25
100
AcDbLine
 10
627.4177036968
 20
700.8656760031
 30
0.0
 11
626.9257763859
 21
700.7761912513
 31
0.0
  0
ARC
  5
F8
330
1F
100
AcDbEntity
  8
0
  6
Continuous
 62
     7
370
    25
100
AcDbCircle
 10
611.6760297483
 20
698.0021639464
 30
0.0
 40
15.50000000000007
100
AcDbArc
 50
10.309742062
 51
16.1373625448
  0
LINE
  5
F9
330
1F
100
AcDbEntity
  8
0
  6
Continuous
 62
     7
370
    25
100
AcDbLine
 10
627.045599559
 20
702.4492218317
 30
0.0
 11
626.5653005024
 21
702.3102512727
 31
0.0
  0
ARC
  5
FA
330
1F
100
AcDbEntity
  8
0
  6
Continuous
 62
     7
370
    25
100
AcDbCircle
 10
626.9257763859
 20
700.7761912513
 30
0.0
 40
0.5000000000000048
100
AcDbArc
 50
343.2235523034
 51
10.309742062
  0
ARC
  5
FB
330
1F
100
AcDbEntity
  8
0
  6
Continuous
 62
     7
370
    25
100
AcDbCircle
 10
626.5653005024
 20
702.3102512727
 30
0.0
 40
0.5000000000000793
100
AcDbArc
 50
16.1373625449
 51
43.2235523034
  0
LINE
  5
FC
330
1F
100
AcDbEntity
  8
0
  6
Continuous
 62
     7
370
    25
100
AcDbLine
 10
603.5187708896
 20
710.2612321374
 30
0.0
 11
601.6487783126
 21
709.8218182834
 31
0.0
  0
LINE
  5
FD
330
1F
100
AcDbEntity
  8
0
  6
Continuous
 62
     7
370
    25
100
AcDbLine
 10
601.6487783126
 20
709.8218182834
 30
0.0
 11
601.534402785
 21
710.3085607601
 31
0.0
  0
LINE
  5
FE
330
1F
100
AcDbEntity
  8
0
  6
Continuous
 62
     7
370
    25
100
AcDbLine
 10
601.534402785
 20
710.3085607601
 30
0.0
 11
603.404395362
 21
710.7479746142
 31
0.0
  0
LINE
  5
FF
330
1F
100
AcDbEntity
  8
0
  6
Continuous
 62
     7
370
    25
100
AcDbLine
 10
599.467309463
 20
707.0477581223
 30
0.0
 11
600.0217621911
 21
708.8869261259
 31
0.0
  0
LINE
  5
100
330
1F
100
AcDbEntity
  8
0
  6
Continuous
 62
     7
370
    25
100
AcDbLine
 10
600.0217621911
 20
708.8869261259
 30
0.0
 11
600.5004813049
 21
708.7426070001
 31
0.0
  0
LINE
  5
101
330
1F
100
AcDbEntity
  8
0
  6
Continuous
 62
     7
370
    25
100
AcDbLine
 10
600.5004813049
 20
708.7426070001
 30
0.0
 11
599.9460285768
 21
706.9034389964
 31
0.0
  0
ARC
  5
102
330
1F
100
AcDbEntity
  8
0
  6
Continuous
 62
     7
370
    25
100
AcDbCircle
 10
611.6760297483
 20
698.0021639464
 30
0.0
 40
15.50000000000002
100
AcDbArc
 50
130.309742062
 51
136.1373625449
  0
ARC
  5
103
330
1F
100
AcDbEntity
  8
0
  6
Continuous
 62
     7
370
    25
100
AcDbCircle
 10
600.5004813049
 20
708.7426070001
 30
0.0
 40
0.5000000000000329
100
AcDbArc
 50
136.1373625448
 51
163.2235523034
  0
LINE
  5
104
330
1F
100
AcDbEntity
  8
0
  6
Continuous
 62
     7
370
    25
100
AcDbLine
 10
600.5004813049
 20
708.7426070001
 30
0.0
 11
600.1399797422
 21
709.089072905
 31
0.0
  0
ARC
  5
105
330
1F
100
AcDbEntity
  8
0
  6
Continuous
 62
     7
370
    25
100
AcDbCircle
 10
601.6487783126
 20
709.8218182834
 30
0.0
 40
0.4999999999999111
100
AcDbArc
 50
103.2235523034
 51
130.309742062
  0
LINE
  5
106
330
1F
100
AcDbEntity
  8
0
  6
Continuous
 62
     7
370
    25
100
AcDbLine
 10
601.6487783126
 20
709.8218182834
 30
0.0
 11
601.3253185889
 21
710.2030974555
 31
0.0
  0
ARC
  5
107
330
1F
100
AcDbEntity
  8
0
  6
Continuous
 62
     7
370
    25
100
AcDbCircle
 10
611.6760297483
 20
698.0021639464
 30
0.0
 40
15.99999999999993
100
AcDbArc
 50
130.309742062
 51
136.1373625449
  0
LINE
  5
108
330
1F
100
AcDbEntity
  8
0
  6
Continuous
 62
     7
370
    25
100
AcDbLine
 10
618.2140647991
 20
711.1960914387
 30
0.0
 11
616.8985249502
 21
712.5958455883
 31
0.0
  0
LINE
  5
109
330
1F
100
AcDbEntity
  8
0
  6
Continuous
 62
     7
370
    25
100
AcDbLine
 10
615.389752059
 20
713.0506943264
 30
0.0
 11
613.5197594819
 21
712.6112804723
 31
0.0
  0
ARC
  5
10A
330
1F
100
AcDbEntity
  8
0
  6
Continuous
 62
     7
370
    25
100
AcDbCircle
 10
611.6760297483
 20
698.0021639464
 30
0.0
 40
15.50000000000005
100
AcDbArc
 50
70.309742062
 51
76.1373625449
  0
LINE
  5
10B
330
1F
100
AcDbEntity
  8
0
  6
Continuous
 62
     7
370
    25
100
AcDbLine
 10
613.4053839543
 20
713.0980229491
 30
0.0
 11
615.2753765313
 21
713.5374368032
 31
0.0
  0
LINE
  5
10C
330
1F
100
AcDbEntity
  8
0
  6
Continuous
 62
     7
370
    25
100
AcDbLine
 10
615.2753765313
 20
713.5374368032
 30
0.0
 11
615.389752059
 21
713.0506943264
 31
0.0
  0
ARC
  5
10D
330
1F
100
AcDbEntity
  8
0
  6
Continuous
 62
     7
370
    25
100
AcDbCircle
 10
611.6760297483
 20
698.0021639464
 30
0.0
 40
15.99999999999998
100
AcDbArc
 50
70.309742062
 51
76.1373625448
  0
LINE
  5
10E
330
1F
100
AcDbEntity
  8
0
  6
Continuous
 62
     7
370
    25
100
AcDbLine
 10
617.0669925374
 20
713.0666095122
 30
0.0
 11
616.8985249502
 21
712.5958455883
 31
0.0
  0
LINE
  5
10F
330
1F
100
AcDbEntity
  8
0
  6
Continuous
 62
     7
370
    25
100
AcDbLine
 10
615.389752059
 20
713.0506943264
 30
0.0
 11
615.5095495529
 21
713.5361307903
 31
0.0
  0
LINE
  5
110
330
1F
100
AcDbEntity
  8
0
  6
Continuous
 62
     7
370
    25
100
AcDbLine
 10
616.8985249502
 20
712.5958455883
 30
0.0
 11
617.2628685364
 21
712.9382689392
 31
0.0
  0
LINE
  5
111
330
1F
100
AcDbEntity
  8
0
  6
Continuous
 62
     7
370
    25
100
AcDbLine
 10
617.2628685364
 20
712.9382689392
 30
0.0
 11
618.5784083853
 21
711.5385147896
 31
0.0
  0
ARC
  5
112
330
1F
100
AcDbEntity
  8
0
  6
Continuous
 62
     7
370
    25
100
AcDbCircle
 10
616.8985249502
 20
712.5958455883
 30
0.0
 40
0.5000000000000627
100
AcDbArc
 50
43.2235523034
 51
70.309742062
  0
ARC
  5
113
330
1F
100
AcDbEntity
  8
0
  6
Continuous
 62
     7
370
    25
100
AcDbCircle
 10
615.389752059
 20
713.0506943264
 30
0.0
 40
0.4999999999999106
100
AcDbArc
 50
76.1373625448
 51
103.2235523034
  0
ARC
  5
114
330
1F
100
AcDbEntity
  8
0
  6
Continuous
 62
     7
370
    25
100
AcDbCircle
 10
611.6760297483
 20
698.0021639464
 30
0.0
 40
8.250000000000092
100
AcDbArc
 50
343.2508741362
 51
196.7491258638
  0
ARC
  5
115
330
1F
100
AcDbEntity
  8
0
  6
Continuous
 62
     7
370
    25
100
AcDbCircle
 10
611.6760297483
 20
698.0021639464
 30
0.0
 40
9.575000000000092
100
AcDbArc
 50
325.5951096848
 51
214.4048903152
  0
ARC
  5
116
330
1F
100
AcDbEntity
  8
0
  6
Continuous
 62
     7
370
    25
100
AcDbCircle
 10
611.6760297483
 20
698.0021639464
 30
0.0
 40
8.050000000000098
100
AcDbArc
 50
348.9219835539
 51
191.0780164461
  0
CIRCLE
  5
117
330
1F
100
AcDbEntity
  8
0
  6
Continuous
 62
     7
370
    25
100
AcDbCircle
 10
713.2760297483
 20
698.0021639464
 30
0.0
 40
5.32891433662769
  0
CIRCLE
  5
118
330
1F
100
AcDbEntity
  8
0
  6
Continuous
 62
     7
370
    25
100
AcDbCircle
 10
713.2760297483
 20
698.0021639464
 30
0.0
 40
5.074569253689219
  0
CIRCLE
  5
119
330
1F
100
AcDbEntity
  8
0
  6
Continuous
 62
     7
370
    25
100
AcDbCircle
 10
713.2760297483
 20
698.0021639464
 30
0.0
 40
4.452105871057256
  0
CIRCLE
  5
11A
330
1F
100
AcDbEntity
  8
0
  6
Continuous
 62
     7
370
    25
100
AcDbCircle
 10
713.2760297483
 20
698.0021639464
 30
0.0
 40
5.925127771161328
  0
CIRCLE
  5
11B
330
1F
100
AcDbEntity
  8
0
  6
Continuous
 62
     7
370
    25
100
AcDbCircle
 10
713.2760297483
 20
698.0021639464
 30
0.0
 40
7.149999999999977
  0
LINE
  5
11C
330
1F
100
AcDbEntity
  8
0
  6
Continuous
 62
     7
370
    25
100
AcDbLine
 10
713.2694567891
 20
700.6704886635
 30
0.0
 11
714.4393873577
 21
700.4035383596
 31
0.0
  0
LINE
  5
11D
330
1F
100
AcDbEntity
  8
0
  6
Continuous
 62
     7
370
    25
100
AcDbLine
 10
712.9913835559
 20
699.451810988
 30
0.0
 11
713.2694567891
 21
700.6704886635
 31
0.0
  0
SPLINE
  5
11E
330
1F
100
AcDbEntity
  8
0
  6
Continuous
 62
     7
370
    25
100
AcDbSpline
210
0.0
220
0.0
230
1.0
 70
     8
 71
     3
 72
    12
 73
     8
 74
     0
 42
0.00000001
 43
0.00000001
 40
0.0
 40
0.0
 40
0.0
 40
0.0
 40
0.2133534395476135
 40
0.4267919313634461
 40
0.638353973909149
 40
0.8490950351927548
 40
0.9999999999999999
 40
0.9999999999999999
 40
0.9999999999999999
 40
0.9999999999999999
 10
712.093333010604
 20
698.8874483225414
 30
0.0
 10
712.1765368847581
 20
698.8767729648004
 30
0.0
 10
712.3429778018693
 20
698.8554179936406
 30
0.0
 10
712.5895471675362
 20
698.9298323095514
 30
0.0
 10
712.7960833700826
 20
699.0749160620514
 30
0.0
 10
712.9333564836702
 20
699.2599921142373
 30
0.0
 10
712.9742992590166
 20
699.3953357866542
 30
0.0
 10
712.9913835558899
 20
699.4518109879546
 30
0.0
  0
LINE
  5
11F
330
1F
100
AcDbEntity
  8
0
  6
Continuous
 62
     7
370
    25
100
AcDbLine
 10
710.874655335
 20
699.1655215558
 30
0.0
 11
712.0933330106
 21
698.8874483225
 31
0.0
  0
LINE
  5
120
330
1F
100
AcDbEntity
  8
0
  6
Continuous
 62
     7
370
    25
100
AcDbLine
 10
710.6077050311
 20
697.9955909872
 30
0.0
 11
710.874655335
 21
699.1655215558
 31
0.0
  0
LINE
  5
121
330
1F
100
AcDbEntity
  8
0
  6
Continuous
 62
     7
370
    25
100
AcDbLine
 10
711.8263827067
 20
697.717517754
 30
0.0
 11
710.6077050311
 21
697.9955909872
 31
0.0
  0
SPLINE
  5
122
330
1F
100
AcDbEntity
  8
0
  6
Continuous
 62
     7
370
    25
100
AcDbSpline
210
0.0
220
0.0
230
1.0
 70
     8
 71
     3
 72
    12
 73
     8
 74
     0
 42
0.00000001
 43
0.00000001
 40
0.0
 40
0.0
 40
0.0
 40
0.0
 40
0.2133534395476132
 40
0.4267919313634478
 40
0.638353973909154
 40
0.8490950351927532
 40
1.0
 40
1.0
 40
1.0
 40
1.0
 10
712.390745372119
 20
696.8194672086968
 30
0.0
 10
712.4014207298601
 20
696.9026710828508
 30
0.0
 10
712.4227757010199
 20
697.069111999962
 30
0.0
 10
712.348361385109
 20
697.315681365629
 30
0.0
 10
712.2032776326089
 20
697.5222175681755
 30
0.0
 10
712.0182015804231
 20
697.6594906817629
 30
0.0
 10
711.8828579080064
 20
697.7004334571093
 30
0.0
 10
711.826382706706
 20
697.7175177539825
 30
0.0
  0
LINE
  5
123
330
1F
100
AcDbEntity
  8
0
  6
Continuous
 62
     7
370
    25
100
AcDbLine
 10
712.1126721389
 20
695.6007895331
 30
0.0
 11
712.3907453721
 21
696.8194672087
 31
0.0
  0
LINE
  5
124
330
1F
100
AcDbEntity
  8
0
  6
Continuous
 62
     7
370
    25
100
AcDbLine
 10
713.2826027075
 20
695.3338392292
 30
0.0
 11
712.1126721389
 21
695.6007895331
 31
0.0
  0
LINE
  5
125
330
1F
100
AcDbEntity
  8
0
  6
Continuous
 62
     7
370
    25
100
AcDbLine
 10
713.5606759407
 20
696.5525169048
 30
0.0
 11
713.2826027075
 21
695.3338392292
 31
0.0
  0
LINE
  5
126
330
1F
100
AcDbEntity
  8
0
  6
Continuous
 62
     7
370
    25
100
AcDbLine
 10
715.6774041615
 20
696.838806337
 30
0.0
 11
714.458726486
 21
697.1168795702
 31
0.0
  0
LINE
  5
127
330
1F
100
AcDbEntity
  8
0
  6
Continuous
 62
     7
370
    25
100
AcDbLine
 10
715.9443544654
 20
698.0087369055
 30
0.0
 11
715.6774041615
 21
696.838806337
 31
0.0
  0
LINE
  5
128
330
1F
100
AcDbEntity
  8
0
  6
Continuous
 62
     7
370
    25
100
AcDbLine
 10
714.7256767899
 20
698.2868101388
 30
0.0
 11
715.9443544654
 21
698.0087369055
 31
0.0
  0
SPLINE
  5
129
330
1F
100
AcDbEntity
  8
0
  6
Continuous
 62
     7
370
    25
100
AcDbSpline
210
0.0
220
0.0
230
1.0
 70
     8
 71
     3
 72
    12
 73
     8
 74
     0
 42
0.00000001
 43
0.00000001
 40
0.0
 40
0.0
 40
0.0
 40
0.0
 40
0.2133534395476131
 40
0.4267919313634476
 40
0.6383539739091537
 40
0.8490950351927532
 40
1.0
 40
1.0
 40
1.0
 40
1.0
 10
714.1613141244487
 20
699.1848606840563
 30
0.0
 10
714.1506387667076
 20
699.1016568099022
 30
0.0
 10
714.129283795548
 20
698.9352158927911
 30
0.0
 10
714.2036981114587
 20
698.6886465271242
 30
0.0
 10
714.3487818639587
 20
698.4821103245778
 30
0.0
 10
714.5338579161446
 20
698.3448372109902
 30
0.0
 10
714.6692015885614
 20
698.3038944356439
 30
0.0
 10
714.7256767898617
 20
698.2868101387705
 30
0.0
  0
LINE
  5
12A
330
1F
100
AcDbEntity
  8
0
  6
Continuous
 62
     7
370
    25
100
AcDbLine
 10
714.4393873577
 20
700.4035383596
 30
0.0
 11
714.1613141244
 21
699.1848606841
 31
0.0
  0
CIRCLE
  5
12B
330
1F
100
AcDbEntity
  8
0
  6
Continuous
 62
     7
370
    25
100
AcDbCircle
 10
713.2760297483
 20
698.0021639464
 30
0.0
 40
4.197433366238919
  0
SPLINE
  5
12C
330
1F
100
AcDbEntity
  8
0
  6
Continuous
 62
     7
370
    25
100
AcDbSpline
210
0.0
220
0.0
230
1.0
 70
     8
 71
     3
 72
    12
 73
     8
 74
     0
 42
0.00000001
 43
0.00000001
 40
0.0
 40
0.0
 40
0.0
 40
0.0
 40
0.2133534395476136
 40
0.4267919313634463
 40
0.6383539739091494
 40
0.8490950351927551
 40
1.0
 40
1.0
 40
1.0
 40
1.0
 10
714.4587264859637
 20
697.1168795702116
 30
0.0
 10
714.3755226118096
 20
697.1275549279528
 30
0.0
 10
714.2090816946984
 20
697.1489098991125
 30
0.0
 10
713.9625123290316
 20
697.0744955832017
 30
0.0
 10
713.7559761264852
 20
696.9294118307017
 30
0.0
 10
713.6187030128975
 20
696.744335778516
 30
0.0
 10
713.5777602375512
 20
696.6089921060991
 30
0.0
 10
713.5606759406778
 20
696.5525169047987
 30
0.0
  0
LINE
  5
12D
330
1F
100
AcDbEntity
  8
0
  6
Continuous
 62
     7
370
    25
100
AcDbLine
 10
511.2393873577
 20
695.6007895331
 30
0.0
 11
510.0694567891
 21
695.3338392292
 31
0.0
  0
LINE
  5
12E
330
1F
100
AcDbEntity
  8
0
  6
Continuous
 62
     7
370
    25
100
AcDbLine
 10
510.9613141244
 20
696.8194672087
 30
0.0
 11
511.2393873577
 21
695.6007895331
 31
0.0
  0
SPLINE
  5
12F
330
1F
100
AcDbEntity
  8
0
  6
Continuous
 62
     7
370
    25
100
AcDbSpline
210
0.0
220
0.0
230
1.0
 70
     8
 71
     3
 72
    12
 73
     8
 74
     0
 42
0.00000001
 43
0.00000001
 40
0.0
 40
0.0
 40
0.0
 40
0.0
 40
0.2133534395476119
 40
0.4267919313634478
 40
0.6383539739091497
 40
0.849095035192757
 40
0.9999999999999999
 40
0.9999999999999999
 40
0.9999999999999999
 40
0.9999999999999999
 10
511.5256767898617
 20
697.7175177539825
 30
0.0
 10
511.4460774389327
 20
697.6910452915201
 30
0.0
 10
511.2868470051965
 20
697.6380898134822
 30
0.0
 10
511.0969605879296
 20
697.4640866783514
 30
0.0
 10
510.9737992012077
 20
697.2437737848962
 30
0.0
 10
510.9303929443981
 20
697.017471001713
 30
0.0
 10
510.9522103285919
 20
696.877763370342
 30
0.0
 10
510.9613141244487
 20
696.8194672086968
 30
0.0
  0
LINE
  5
130
330
1F
100
AcDbEntity
  8
0
  6
Continuous
 62
     7
370
    25
100
AcDbLine
 10
512.7443544654
 20
697.9955909872
 30
0.0
 11
511.5256767899
 21
697.717517754
 31
0.0
  0
LINE
  5
131
330
1F
100
AcDbEntity
  8
0
  6
Continuous
 62
     7
370
    25
100
AcDbLine
 10
512.4774041615
 20
699.1655215558
 30
0.0
 11
512.7443544654
 21
697.9955909872
 31
0.0
  0
LINE
  5
132
330
1F
100
AcDbEntity
  8
0
  6
Continuous
 62
     7
370
    25
100
AcDbLine
 10
511.258726486
 20
698.8874483225
 30
0.0
 11
512.4774041615
 21
699.1655215558
 31
0.0
  0
SPLINE
  5
133
330
1F
100
AcDbEntity
  8
0
  6
Continuous
 62
     7
370
    25
100
AcDbSpline
210
0.0
220
0.0
230
1.0
 70
     8
 71
     3
 72
    12
 73
     8
 74
     0
 42
0.00000001
 43
0.00000001
 40
0.0
 40
0.0
 40
0.0
 40
0.0
 40
0.2133534395476159
 40
0.4267919313634425
 40
0.6383539739091564
 40
0.849095035192758
 40
1.0
 40
1.0
 40
1.0
 40
1.0
 10
510.3606759406778
 20
699.4518109879546
 30
0.0
 10
510.3871484031403
 20
699.3722116370254
 30
0.0
 10
510.4401038811782
 20
699.2129812032894
 30
0.0
 10
510.614107016309
 20
699.0230947860224
 30
0.0
 10
510.8344199097641
 20
698.8999333993005
 30
0.0
 10
511.0607226929473
 20
698.8565271424909
 30
0.0
 10
511.2004303243183
 20
698.8783445266846
 30
0.0
 10
511.2587264859636
 20
698.8874483225414
 30
0.0
  0
LINE
  5
134
330
1F
100
AcDbEntity
  8
0
  6
Continuous
 62
     7
370
    25
100
AcDbLine
 10
510.0826027075
 20
700.6704886635
 30
0.0
 11
510.3606759407
 21
699.451810988
 31
0.0
  0
LINE
  5
135
330
1F
100
AcDbEntity
  8
0
  6
Continuous
 62
     7
370
    25
100
AcDbLine
 10
508.9126721389
 20
700.4035383596
 30
0.0
 11
510.0826027075
 21
700.6704886635
 31
0.0
  0
LINE
  5
136
330
1F
100
AcDbEntity
  8
0
  6
Continuous
 62
     7
370
    25
100
AcDbLine
 10
509.1907453721
 20
699.1848606841
 30
0.0
 11
508.9126721389
 21
700.4035383596
 31
0.0
  0
SPLINE
  5
137
330
1F
100
AcDbEntity
  8
0
  6
Continuous
 62
     7
370
    25
100
AcDbSpline
210
0.0
220
0.0
230
1.0
 70
     8
 71
     3
 72
    12
 73
     8
 74
     0
 42
0.00000001
 43
0.00000001
 40
0.0
 40
0.0
 40
0.0
 40
0.0
 40
0.213353439547612
 40
0.426791931363448
 40
0.63835397390915
 40
0.8490950351927569
 40
1.0
 40
1.0
 40
1.0
 40
1.0
 10
508.6263827067059
 20
698.2868101387705
 30
0.0
 10
508.7059820576349
 20
698.313282601233
 30
0.0
 10
508.865212491371
 20
698.366238079271
 30
0.0
 10
509.055098908638
 20
698.5402412144017
 30
0.0
 10
509.17826029536
 20
698.7605541078568
 30
0.0
 10
509.2216665521695
 20
698.9868568910401
 30
0.0
 10
509.1998491679757
 20
699.1265645224111
 30
0.0
 10
509.190745372119
 20
699.1848606840563
 30
0.0
  0
LINE
  5
138
330
1F
100
AcDbEntity
  8
0
  6
Continuous
 62
     7
370
    25
100
AcDbLine
 10
507.4077050311
 20
698.0087369055
 30
0.0
 11
508.6263827067
 21
698.2868101388
 31
0.0
  0
LINE
  5
139
330
1F
100
AcDbEntity
  8
0
  6
Continuous
 62
     7
370
    25
100
AcDbLine
 10
507.674655335
 20
696.838806337
 30
0.0
 11
507.4077050311
 21
698.0087369055
 31
0.0
  0
LINE
  5
13A
330
1F
100
AcDbEntity
  8
0
  6
Continuous
 62
     7
370
    25
100
AcDbLine
 10
508.8933330106
 20
697.1168795702
 30
0.0
 11
507.674655335
 21
696.838806337
 31
0.0
  0
LINE
  5
13B
330
1F
100
AcDbEntity
  8
0
  6
Continuous
 62
     7
370
    25
100
AcDbLine
 10
510.0694567891
 20
695.3338392292
 30
0.0
 11
509.7913835559
 21
696.5525169048
 31
0.0
  0
CIRCLE
  5
13C
330
1F
100
AcDbEntity
  8
0
  6
Continuous
 62
     7
370
    25
100
AcDbCircle
 10
510.0760297483
 20
698.0021639464
 30
0.0
 40
4.197433366238863
  0
SPLINE
  5
13D
330
1F
100
AcDbEntity
  8
0
  6
Continuous
 62
     7
370
    25
100
AcDbSpline
210
0.0
220
0.0
230
1.0
 70
     8
 71
     3
 72
    12
 73
     8
 74
     0
 42
0.00000001
 43
0.00000001
 40
0.0
 40
0.0
 40
0.0
 40
0.0
 40
0.2133534395476155
 40
0.4267919313634422
 40
0.6383539739091563
 40
0.8490950351927579
 40
0.9999999999999999
 40
0.9999999999999999
 40
0.9999999999999999
 40
0.9999999999999999
 10
509.7913835558898
 20
696.5525169047987
 30
0.0
 10
509.7649110934274
 20
696.6321162557276
 30
0.0
 10
509.7119556153894
 20
696.7913466894637
 30
0.0
 10
509.5379524802587
 20
696.9812331067308
 30
0.0
 10
509.3176395868035
 20
697.1043944934528
 30
0.0
 10
509.0913368036203
 20
697.1478007502623
 30
0.0
 10
508.9516291722493
 20
697.1259833660685
 30
0.0
 10
508.893333010604
 20
697.1168795702116
 30
0.0
  0
SPLINE
  5
13E
330
1F
100
AcDbEntity
  8
0
  6
Continuous
 62
     7
370
    25
100
AcDbSpline
210
0.0
220
0.0
230
1.0
 70
     8
 71
     3
 72
    11
 73
     7
 74
     0
 42
0.00000001
 43
0.00000001
 40
0.0
 40
0.0
 40
0.0
 40
0.0
 40
0.2200386424382255
 40
0.6637869905998169
 40
0.8890365590789576
 40
1.0
 40
1.0
 40
1.0
 40
1.0
 10
719.9536198928757
 20
704.0224822533276
 30
0.0
 10
720.1578413558773
 20
703.7574636420687
 30
0.0
 10
720.7739129187609
 20
702.957986311764
 30
0.0
 10
721.297462269778
 20
701.6948170412362
 30
0.0
 10
721.549091469539
 20
700.528247227912
 30
0.0
 10
721.5283842748169
 20
700.0169674292526
 30
0.0
 10
721.5215500907908
 20
699.8482251017804
 30
0.0
  0
SPLINE
  5
13F
330
1F
100
AcDbEntity
  8
0
  6
Continuous
 62
     7
370
    25
100
AcDbSpline
210
0.0
220
0.0
230
1.0
 70
     8
 71
     3
 72
     9
 73
     5
 74
     0
 42
0.00000001
 43
0.00000001
 40
0.0
 40
0.0
 40
0.0
 40
0.0
 40
0.9209630919903056
 40
1.0
 40
1.0
 40
1.0
 40
1.0
 10
721.5936622561231
 20
703.7021589776939
 30
0.0
 10
721.0792407182503
 20
703.7589860366126
 30
0.0
 10
720.5206716047354
 20
703.8206899848086
 30
0.0
 10
719.9951550930662
 20
704.0077014456966
 30
0.0
 10
719.9536198928757
 20
704.0224822533276
 30
0.0
  0
SPLINE
  5
140
330
1F
100
AcDbEntity
  8
0
  6
Continuous
 62
     7
370
    25
100
AcDbSpline
210
0.0
220
0.0
230
1.0
 70
     8
 71
     3
 72
    10
 73
     6
 74
     0
 42
0.00000001
 43
0.00000001
 40
0.0
 40
0.0
 40
0.0
 40
0.0
 40
0.2596150688488836
 40
0.629760644481066
 40
0.9999999999999999
 40
0.9999999999999999
 40
0.9999999999999999
 40
0.9999999999999999
 10
768.7688232100602
 20
701.110601408705
 30
0.0
 10
764.6910029913372
 20
701.4103555458033
 30
0.0
 10
754.799240157972
 20
702.1374834409675
 30
0.0
 10
739.0696674752987
 20
702.9633303108577
 30
0.0
 10
727.4194892140341
 20
703.4558619601233
 30
0.0
 10
721.5936622561231
 20
703.7021589776939
 30
0.0
  0
SPLINE
  5
141
330
1F
100
AcDbEntity
  8
0
  6
Continuous
 62
     7
370
    25
100
AcDbSpline
210
0.0
220
0.0
230
1.0
 70
     8
 71
     3
 72
    11
 73
     7
 74
     0
 42
0.00000001
 43
0.00000001
 40
0.0
 40
0.0
 40
0.0
 40
0.0
 40
0.061464119541392
 40
0.4999988937835377
 40
0.9375097801832794
 40
1.0
 40
1.0
 40
1.0
 40
1.0
 10
768.76882321006
 20
695.384569061703
 30
0.0
 10
768.7804924062624
 20
695.5010260341551
 30
0.0
 10
768.8754190925318
 20
696.4483813014864
 30
0.0
 10
768.9591219197982
 20
698.2456254999345
 30
0.0
 10
768.8755519962777
 20
700.0448235241754
 30
0.0
 10
768.7806802912326
 20
700.9921983486084
 30
0.0
 10
768.7688232100602
 20
701.110601408705
 30
0.0
  0
SPLINE
  5
142
330
1F
100
AcDbEntity
  8
0
  6
Continuous
 62
     7
370
    25
100
AcDbSpline
210
0.0
220
0.0
230
1.0
 70
     8
 71
     3
 72
    10
 73
     6
 74
     0
 42
0.00000001
 43
0.00000001
 40
0.0
 40
0.0
 40
0.0
 40
0.0
 40
0.2594618540778875
 40
0.6296073956705976
 40
1.0
 40
1.0
 40
1.0
 40
1.0
 10
721.5936622561231
 20
692.7930114927159
 30
0.0
 10
725.6765304942186
 20
692.9603958022415
 30
0.0
 10
735.5839754532832
 20
693.366568800469
 30
0.0
 10
751.3152720147525
 20
694.1533521581996
 30
0.0
 10
762.9496789649639
 20
694.974072156041
 30
0.0
 10
768.76882321006
 20
695.384569061703
 30
0.0
  0
SPLINE
  5
143
330
1F
100
AcDbEntity
  8
0
  6
Continuous
 62
     7
370
    25
100
AcDbSpline
210
0.0
220
0.0
230
1.0
 70
     8
 71
     3
 72
     9
 73
     5
 74
     0
 42
0.00000001
 43
0.00000001
 40
0.0
 40
0.0
 40
0.0
 40
0.0
 40
0.0790369080192139
 40
1.0
 40
1.0
 40
1.0
 40
1.0
 10
719.9536198928765
 20
692.4726882170826
 30
0.0
 10
719.9951550930718
 20
692.4874690247152
 30
0.0
 10
720.5206716047411
 20
692.6744804856031
 30
0.0
 10
721.0792407182557
 20
692.7361844337985
 30
0.0
 10
721.5936622561231
 20
692.7930114927159
 30
0.0
  0
SPLINE
  5
144
330
1F
100
AcDbEntity
  8
0
  6
Continuous
 62
     7
370
    25
100
AcDbSpline
210
0.0
220
0.0
230
1.0
 70
     8
 71
     3
 72
    11
 73
     7
 74
     0
 42
0.00000001
 43
0.00000001
 40
0.0
 40
0.0
 40
0.0
 40
0.0
 40
0.0728838064943292
 40
0.4140719411596028
 40
0.9209668754550567
 40
1.0
 40
1.0
 40
1.0
 40
1.0
 10
721.521550090787
 20
696.6469453686443
 30
0.0
 10
721.5292652399247
 20
696.5364989344054
 30
0.0
 10
721.5730970172892
 20
695.9090238940744
 30
0.0
 10
721.2286053058511
 20
694.5260318636093
 30
0.0
 10
720.588915956365
 20
693.2561003458318
 30
0.0
 10
720.029127206932
 20
692.5657996796588
 30
0.0
 10
719.9536198928765
 20
692.4726882170826
 30
0.0
  0
SPLINE
  5
145
330
1F
100
AcDbEntity
  8
0
  6
Continuous
 62
     7
370
    25
100
AcDbSpline
210
0.0
220
0.0
230
1.0
 70
     8
 71
     3
 72
    10
 73
     6
 74
     0
 42
0.00000001
 43
0.00000001
 40
0.0
 40
0.0
 40
0.0
 40
0.0
 40
0.3880207377811385
 40
0.9790637766506849
 40
1.0
 40
1.0
 40
1.0
 40
1.0
 10
721.5215500907908
 20
699.8482251017804
 30
0.0
 10
721.4482355600313
 20
699.4373852399247
 30
0.0
 10
721.263246474708
 20
698.4007436700763
 30
0.0
 10
721.3589534005391
 20
697.3069743485049
 30
0.0
 10
721.5161715517869
 20
696.6687784797856
 30
0.0
 10
721.521550090787
 20
696.6469453686443
 30
0.0
  0
ARC
  5
146
330
1F
100
AcDbEntity
  8
0
  6
Continuous
 62
     7
370
    25
100
AcDbCircle
 10
713.2760297483
 20
698.2475852352
 30
0.0
 40
8.399443654264694
100
AcDbArc
 50
10.985757993
 51
349.0142420071
  0
SPLINE
  5
147
330
1F
100
AcDbEntity
  8
0
  6
Continuous
 62
     7
370
    25
100
AcDbSpline
210
0.0
220
0.0
230
1.0
 70
     8
 71
     3
 72
     9
 73
     5
 74
     0
 42
0.00000001
 43
0.00000001
 40
0.0
 40
0.0
 40
0.0
 40
0.0
 40
0.681792342127431
 40
1.0
 40
1.0
 40
1.0
 40
1.0
 10
719.9536198928765
 20
692.4726882170826
 30
0.0
 10
719.8113563322335
 20
692.2827778619774
 30
0.0
 10
719.602695202073
 20
692.0042321181038
 30
0.0
 10
719.3732693681927
 20
691.7713277451608
 30
0.0
 10
719.3002643109381
 20
691.6972157901383
 30
0.0
  0
ARC
  5
148
330
1F
100
AcDbEntity
  8
0
  6
Continuous
 62
     7
370
    25
100
AcDbCircle
 10
713.2760297483
 20
698.2475852352
 30
0.0
 40
8.899367501836373
100
AcDbArc
 50
47.3959191961
 51
312.6040808039
  0
LINE
  5
149
330
1F
100
AcDbEntity
  8
0
  6
Continuous
 62
     7
370
    25
100
AcDbLine
 10
719.3002643109
 20
704.7979546803
 30
0.0
 11
719.9536198929
 21
704.0224822533
 31
0.0
  0
SPLINE
  5
14A
330
1F
100
AcDbEntity
  8
0
  6
Continuous
 62
     7
370
    25
100
AcDbSpline
210
0.0
220
0.0
230
1.0
 70
     8
 71
     3
 72
    10
 73
     6
 74
     0
 42
0.00000001
 43
0.00000001
 40
0.0
 40
0.0
 40
0.0
 40
0.0
 40
0.3702896688583046
 40
0.7405318123903298
 40
0.9999999999999999
 40
0.9999999999999999
 40
0.9999999999999999
 40
0.9999999999999999
 10
768.7803426732385
 20
694.9417094808698
 30
0.0
 10
762.9602788270201
 20
694.6215184663434
 30
0.0
 10
751.3208981185164
 20
693.9811775326378
 30
0.0
 10
735.6020297117418
 20
693.1119432007746
 30
0.0
 10
725.704855895732
 20
692.5632021991654
 30
0.0
 10
721.6267875752678
 20
692.3370969153336
 30
0.0
  0
ARC
  5
14B
330
1F
100
AcDbEntity
  8
0
  6
Continuous
 62
     7
370
    25
100
AcDbCircle
 10
728.8418767824
 20
693.090483282
 30
0.0
 40
7.254316183118874
100
AcDbArc
 50
182.3501399448
 51
185.9611177314
  0
ARC
  5
14C
330
1F
100
AcDbEntity
  8
0
  6
Continuous
 62
     7
370
    25
100
AcDbCircle
 10
764.5198201321
 20
695.0524663049
 30
0.0
 40
4.261961918836792
100
AcDbArc
 50
358.5108705386
 51
4.4691613065
  0
SPLINE
  5
14D
330
1F
100
AcDbEntity
  8
0
  6
Continuous
 62
     7
370
    25
100
AcDbSpline
210
0.0
220
0.0
230
1.0
 70
     8
 71
     3
 72
    10
 73
     6
 74
     0
 42
0.00000001
 43
0.00000001
 40
0.0
 40
0.0
 40
0.0
 40
0.0
 40
0.3702717503651152
 40
0.7405122151371749
 40
1.0
 40
1.0
 40
1.0
 40
1.0
 10
721.6267875752678
 20
704.158073555076
 30
0.0
 10
727.446459636937
 20
703.8355450694082
 30
0.0
 10
739.0853120352339
 20
703.1905153496651
 30
0.0
 10
754.8044516191885
 20
702.3217008621862
 30
0.0
 10
764.7019490428872
 20
701.7776459514193
 30
0.0
 10
768.7803426732352
 20
701.5534609895402
 30
0.0
  0
ARC
  5
14E
330
1F
100
AcDbEntity
  8
0
  6
Continuous
 62
     7
370
    25
100
AcDbCircle
 10
764.5198201291
 20
701.4427041656
 30
0.0
 40
4.261961921790682
100
AcDbArc
 50
355.530838696
 51
1.4891294598
  0
ARC
  5
14F
330
1F
100
AcDbEntity
  8
0
  6
Continuous
 62
     7
370
    25
100
AcDbCircle
 10
728.8418767825
 20
703.4046871884
 30
0.0
 40
7.254316183231427
100
AcDbArc
 50
174.0388822686
 51
177.6498600552
  0
SPLINE
  5
150
330
1F
100
AcDbEntity
  8
0
  6
Continuous
 62
     7
370
    25
100
AcDbSpline
210
0.0
220
0.0
230
1.0
 70
     8
 71
     3
 72
    12
 73
     8
 74
     0
 42
0.00000001
 43
0.00000001
 40
0.0
 40
0.0
 40
0.0
 40
0.0
 40
0.1224290494151348
 40
0.3423522449770467
 40
0.5614228816909441
 40
0.7807229538533574
 40
1.0
 40
1.0
 40
1.0
 40
1.0
 10
770.7045506429077
 20
700.9999270390487
 30
0.0
 10
770.6955465670437
 20
701.0022857234896
 30
0.0
 10
770.6703681833127
 20
701.0088813878143
 30
0.0
 10
770.454380499668
 20
701.0258893555537
 30
0.0
 10
770.018482369939
 20
701.051400329708
 30
0.0
 10
769.4345567565086
 20
701.0809525122673
 30
0.0
 10
768.9907266249406
 20
701.1007187891464
 30
0.0
 10
768.7688232100602
 20
701.110601408705
 30
0.0
  0
SPLINE
  5
151
330
1F
100
AcDbEntity
  8
0
  6
Continuous
 62
     7
370
    25
100
AcDbSpline
210
0.0
220
0.0
230
1.0
 70
     8
 71
     3
 72
    11
 73
     7
 74
     0
 42
0.00000001
 43
0.00000001
 40
0.0
 40
0.0
 40
0.0
 40
0.0
 40
0.0800485240044433
 40
0.5000005853538798
 40
0.9209248322279645
 40
1.0
 40
1.0
 40
1.0
 40
1.0
 10
770.7045506429077
 20
700.9999270390487
 30
0.0
 10
770.7042643984936
 20
700.8536826139481
 30
0.0
 10
770.702476453289
 20
699.9402079551149
 30
0.0
 10
770.7012407564591
 20
698.2457983673564
 30
0.0
 10
770.702478454554
 20
696.5531715155017
 30
0.0
 10
770.7042676765219
 20
695.6397081398578
 30
0.0
 10
770.7045506429077
 20
695.4952434313666
 30
0.0
  0
SPLINE
  5
152
330
1F
100
AcDbEntity
  8
0
  6
Continuous
 62
     7
370
    25
100
AcDbSpline
210
0.0
220
0.0
230
1.0
 70
     8
 71
     3
 72
    12
 73
     8
 74
     0
 42
0.00000001
 43
0.00000001
 40
0.0
 40
0.0
 40
0.0
 40
0.0
 40
0.1130367476169362
 40
0.3328594693548023
 40
0.5544127937945006
 40
0.7774207483513244
 40
1.0
 40
1.0
 40
1.0
 40
1.0
 10
768.76882321006
 20
695.384569061703
 30
0.0
 10
768.882894050047
 20
695.3895843074043
 30
0.0
 10
769.2187986126548
 20
695.4043527084602
 30
0.0
 10
769.7528664690496
 20
695.4299449125695
 30
0.0
 10
770.2693921069368
 20
695.4578201754406
 30
0.0
 10
770.6262868240913
 20
695.4812620490311
 30
0.0
 10
770.6784794416097
 20
695.4905859607907
 30
0.0
 10
770.7045506429077
 20
695.4952434313666
 30
0.0
  0
SPLINE
  5
153
330
1F
100
AcDbEntity
  8
0
  6
Continuous
 62
     7
370
    25
100
AcDbSpline
210
0.0
220
0.0
230
1.0
 70
     8
 71
     3
 72
     9
 73
     5
 74
     0
 42
0.00000001
 43
0.00000001
 40
0.0
 40
0.0
 40
0.0
 40
0.0
 40
0.500010612381544
 40
1.0
 40
1.0
 40
1.0
 40
1.0
 10
718.8006564620953
 20
705.2297863695178
 30
0.0
 10
719.2303778289161
 20
704.9419458314245
 30
0.0
 10
720.0898023214767
 20
704.3662769736732
 30
0.0
 10
721.1144664067549
 20
704.2274737125863
 30
0.0
 10
721.6267875752678
 20
704.158073555076
 30
0.0
  0
SPLINE
  5
154
330
1F
100
AcDbEntity
  8
0
  6
Continuous
 62
     7
370
    25
100
AcDbSpline
210
0.0
220
0.0
230
1.0
 70
     8
 71
     3
 72
     9
 73
     5
 74
     0
 42
0.00000001
 43
0.00000001
 40
0.0
 40
0.0
 40
0.0
 40
0.0
 40
0.9838702326459385
 40
1.0
 40
1.0
 40
1.0
 40
1.0
 10
719.300264310938
 20
704.7979546802715
 30
0.0
 10
719.1389234960035
 20
704.9427870932905
 30
0.0
 10
718.974937627155
 20
705.0899939181473
 30
0.0
 10
718.8034229538731
 20
705.2275673421939
 30
0.0
 10
718.8006564620953
 20
705.2297863695178
 30
0.0
  0
SPLINE
  5
155
330
1F
100
AcDbEntity
  8
0
  6
Continuous
 62
     7
370
    25
100
AcDbSpline
210
0.0
220
0.0
230
1.0
 70
     8
 71
     3
 72
     9
 73
     5
 74
     0
 42
0.00000001
 43
0.00000001
 40
0.0
 40
0.0
 40
0.0
 40
0.0
 40
0.5055561057107305
 40
1.0
 40
1.0
 40
1.0
 40
1.0
 10
721.6267875752678
 20
692.3370969153336
 30
0.0
 10
721.1087280579349
 20
692.2664408810637
 30
0.0
 10
720.0839960618595
 20
692.1266818444863
 30
0.0
 10
719.2252554930978
 20
691.5503485696905
 30
0.0
 10
718.8006564620953
 20
691.265384100892
 30
0.0
  0
SPLINE
  5
156
330
1F
100
AcDbEntity
  8
0
  6
Continuous
 62
     7
370
    25
100
AcDbSpline
210
0.0
220
0.0
230
1.0
 70
     8
 71
     3
 72
     9
 73
     5
 74
     0
 42
0.00000001
 43
0.00000001
 40
0.0
 40
0.0
 40
0.0
 40
0.0
 40
0.0161297673533178
 40
0.9999999999999999
 40
0.9999999999999999
 40
0.9999999999999999
 40
0.9999999999999999
 10
718.8006564620953
 20
691.265384100892
 30
0.0
 10
718.803422953873
 20
691.2676031282159
 30
0.0
 10
718.9749376271591
 20
691.4051765522655
 30
0.0
 10
719.1389234960055
 20
691.5523833771208
 30
0.0
 10
719.3002643109381
 20
691.6972157901383
 30
0.0
  0
SPLINE
  5
157
330
1F
100
AcDbEntity
  8
0
  6
Continuous
 62
     7
370
    25
100
AcDbSpline
210
0.0
220
0.0
230
1.0
 70
     8
 71
     3
 72
    12
 73
     8
 74
     0
 42
0.00000001
 43
0.00000001
 40
0.0
 40
0.0
 40
0.0
 40
0.0
 40
0.2230315344150434
 40
0.4461337558340359
 40
0.6675099896777019
 40
0.8870667292265005
 40
1.0
 40
1.0
 40
1.0
 40
1.0
 10
770.2321963778234
 20
694.9960803603183
 30
0.0
 10
770.2126625916974
 20
694.9979706076131
 30
0.0
 10
770.1735888284609
 20
695.0017517012923
 30
0.0
 10
769.9059996464047
 20
694.9948088650217
 30
0.0
 10
769.5184705625798
 20
694.9792200425319
 30
0.0
 10
769.1177484501164
 20
694.9598827624677
 30
0.0
 10
768.8658890278587
 20
694.9463171612912
 30
0.0
 10
768.7803426732385
 20
694.9417094808698
 30
0.0
  0
ARC
  5
158
330
1F
100
AcDbEntity
  8
0
  6
Continuous
 62
     7
370
    25
100
AcDbCircle
 10
770.2044507553
 20
695.4954100167
 30
0.0
 40
0.5000999153467998
100
AcDbArc
 50
273.1804119247
 51
359.9809145383
  0
SPLINE
  5
159
330
1F
100
AcDbEntity
  8
0
  6
Continuous
 62
     7
370
    25
100
AcDbSpline
210
0.0
220
0.0
230
1.0
 70
     8
 71
     3
 72
    12
 73
     8
 74
     0
 42
0.00000001
 43
0.00000001
 40
0.0
 40
0.0
 40
0.0
 40
0.0
 40
0.2190444340109334
 40
0.4380981679380241
 40
0.6571027493691853
 40
0.8772791087290019
 40
1.0
 40
1.0
 40
1.0
 40
1.0
 10
768.7803426732352
 20
701.5534609895402
 30
0.0
 10
768.946760414006
 20
701.5446321765904
 30
0.0
 10
769.2796029611051
 20
701.5269741758482
 30
0.0
 10
769.7177614037482
 20
701.5074556864391
 30
0.0
 10
770.0447272305079
 20
701.4961499028068
 30
0.0
 10
770.2065711075219
 20
701.4943260347302
 30
0.0
 10
770.2254424399342
 20
701.497834464055
 30
0.0
 10
770.2321963778232
 20
701.4990901100916
 30
0.0
  0
ARC
  5
15A
330
1F
100
AcDbEntity
  8
0
  6
Continuous
 62
     7
370
    25
100
AcDbCircle
 10
770.2044507553
 20
700.9997604537
 30
0.0
 40
0.5000999153469152
100
AcDbArc
 50
0.0190854623
 51
86.8195880753
  0
LINE
  5
15B
330
1F
100
AcDbEntity
  8
0
  6
Continuous
 62
     7
370
    25
100
AcDbLine
 10
721.6267875753
 20
692.3370969153
 30
0.0
 11
721.653773757
 21
692.26580664
 31
0.0
  0
LINE
  5
15C
330
1F
100
AcDbEntity
  8
0
  6
Continuous
 62
     7
370
    25
100
AcDbLine
 10
770.2368867385
 20
694.9916419072
 30
0.0
 11
770.2321963778
 21
694.9960803603
 31
0.0
  0
ELLIPSE
  5
15D
330
1F
100
AcDbEntity
  8
0
  6
Continuous
 62
     7
370
    25
100
AcDbEllipse
 10
768.7371151958
 20
694.9083494572
 30
0.0
 11
1.499999304622747
 21
0.08287263343856921
 31
0.0
210
0.0
220
0.0
230
1.0
 40
0.0174284859
 41
5.396717970285422
 42
6.29967570320408
  0
LINE
  5
15E
330
1F
100
AcDbEntity
  8
0
  6
Continuous
 62
     7
370
    25
100
AcDbLine
 10
766.2215005267
 20
694.6995898692
 30
0.0
 11
769.6864637362
 21
694.9404811482
 31
0.0
  0
LINE
  5
15F
330
1F
100
AcDbEntity
  8
0
  6
Continuous
 62
     7
370
    25
100
AcDbLine
 10
766.2215005267
 20
694.6996882605
 30
0.0
 11
766.2215005267
 21
694.6995898692
 31
0.0
  0
ELLIPSE
  5
160
330
1F
100
AcDbEntity
  8
0
  6
Continuous
 62
     7
370
    25
100
AcDbEllipse
 10
756.7720141058
 20
694.370042209
 30
0.0
 11
14.49999327802038
 21
0.8011021232406392
 31
0.0
210
0.0
220
0.0
230
1.0
 40
0.0174284859
 41
4.685109492442212
 42
5.421234828998334
  0
ELLIPSE
  5
161
330
1F
100
AcDbEntity
  8
0
  6
Continuous
 62
     7
370
    25
100
AcDbEllipse
 10
755.4510041902
 20
693.4197586597
 30
0.0
 11
35.70262504606023
 21
1.972514619921981
 31
0.0
210
0.0
220
0.0
230
1.0
 40
0.0174284859
 41
1.543516838852413
 42
2.025717338718006
  0
ELLIPSE
  5
162
330
1F
100
AcDbEntity
  8
0
  6
Continuous
 62
     7
370
    25
100
AcDbEllipse
 10
736.4307767182
 20
693.0473626
 30
0.0
 11
7.499996523113964
 21
0.4143631671936419
 31
0.0
210
0.0
220
0.0
230
1.0
 40
0.0174284859
 41
4.976419334598146
 42
5.16730999230847
  0
LINE
  5
163
330
1F
100
AcDbEntity
  8
0
  6
Continuous
 62
     7
370
    25
100
AcDbLine
 10
738.3754291192
 20
693.1797070512
 30
0.0
 11
738.3950473766
 21
693.0293165066
 31
0.0
  0
SPLINE
  5
164
330
1F
100
AcDbEntity
  8
0
  6
Continuous
 62
     7
370
    25
100
AcDbSpline
210
0.0
220
0.0
230
1.0
 70
     8
 71
     3
 72
    10
 73
     6
 74
     0
 42
0.00000001
 43
0.00000001
 40
0.0
 40
0.0
 40
0.0
 40
0.0
 40
0.0186368637457253
 40
0.3939469944633057
 40
1.0
 40
1.0
 40
1.0
 40
1.0
 10
738.1916578335375
 20
693.1792206839298
 30
0.0
 10
738.1941140407863
 20
693.1793084344091
 30
0.0
 10
738.2460334772634
 20
693.181163308602
 30
0.0
 10
738.3500323257413
 20
693.1838432899801
 30
0.0
 10
738.3657329830905
 20
693.1812862085826
 30
0.0
 10
738.375429119234
 20
693.1797070511747
 30
0.0
  0
LINE
  5
165
330
1F
100
AcDbEntity
  8
0
  6
Continuous
 62
     7
370
    25
100
AcDbLine
 10
721.653773757
 20
692.26580664
 30
0.0
 11
738.1916578335
 21
693.1792206839
 31
0.0
  0
LINE
  5
166
330
1F
100
AcDbEntity
  8
0
  6
Continuous
 62
     7
370
    25
100
AcDbLine
 10
738.1937235655
 20
703.3321534353
 30
0.0
 11
721.659815142
 21
704.2453478975
 31
0.0
  0
SPLINE
  5
167
330
1F
100
AcDbEntity
  8
0
  6
Continuous
 62
     7
370
    25
100
AcDbSpline
210
0.0
220
0.0
230
1.0
 70
     8
 71
     3
 72
    11
 73
     7
 74
     0
 42
0.00000001
 43
0.00000001
 40
0.0
 40
0.0
 40
0.0
 40
0.0
 40
0.4177469294495291
 40
0.8392770662410922
 40
0.9817832068819584
 40
1.0
 40
1.0
 40
1.0
 40
1.0
 10
738.3774290061059
 20
703.3308039900216
 30
0.0
 10
738.372791978074
 20
703.3297207988379
 30
0.0
 10
738.3634759280727
 20
703.3275446068549
 30
0.0
 10
738.2879794623225
 20
703.3287467837463
 30
0.0
 10
738.2177192617505
 20
703.3312173110862
 30
0.0
 10
738.1961664250929
 20
703.3320581340432
 30
0.0
 10
738.1937235654628
 20
703.3321534353017
 30
0.0
  0
LINE
  5
168
330
1F
100
AcDbEntity
  8
0
  6
Continuous
 62
     7
370
    25
100
AcDbLine
 10
738.3950473766
 20
703.4658539638
 30
0.0
 11
738.3774290061
 21
703.33080399
 31
0.0
  0
ELLIPSE
  5
169
330
1F
100
AcDbEntity
  8
0
  6
Continuous
 62
     7
370
    25
100
AcDbEllipse
 10
736.4307767182
 20
703.4478078704
 30
0.0
 11
7.499996523114078
 21
-0.4143631671935282
 31
0.0
210
0.0
220
0.0
230
1.0
 40
0.0174284859
 41
1.115875314871824
 42
1.306765972581883
  0
ELLIPSE
  5
16A
330
1F
100
AcDbEntity
  8
0
  6
Continuous
 62
     7
370
    25
100
AcDbEllipse
 10
755.4510041902
 20
703.0754118107
 30
0.0
 11
35.70262504606023
 21
-1.972514619921981
 31
0.0
210
0.0
220
0.0
230
1.0
 40
0.0174284859
 41
4.257467968461656
 42
4.739668468327174
  0
ELLIPSE
  5
16B
330
1F
100
AcDbEntity
  8
0
  6
Continuous
 62
     7
370
    25
100
AcDbEllipse
 10
756.7720141058
 20
702.1251282614
 30
0.0
 11
14.49999327802038
 21
-0.801102123240753
 31
0.0
210
0.0
220
0.0
230
1.0
 40
0.0174284859
 41
0.8619504781817269
 42
1.598075814737374
  0
LINE
  5
16C
330
1F
100
AcDbEntity
  8
0
  6
Continuous
 62
     7
370
    25
100
AcDbLine
 10
766.2215005267
 20
701.7955806012
 30
0.0
 11
766.2215005267
 21
701.79548221
 31
0.0
  0
LINE
  5
16D
330
1F
100
AcDbEntity
  8
0
  6
Continuous
 62
     7
370
    25
100
AcDbLine
 10
769.6864637362
 20
701.5546893222
 30
0.0
 11
766.2215005267
 21
701.7955806012
 31
0.0
  0
ELLIPSE
  5
16E
330
1F
100
AcDbEntity
  8
0
  6
Continuous
 62
     7
370
    25
100
AcDbEllipse
 10
768.7371151958
 20
701.5868210132
 30
0.0
 11
1.499999304622747
 21
-0.08287263343868288
 31
0.0
210
0.0
220
0.0
230
1.0
 40
0.0174284859
 41
6.266694911160205
 42
7.169652644073166
  0
LINE
  5
16F
330
1F
100
AcDbEntity
  8
0
  6
Continuous
 62
     7
370
    25
100
AcDbLine
 10
770.2321963778
 20
701.4990901101
 30
0.0
 11
770.2368867385
 21
701.5035285632
 31
0.0
  0
LINE
  5
170
330
1F
100
AcDbEntity
  8
0
  6
Continuous
 62
     7
370
    25
100
AcDbLine
 10
721.659815142
 20
704.2453478975
 30
0.0
 11
721.6267875753
 21
704.1580735551
 31
0.0
  0
SPLINE
  5
171
330
1F
100
AcDbEntity
  8
0
  6
Continuous
 62
     7
370
    25
100
AcDbSpline
210
0.0
220
0.0
230
1.0
 70
     8
 71
     3
 72
     9
 73
     5
 74
     0
 42
0.00000001
 43
0.00000001
 40
0.0
 40
0.0
 40
0.0
 40
0.0
 40
0.5001021276704695
 40
1.0
 40
1.0
 40
1.0
 40
1.0
 10
718.8338753281507
 20
691.1996926539318
 30
0.0
 10
719.2628231038581
 20
691.4862182880204
 30
0.0
 10
720.1205434613084
 20
692.0591525313182
 30
0.0
 10
721.1427665899236
 20
692.1969313177724
 30
0.0
 10
721.6537737569644
 20
692.265806639973
 30
0.0
  0
LINE
  5
172
330
1F
100
AcDbEntity
  8
0
  6
Continuous
 62
     7
370
    25
100
AcDbLine
 10
718.8338753282
 20
691.1996926539
 30
0.0
 11
718.8006564621
 21
691.2653841009
 31
0.0
  0
SPLINE
  5
173
330
1F
100
AcDbEntity
  8
0
  6
Continuous
 62
     7
370
    25
100
AcDbSpline
210
0.0
220
0.0
230
1.0
 70
     8
 71
     3
 72
     9
 73
     5
 74
     0
 42
0.00000001
 43
0.00000001
 40
0.0
 40
0.0
 40
0.0
 40
0.0
 40
0.400722737156528
 40
1.0
 40
1.0
 40
1.0
 40
1.0
 10
721.6598151420161
 20
704.2453478975164
 30
0.0
 10
721.2511290186068
 20
704.2937551595819
 30
0.0
 10
720.231256459567
 20
704.4145550483257
 30
0.0
 10
719.362180415741
 20
704.9746623216794
 30
0.0
 10
718.8413629029942
 20
705.3103218753535
 30
0.0
  0
LINE
  5
174
330
1F
100
AcDbEntity
  8
0
  6
Continuous
 62
     7
370
    25
100
AcDbLine
 10
718.8006564621
 20
705.2297863695
 30
0.0
 11
718.841362903
 21
705.3103218754
 31
0.0
  0
ARC
  5
175
330
1F
100
AcDbEntity
  8
0
  6
Continuous
 62
     7
370
    25
100
AcDbCircle
 10
713.2760297483
 20
698.2475852352
 30
0.0
 40
8.975658044222213
100
AcDbArc
 50
245.1648853947
 51
308.2586979829
  0
LWPOLYLINE
  5
176
330
1F
100
AcDbEntity
  8
0
  6
Continuous
 62
     7
370
    25
100
AcDbPolyline
 90
        3
 70
   128
 43
0.0
 10
709.340716324
 20
689.9969255119
 10
709.4452978882
 20
690.0631779232
 10
709.5061784309
 20
690.1019938895
  0
ARC
  5
177
330
1F
100
AcDbEntity
  8
0
  6
Continuous
 62
     7
370
    25
100
AcDbCircle
 10
713.2760297483
 20
698.2475852352
 30
0.0
 40
9.14112015109216
100
AcDbArc
 50
115.4997164176
 51
244.500279429
  0
LWPOLYLINE
  5
178
330
1F
100
AcDbEntity
  8
0
  6
Continuous
 62
     7
370
    25
100
AcDbPolyline
 90
        3
 70
   128
 43
0.0
 10
709.4898855205
 20
706.4035826517
 10
709.4452978882
 20
706.4319925472
 10
709.3407163237
 20
706.4982449587
  0
ARC
  5
179
330
1F
100
AcDbEntity
  8
0
  6
Continuous
 62
     7
370
    25
100
AcDbCircle
 10
713.2760297483
 20
698.2475852352
 30
0.0
 40
8.991950954660766
100
AcDbArc
 50
51.762407147
 51
114.9014811666
  0
LINE
  5
17A
330
1F
100
AcDbEntity
  8
0
  6
Continuous
 62
     7
370
    25
100
AcDbLine
 10
770.7092410036
 20
701.0043654921
 30
0.0
 11
770.7045506429
 21
700.999927039
 31
0.0
  0
LINE
  5
17B
330
1F
100
AcDbEntity
  8
0
  6
Continuous
 62
     7
370
    25
100
AcDbLine
 10
770.7092410036
 20
695.4908049783
 30
0.0
 11
770.7092410036
 21
701.0043654921
 31
0.0
  0
LINE
  5
17C
330
1F
100
AcDbEntity
  8
0
  6
Continuous
 62
     7
370
    25
100
AcDbLine
 10
770.7045506429
 20
695.4952434314
 30
0.0
 11
770.7092410036
 21
695.4908049783
 31
0.0
  0
ARC
  5
17D
330
1F
100
AcDbEntity
  8
0
  6
Continuous
 62
     7
370
    25
100
AcDbCircle
 10
770.209141116
 20
701.0041989068
 30
0.0
 40
0.5000999153469606
100
AcDbArc
 50
0.0190854617
 51
86.8195880753
  0
ARC
  5
17E
330
1F
100
AcDbEntity
  8
0
  6
Continuous
 62
     7
370
    25
100
AcDbCircle
 10
770.209141116
 20
695.4909715636
 30
0.0
 40
0.5000999153467273
100
AcDbArc
 50
273.1804119247
 51
359.9809145383
  0
LINE
  5
17F
330
1F
100
AcDbEntity
  8
0
  6
Continuous
 62
     7
370
    25
100
AcDbLine
 10
769.6864637362
 20
694.9404811482
 30
0.0
 11
769.693571467
 21
694.9408481849
 31
0.0
  0
LINE
  5
180
330
1F
100
AcDbEntity
  8
0
  6
Continuous
 62
     7
370
    25
100
AcDbLine
 10
769.6864637362
 20
701.5546893222
 30
0.0
 11
769.693571467
 21
701.5543222856
 31
0.0
  0
SPLINE
  5
181
330
1F
100
AcDbEntity
  8
0
  6
Continuous
 62
     7
370
    25
100
AcDbSpline
210
0.0
220
0.0
230
1.0
 70
     8
 71
     3
 72
    12
 73
     8
 74
     0
 42
0.00000001
 43
0.00000001
 40
0.0
 40
0.0
 40
0.0
 40
0.0
 40
0.1662426524176545
 40
0.3368059756191297
 40
0.6054181071254586
 40
0.8801435087136193
 40
1.0
 40
1.0
 40
1.0
 40
1.0
 10
719.3980889955944
 20
686.5709248535339
 30
0.0
 10
718.7604074750583
 20
686.726410029017
 30
0.0
 10
717.4684709982578
 20
687.0414214623721
 30
0.0
 10
715.2842846159083
 20
687.7043865673706
 30
0.0
 10
712.9223102723486
 20
688.556581484176
 30
0.0
 10
710.956772710456
 20
689.3992101627881
 30
0.0
 10
709.8429977256604
 20
689.9370682554834
 30
0.0
 10
709.5046822475028
 20
690.1004457063107
 30
0.0
  0
LINE
  5
182
330
1F
100
AcDbEntity
  8
0
  6
Continuous
 62
     7
370
    25
100
AcDbLine
 10
719.3980889956
 20
686.5709248535
 30
0.0
 11
719.3822309187
 21
686.501451322
 31
0.0
  0
ARC
  5
183
330
1F
100
AcDbEntity
  8
0
  6
Continuous
 62
     7
370
    25
100
AcDbCircle
 10
730.1040091551
 20
733.4730861342
 30
0.0
 40
48.17977797259044
100
AcDbArc
 50
244.4718479123
 51
257.1419190681
  0
LWPOLYLINE
  5
184
330
1F
100
AcDbEntity
  8
0
  6
Continuous
 62
     7
370
    25
100
AcDbPolyline
 90
        3
 70
   128
 43
0.0
 10
709.5046822475
 20
690.1004457063
 10
709.4452943972
 20
690.0629220027
 10
709.3407163243
 20
689.9969239729
  0
SPLINE
  5
185
330
1F
100
AcDbEntity
  8
0
  6
Continuous
 62
     7
370
    25
100
AcDbSpline
210
0.0
220
0.0
230
1.0
 70
     8
 71
     3
 72
    11
 73
     7
 74
     0
 42
0.00000001
 43
0.00000001
 40
0.0
 40
0.0
 40
0.0
 40
0.0
 40
0.1345990676765959
 40
0.4126978815969493
 40
0.6969472592954598
 40
1.0
 40
1.0
 40
1.0
 40
1.0
 10
709.5053998244599
 20
690.1011872723845
 30
0.0
 10
709.9347058447082
 20
689.9103033872235
 30
0.0
 10
711.2510127714324
 20
689.3250290878037
 30
0.0
 10
713.6268228223157
 20
688.7025612037801
 30
0.0
 10
716.6805122071968
 20
688.3260585212797
 30
0.0
 10
718.8715421155575
 20
688.2989171929468
 30
0.0
 10
720.0021316330955
 20
688.2849120435018
 30
0.0
  0
ARC
  5
186
330
1F
100
AcDbEntity
  8
0
  6
Continuous
 62
     7
370
    25
100
AcDbCircle
 10
715.5096006401
 20
688.9047360881
 30
0.0
 40
4.535087272522142
100
AcDbArc
 50
329.0284626407
 51
352.1446266983
  0
LINE
  5
187
330
1F
100
AcDbEntity
  8
0
  6
Continuous
 62
     7
370
    25
100
AcDbLine
 10
709.5046822475
 20
690.1004457063
 30
0.0
 11
709.5053998245
 21
690.1011872724
 31
0.0
  0
LINE
  5
188
330
1F
100
AcDbEntity
  8
0
  6
Continuous
 62
     7
370
    25
100
AcDbLine
 10
718.8338753282
 20
691.1996926539
 30
0.0
 11
721.0317472483
 21
688.4125757796
 31
0.0
  0
ARC
  5
189
330
1F
100
AcDbEntity
  8
0
  6
Continuous
 62
     7
370
    25
100
AcDbCircle
 10
713.2760297483
 20
698.2475852352
 30
0.0
 40
12.52511736202729
100
AcDbArc
 50
307.8583068702
 51
308.2586979829
  0
LINE
  5
18A
330
1F
100
AcDbEntity
  8
0
  6
Continuous
 62
     7
370
    25
100
AcDbLine
 10
720.0021316331
 20
688.2849120435
 30
0.0
 11
720.962829982
 21
688.3586182973
 31
0.0
  0
LINE
  5
18B
330
1F
100
AcDbEntity
  8
0
  6
Continuous
 62
     7
370
    25
100
AcDbLine
 10
709.5061784309
 20
690.1019938895
 30
0.0
 11
709.5053998245
 21
690.1011872724
 31
0.0
  0
ARC
  5
18C
330
1F
100
AcDbEntity
  8
0
  6
Continuous
 62
     7
370
    25
100
AcDbCircle
 10
731.193701462
 20
692.9709858471
 30
0.0
 40
6.834138728223298
100
AcDbArc
 50
211.8771071303
 51
226.9488007428
  0
SPLINE
  5
18D
330
1F
100
AcDbEntity
  8
0
  6
Continuous
 62
     7
370
    25
100
AcDbSpline
210
0.0
220
0.0
230
1.0
 70
     8
 71
     3
 72
    16
 73
    12
 74
     0
 42
0.00000001
 43
0.00000001
 40
0.0
 40
0.0
 40
0.0
 40
0.0
 40
0.2861254310575669
 40
0.7591203623085425
 40
0.8520758313858449
 40
0.9266344548631255
 40
0.9604862301433736
 40
0.9835335436569232
 40
0.9930756629548352
 40
0.9972242292023619
 40
1.0
 40
1.0
 40
1.0
 40
1.0
 10
725.3902686708433
 20
689.3618834662198
 30
0.0
 10
726.6184155079671
 20
689.8919507755719
 30
0.0
 10
729.8768160930513
 20
691.298274171699
 30
0.0
 10
733.6743975476587
 20
692.3160861745833
 30
0.0
 10
736.4720591975632
 20
692.878006392355
 30
0.0
 10
737.3371921364576
 20
693.0325089082479
 30
0.0
 10
737.8627783051918
 20
693.1210295740783
 30
0.0
 10
738.0964405639056
 20
693.1601389577269
 30
0.0
 10
738.1740907110666
 20
693.1744589266965
 30
0.0
 10
738.1901723661017
 20
693.1781926653194
 30
0.0
 10
738.1912327540234
 20
693.1789265074026
 30
0.0
 10
738.1916578335375
 20
693.1792206839298
 30
0.0
  0
SPLINE
  5
18E
330
1F
100
AcDbEntity
  8
0
  6
Continuous
 62
     7
370
    25
100
AcDbSpline
210
0.0
220
0.0
230
1.0
 70
     8
 71
     3
 72
    10
 73
     6
 74
     0
 42
0.00000001
 43
0.00000001
 40
0.0
 40
0.0
 40
0.0
 40
0.0
 40
0.5975855365574454
 40
0.9790563563181981
 40
1.0
 40
1.0
 40
1.0
 40
1.0
 10
738.3016831532253
 20
693.1700937865903
 30
0.0
 10
738.3042022925788
 20
693.1738330843168
 30
0.0
 10
738.3083295333594
 20
693.1799593758403
 30
0.0
 10
738.2339584068038
 20
693.1803359346968
 30
0.0
 10
738.1937504546995
 20
693.1792758556963
 30
0.0
 10
738.1916578335375
 20
693.1792206839298
 30
0.0
  0
SPLINE
  5
18F
330
1F
100
AcDbEntity
  8
0
  6
Continuous
 62
     7
370
    25
100
AcDbSpline
210
0.0
220
0.0
230
1.0
 70
     8
 71
     3
 72
    14
 73
    10
 74
     0
 42
0.00000001
 43
0.00000001
 40
0.0
 40
0.0
 40
0.0
 40
0.0
 40
0.0129036569231464
 40
0.0519665716781148
 40
0.1318891824261205
 40
0.2280032005552168
 40
0.4679440229400844
 40
0.7079115564493632
 40
1.0
 40
1.0
 40
1.0
 40
1.0
 10
738.3016831532253
 20
693.1700937865903
 30
0.0
 10
738.2682145767609
 20
693.1622488125291
 30
0.0
 10
738.1334274239282
 20
693.1306549465966
 30
0.0
 10
737.6941539789358
 20
693.0282728993028
 30
0.0
 10
736.8827265607099
 20
692.8258713904856
 30
0.0
 10
735.2292493788892
 20
692.3588207097196
 30
0.0
 10
732.8849593066456
 20
691.5213636503292
 30
0.0
 10
729.7398651301484
 20
690.0764234099789
 30
0.0
 10
727.6665664559558
 20
688.7210525271842
 30
0.0
 10
726.5283655732088
 20
687.9769801200345
 30
0.0
  0
LINE
  5
190
330
1F
100
AcDbEntity
  8
0
  6
Continuous
 62
     7
370
    25
100
AcDbLine
 10
723.9496003088
 20
688.8377397842
 30
0.0
 11
721.8495177927
 21
688.7217488355
 31
0.0
  0
LINE
  5
191
330
1F
100
AcDbEntity
  8
0
  6
Continuous
 62
     7
370
    25
100
AcDbLine
 10
721.653773757
 20
692.26580664
 30
0.0
 11
721.8495177927
 21
688.7217488355
 31
0.0
  0
LINE
  5
192
330
1F
100
AcDbEntity
  8
0
  6
Continuous
 62
     7
370
    25
100
AcDbLine
 10
723.9496003088
 20
688.8377397842
 30
0.0
 11
725.3902686708
 21
689.3618834662
 31
0.0
  0
LWPOLYLINE
  5
193
330
1F
100
AcDbEntity
  8
0
  6
Continuous
 62
     7
370
    25
100
AcDbPolyline
 90
        4
 70
   128
 43
0.0
 10
738.3212099673
 20
693.0189982103
 10
738.3189653316
 20
693.0363563572
 10
738.3099902977
 20
693.1057891034
 10
738.3016831532
 20
693.1700937866
  0
LINE
  5
194
330
1F
100
AcDbEntity
  8
0
  6
Continuous
 62
     7
370
    25
100
AcDbLine
 10
736.5330856835
 20
692.589470707
 30
0.0
 11
738.3212099673
 21
693.0189982103
 31
0.0
  0
ARC
  5
195
330
1F
100
AcDbEntity
  8
0
  6
Continuous
 62
     7
370
    25
100
AcDbCircle
 10
744.7186440821
 20
662.1637771132
 30
0.0
 40
31.50755777528337
100
AcDbArc
 50
105.0579972479
 51
125.1719294169
  0
LINE
  5
196
330
1F
100
AcDbEntity
  8
0
  6
Continuous
 62
     7
370
    25
100
AcDbLine
 10
726.5283655732
 20
687.97698012
 30
0.0
 11
726.5692854594
 21
687.918912107
 31
0.0
  0
SPLINE
  5
197
330
1F
100
AcDbEntity
  8
0
  6
Continuous
 62
     7
370
    25
100
AcDbSpline
210
0.0
220
0.0
230
1.0
 70
     8
 71
     3
 72
     9
 73
     5
 74
     0
 42
0.00000001
 43
0.00000001
 40
0.0
 40
0.0
 40
0.0
 40
0.0
 40
0.4998978730609624
 40
1.0
 40
1.0
 40
1.0
 40
1.0
 10
721.8495177926696
 20
688.7217488355291
 30
0.0
 10
721.7013228767739
 20
688.7017824975268
 30
0.0
 10
721.4048724938419
 20
688.661841663452
 30
0.0
 10
721.1561392650652
 20
688.4956757208814
 30
0.0
 10
721.0317472483136
 20
688.4125757795772
 30
0.0
  0
ARC
  5
198
330
1F
100
AcDbEntity
  8
0
  6
Continuous
 62
     7
370
    25
100
AcDbCircle
 10
738.4030184681
 20
692.6803923468
 30
0.0
 40
0.5000763403496189
100
AcDbArc
 50
93.1626296397
 51
101.691363562
  0
SPLINE
  5
199
330
1F
100
AcDbEntity
  8
0
  6
Continuous
 62
     7
370
    25
100
AcDbSpline
210
0.0
220
0.0
230
1.0
 70
     8
 71
     3
 72
    12
 73
     8
 74
     0
 42
0.00000001
 43
0.00000001
 40
0.0
 40
0.0
 40
0.0
 40
0.0
 40
0.0460726725321159
 40
0.2494576442748312
 40
0.4755636088397377
 40
0.7057929889265024
 40
1.0
 40
1.0
 40
1.0
 40
1.0
 10
709.4886512738127
 20
706.4048569953075
 30
0.0
 10
709.616986682988
 20
706.4673616946468
 30
0.0
 10
710.3118508419453
 20
706.80578953476
 30
0.0
 10
711.6646498114675
 20
707.4213729509005
 30
0.0
 10
713.672518455549
 20
708.228832256155
 30
0.0
 10
716.1677902705545
 20
709.101952373683
 30
0.0
 10
718.1067364586893
 20
709.599302013326
 30
0.0
 10
719.1944785991258
 20
709.8783134499924
 30
0.0
  0
LINE
  5
19A
330
1F
100
AcDbEntity
  8
0
  6
Continuous
 62
     7
370
    25
100
AcDbLine
 10
719.647938677
 20
707.9307109208
 30
0.0
 11
719.1944785991
 21
709.87831345
 31
0.0
  0
SPLINE
  5
19B
330
1F
100
AcDbEntity
  8
0
  6
Continuous
 62
     7
370
    25
100
AcDbSpline
210
0.0
220
0.0
230
1.0
 70
     8
 71
     3
 72
    13
 73
     9
 74
     0
 42
0.00000001
 43
0.00000001
 40
0.0
 40
0.0
 40
0.0
 40
0.0
 40
0.2574896950994368
 40
0.4890886589321025
 40
0.7206004760683485
 40
0.9447506334961274
 40
0.9460032291293288
 40
1.0
 40
1.0
 40
1.0
 40
1.0
 10
719.6479386770127
 20
707.9307109207784
 30
0.0
 10
718.7292131010249
 20
707.9587738848932
 30
0.0
 10
716.9841403138868
 20
708.0120780665586
 30
0.0
 10
714.4895750679733
 20
707.8475139477205
 30
0.0
 10
712.1739252619725
 20
707.4341399527104
 30
0.0
 10
710.6968166603684
 20
706.9345827661471
 30
0.0
 10
709.8255552158278
 20
706.5603399112172
 30
0.0
 10
709.6555088070049
 20
706.4813594927319
 30
0.0
 10
709.4893176349497
 20
706.4041696925574
 30
0.0
  0
LINE
  5
19C
330
1F
100
AcDbEntity
  8
0
  6
Continuous
 62
     7
370
    25
100
AcDbLine
 10
709.4893176349
 20
706.4041696926
 30
0.0
 11
709.4886512738
 21
706.4048569953
 31
0.0
  0
ARC
  5
19D
330
1F
100
AcDbEntity
  8
0
  6
Continuous
 62
     7
370
    25
100
AcDbCircle
 10
730.1040091551
 20
663.0220843362
 30
0.0
 40
48.10950076354642
100
AcDbArc
 50
102.8580809319
 51
103.1066633214
  0
LWPOLYLINE
  5
19E
330
1F
100
AcDbEntity
  8
0
  6
Continuous
 62
     7
370
    25
100
AcDbPolyline
 90
        3
 70
   128
 43
0.0
 10
709.4886512738
 20
706.4048569953
 10
709.4452943972
 20
706.4322484677
 10
709.340716324
 20
706.4982464977
  0
ARC
  5
19F
330
1F
100
AcDbEntity
  8
0
  6
Continuous
 62
     7
370
    25
100
AcDbCircle
 10
730.1040091551
 20
663.0220843362
 30
0.0
 40
48.17977797259048
100
AcDbArc
 50
102.8580809319
 51
115.5281512988
  0
LINE
  5
1A0
330
1F
100
AcDbEntity
  8
0
  6
Continuous
 62
     7
370
    25
100
AcDbLine
 10
719.3978701906
 20
709.9252041918
 30
0.0
 11
719.3822309187
 21
709.9937191484
 31
0.0
  0
LINE
  5
1A1
330
1F
100
AcDbEntity
  8
0
  6
Continuous
 62
     7
370
    25
100
AcDbLine
 10
725.7532579928
 20
706.6228265133
 30
0.0
 11
726.8827334103
 21
708.2729983029
 31
0.0
  0
SPLINE
  5
1A2
330
1F
100
AcDbEntity
  8
0
  6
Continuous
 62
     7
370
    25
100
AcDbSpline
210
0.0
220
0.0
230
1.0
 70
     8
 71
     3
 72
    14
 73
    10
 74
     0
 42
0.00000001
 43
0.00000001
 40
0.0
 40
0.0
 40
0.0
 40
0.0
 40
0.2256458607195977
 40
0.4518169308148963
 40
0.815776144776343
 40
0.8946140573305373
 40
0.9637846180221654
 40
0.9940799143125669
 40
0.9999999999999999
 40
0.9999999999999999
 40
0.9999999999999999
 40
0.9999999999999999
 10
726.8827334102815
 20
708.2729983029351
 30
0.0
 10
727.7284809573526
 20
707.7279745804339
 30
0.0
 10
729.4219445987566
 20
706.6366585477068
 30
0.0
 10
732.6021666988088
 20
705.0712174629047
 30
0.0
 10
735.2734447619753
 20
704.1178386286688
 30
0.0
 10
737.2239732492264
 20
703.5963904825396
 30
0.0
 10
737.8680497596682
 20
703.4410098078976
 30
0.0
 10
738.196000655895
 20
703.3654597470531
 30
0.0
 10
738.2885379884937
 20
703.343938972908
 30
0.0
 10
738.30366495688
 20
703.3404209973947
 30
0.0
  0
SPLINE
  5
1A3
330
1F
100
AcDbEntity
  8
0
  6
Continuous
 62
     7
370
    25
100
AcDbSpline
210
0.0
220
0.0
230
1.0
 70
     8
 71
     3
 72
    11
 73
     7
 74
     0
 42
0.00000001
 43
0.00000001
 40
0.0
 40
0.0
 40
0.0
 40
0.0
 40
0.019556121229571
 40
0.168189199674442
 40
0.5898876540792781
 40
1.0
 40
1.0
 40
1.0
 40
1.0
 10
738.1937235654628
 20
703.3321534353017
 30
0.0
 10
738.1956822786109
 20
703.332095321586
 30
0.0
 10
738.2125278684335
 20
703.3315955241453
 30
0.0
 10
738.264428432193
 20
703.3307491067318
 30
0.0
 10
738.3137130642583
 20
703.3328384052538
 30
0.0
 10
738.3069830791819
 20
703.3379170464374
 30
0.0
 10
738.30366495688
 20
703.3404209973947
 30
0.0
  0
SPLINE
  5
1A4
330
1F
100
AcDbEntity
  8
0
  6
Continuous
 62
     7
370
    25
100
AcDbSpline
210
0.0
220
0.0
230
1.0
 70
     8
 71
     3
 72
    17
 73
    13
 74
     0
 42
0.00000001
 43
0.00000001
 40
0.0
 40
0.0
 40
0.0
 40
0.0
 40
0.0068263121770685
 40
0.0088448507297254
 40
0.0223990310416126
 40
0.0309593028397538
 40
0.0563218912149143
 40
0.1198824177066684
 40
0.1957460556357056
 40
0.5558621944880031
 40
0.77803360979772
 40
1.0
 40
1.0
 40
1.0
 40
1.0
 10
738.1937235654628
 20
703.3321534353017
 30
0.0
 10
738.1901034203012
 20
703.3331916183469
 30
0.0
 10
738.1854127992538
 20
703.3345367918206
 30
0.0
 10
738.1418800865505
 20
703.3421267798955
 30
0.0
 10
738.067348164118
 20
703.3538782867021
 30
0.0
 10
737.9005159186161
 20
703.3795971819252
 30
0.0
 10
737.5189398015488
 20
703.4381117609475
 30
0.0
 10
736.8360388348144
 20
703.5473087455347
 30
0.0
 10
734.7310395178966
 20
703.9144809779588
 30
0.0
 10
731.9181049361106
 20
704.548658661924
 30
0.0
 10
728.5193207215439
 20
705.5615989537825
 30
0.0
 10
726.6749951067801
 20
706.2691928744694
 30
0.0
 10
725.7532579927896
 20
706.6228265132963
 30
0.0
  0
LINE
  5
1A5
330
1F
100
AcDbEntity
  8
0
  6
Continuous
 62
     7
370
    25
100
AcDbLine
 10
721.659815142
 20
704.2453478975
 30
0.0
 11
721.803176971
 21
706.840995867
 31
0.0
  0
LINE
  5
1A6
330
1F
100
AcDbEntity
  8
0
  6
Continuous
 62
     7
370
    25
100
AcDbLine
 10
721.803176971
 20
706.840995867
 30
0.0
 11
725.7532579928
 21
706.6228265133
 31
0.0
  0
LINE
  5
1A7
330
1F
100
AcDbEntity
  8
0
  6
Continuous
 62
     7
370
    25
100
AcDbLine
 10
718.841362903
 20
705.3103218754
 30
0.0
 11
720.4503198963
 21
707.3521833763
 31
0.0
  0
LINE
  5
1A8
330
1F
100
AcDbEntity
  8
0
  6
Continuous
 62
     7
370
    25
100
AcDbLine
 10
709.4893176349
 20
706.4041696926
 30
0.0
 11
709.4898855205
 21
706.4035826517
 31
0.0
  0
ARC
  5
1A9
330
1F
100
AcDbEntity
  8
0
  6
Continuous
 62
     7
370
    25
100
AcDbCircle
 10
713.2760297483
 20
698.2475852352
 30
0.0
 40
11.59155496206734
100
AcDbArc
 50
51.762407147
 51
56.6533814372
  0
LWPOLYLINE
  5
1AA
330
1F
100
AcDbEntity
  8
0
  6
Continuous
 62
     7
370
    25
100
AcDbPolyline
 90
        4
 70
   128
 43
0.0
 10
738.3036649569
 20
703.3404209974
 10
738.3059072032
 20
703.3577792524
 10
738.3148796861
 20
703.427212114
 10
738.3212099673
 20
703.4761722601
  0
ARC
  5
1AB
330
1F
100
AcDbEntity
  8
0
  6
Continuous
 62
     7
370
    25
100
AcDbCircle
 10
744.7186440821
 20
734.3313933572
 30
0.0
 40
31.57783498432754
100
AcDbArc
 50
234.8280705831
 51
235.6099480104
  0
LINE
  5
1AC
330
1F
100
AcDbEntity
  8
0
  6
Continuous
 62
     7
370
    25
100
AcDbLine
 10
726.5288035446
 20
708.5188118606
 30
0.0
 11
726.5692854594
 21
708.5762583634
 31
0.0
  0
ARC
  5
1AD
330
1F
100
AcDbEntity
  8
0
  6
Continuous
 62
     7
370
    25
100
AcDbCircle
 10
744.7186440821
 20
734.3313933572
 30
0.0
 40
31.50755777528333
100
AcDbArc
 50
234.8280705831
 51
254.9420027521
  0
LINE
  5
1AE
330
1F
100
AcDbEntity
  8
0
  6
Continuous
 62
     7
370
    25
100
AcDbLine
 10
738.3212099673
 20
703.4761722601
 30
0.0
 11
736.5330856835
 21
703.9056997634
 31
0.0
  0
LINE
  5
1AF
330
1F
100
AcDbEntity
  8
0
  6
Continuous
 62
     7
370
    25
100
AcDbLine
 10
738.3950473766
 20
693.0293165066
 30
0.0
 11
738.3212099673
 21
693.0189982103
 31
0.0
  0
SPLINE
  5
1B0
330
1F
100
AcDbEntity
  8
0
  6
Continuous
 62
     7
370
    25
100
AcDbSpline
210
0.0
220
0.0
230
1.0
 70
     8
 71
     3
 72
    10
 73
     6
 74
     0
 42
0.00000001
 43
0.00000001
 40
0.0
 40
0.0
 40
0.0
 40
0.0
 40
0.0490769085761659
 40
0.599580584366531
 40
1.0
 40
1.0
 40
1.0
 40
1.0
 10
720.4503198962527
 20
707.3521833763298
 30
0.0
 10
720.4692674346218
 20
707.3375606407284
 30
0.0
 10
720.7007525965283
 20
707.1589122985393
 30
0.0
 10
721.1466263713456
 20
706.924860305118
 30
0.0
 10
721.60863294823
 20
706.8658459321005
 30
0.0
 10
721.8031769709837
 20
706.8409958669681
 30
0.0
  0
ARC
  5
1B1
330
1F
100
AcDbEntity
  8
0
  6
Continuous
 62
     7
370
    25
100
AcDbCircle
 10
738.4050183578
 20
703.8301186944
 30
0.0
 40
0.5000763405234987
100
AcDbArc
 50
258.306520338
 51
266.8373700344
  0
SPLINE
  5
1B2
330
1F
100
AcDbEntity
  8
0
  6
Continuous
 62
     7
370
    25
100
AcDbSpline
210
0.0
220
0.0
230
1.0
 70
     8
 71
     3
 72
     9
 73
     5
 74
     0
 42
0.00000001
 43
0.00000001
 40
0.0
 40
0.0
 40
0.0
 40
0.0
 40
0.8458911907785723
 40
1.0
 40
1.0
 40
1.0
 40
1.0
 10
738.3212099672904
 20
703.476172260081
 30
0.0
 10
738.3420505634015
 20
703.4723574530886
 30
0.0
 10
738.3666880065365
 20
703.4678476449315
 30
0.0
 10
738.3912605337126
 20
703.4661201811803
 30
0.0
 10
738.3950473766154
 20
703.4658539637987
 30
0.0
  0
LINE
  5
1B3
330
1F
100
AcDbEntity
  8
0
  6
Continuous
 62
     7
370
    25
100
AcDbLine
 10
756.3904675743
 20
702.3995981105
 30
0.0
 11
756.3900095544
 21
702.399623197
 31
0.0
  0
LINE
  5
1B4
330
1F
100
AcDbEntity
  8
0
  6
Continuous
 62
     7
370
    25
100
AcDbLine
 10
726.5283655732
 20
687.97698012
 30
0.0
 11
724.6896247239
 21
686.9800138844
 31
0.0
  0
LINE
  5
1B5
330
1F
100
AcDbEntity
  8
0
  6
Continuous
 62
     7
370
    25
100
AcDbLine
 10
723.9496003088
 20
688.8377397842
 30
0.0
 11
724.6896247239
 21
686.9800138844
 31
0.0
  0
LINE
  5
1B6
330
1F
100
AcDbEntity
  8
0
  6
Continuous
 62
     7
370
    25
100
AcDbLine
 10
720.962829982
 20
688.3586182973
 30
0.0
 11
720.8409962353
 21
686.3626377883
 31
0.0
  0
LINE
  5
1B7
330
1F
100
AcDbEntity
  8
0
  6
Continuous
 62
     7
370
    25
100
AcDbLine
 10
720.8409962353
 20
686.3626377883
 30
0.0
 11
719.3980889956
 21
686.5709248535
 31
0.0
  0
ARC
  5
1B8
330
1F
100
AcDbEntity
  8
0
  6
Continuous
 62
     7
370
    25
100
AcDbCircle
 10
744.7186440821
 20
734.3313933572
 30
0.0
 40
33.57753037464028
100
AcDbArc
 50
234.8280705831
 51
235.6099480104
  0
ARC
  5
1B9
330
1F
100
AcDbEntity
  8
0
  6
Continuous
 62
     7
370
    25
100
AcDbCircle
 10
730.1040091551
 20
663.0220843362
 30
0.0
 40
46.10980537323358
100
AcDbArc
 50
102.8580809319
 51
103.1066633214
  0
ARC
  5
1BA
330
1F
100
AcDbEntity
  8
0
  6
Continuous
 62
     7
370
    25
100
AcDbCircle
 10
721.3850449535
 20
701.219479711
 30
0.0
 40
6.929946387144327
100
AcDbArc
 50
54.8280705831
 51
102.8580809319
  0
LINE
  5
1BB
330
1F
100
AcDbEntity
  8
0
  6
Continuous
 62
     7
370
    25
100
AcDbLine
 10
725.3769151934
 20
706.8842064402
 30
0.0
 11
726.5288035446
 21
708.5188118606
 31
0.0
  0
ARC
  5
1BC
330
1F
100
AcDbEntity
  8
0
  6
Continuous
 62
     7
370
    25
100
AcDbCircle
 10
721.3850449535
 20
695.2756907594
 30
0.0
 40
6.929946387144257
100
AcDbArc
 50
266.5070253286
 51
291.7198462835
  0
ARC
  5
1BD
330
1F
100
AcDbEntity
  8
0
  6
Continuous
 62
     7
370
    25
100
AcDbCircle
 10
721.3850449535
 20
695.2756907594
 30
0.0
 40
8.929641777457016
100
AcDbArc
 50
266.5070253286
 51
291.7198462835
  0
LINE
  5
1BE
330
1F
100
AcDbEntity
  8
0
  6
Continuous
 62
     7
370
    25
100
AcDbLine
 10
719.8428761956
 20
707.9756526255
 30
0.0
 11
719.3978701906
 21
709.9252041918
 31
0.0
  0
ARC
  5
1BF
330
1F
100
AcDbEntity
  8
0
  6
Continuous
 62
     7
370
    25
100
AcDbCircle
 10
721.3850449535
 20
701.219479711
 30
0.0
 40
8.929641777457183
100
AcDbArc
 50
54.8280705831
 51
102.8580809319
  0
ARC
  5
1C0
330
1F
100
AcDbEntity
  8
0
  6
Continuous
 62
     7
370
    25
100
AcDbCircle
 10
721.3850449535
 20
695.2756907594
 30
0.0
 40
8.999918986501134
100
AcDbArc
 50
257.1419190681
 51
305.1719294169
  0
ARC
  5
1C1
330
1F
100
AcDbEntity
  8
0
  6
Continuous
 62
     7
370
    25
100
AcDbCircle
 10
721.3850449535
 20
701.219479711
 30
0.0
 40
8.999918986501244
100
AcDbArc
 50
54.8280705831
 51
102.8580809319
  0
SPLINE
  5
1C2
330
1F
100
AcDbEntity
  8
0
  6
Continuous
 62
     7
370
    25
100
AcDbSpline
210
0.0
220
0.0
230
1.0
 70
     8
 71
     3
 72
    11
 73
     7
 74
     0
 42
0.00000001
 43
0.00000001
 40
0.0
 40
0.0
 40
0.0
 40
0.0
 40
0.2200386424382255
 40
0.6637869905998169
 40
0.8890365590789576
 40
1.0
 40
1.0
 40
1.0
 40
1.0
 10
503.3984396036919
 20
692.2272669282539
 30
0.0
 10
503.1942181406905
 20
692.4922855395129
 30
0.0
 10
502.5781465778069
 20
693.2917628698175
 30
0.0
 10
502.0545972267897
 20
694.5549321403454
 30
0.0
 10
501.8029680270286
 20
695.7215019536694
 30
0.0
 10
501.8236752217509
 20
696.2327817523288
 30
0.0
 10
501.8305094057769
 20
696.4015240798011
 30
0.0
  0
SPLINE
  5
1C3
330
1F
100
AcDbEntity
  8
0
  6
Continuous
 62
     7
370
    25
100
AcDbSpline
210
0.0
220
0.0
230
1.0
 70
     8
 71
     3
 72
     9
 73
     5
 74
     0
 42
0.00000001
 43
0.00000001
 40
0.0
 40
0.0
 40
0.0
 40
0.0
 40
0.9209630919903056
 40
1.0
 40
1.0
 40
1.0
 40
1.0
 10
501.7583972404446
 20
692.5475902038875
 30
0.0
 10
502.2728187783174
 20
692.4907631449688
 30
0.0
 10
502.8313878918323
 20
692.4290591967729
 30
0.0
 10
503.3569044035016
 20
692.242047735885
 30
0.0
 10
503.3984396036919
 20
692.2272669282539
 30
0.0
  0
SPLINE
  5
1C4
330
1F
100
AcDbEntity
  8
0
  6
Continuous
 62
     7
370
    25
100
AcDbSpline
210
0.0
220
0.0
230
1.0
 70
     8
 71
     3
 72
    10
 73
     6
 74
     0
 42
0.00000001
 43
0.00000001
 40
0.0
 40
0.0
 40
0.0
 40
0.0
 40
0.2596150688488836
 40
0.629760644481066
 40
0.9999999999999999
 40
0.9999999999999999
 40
0.9999999999999999
 40
0.9999999999999999
 10
454.5832362865074
 20
695.1391477728765
 30
0.0
 10
458.6610565052304
 20
694.8393936357782
 30
0.0
 10
468.5528193385957
 20
694.112265740614
 30
0.0
 10
484.2823920212689
 20
693.2864188707239
 30
0.0
 10
495.9325702825336
 20
692.7938872214581
 30
0.0
 10
501.7583972404446
 20
692.5475902038875
 30
0.0
  0
SPLINE
  5
1C5
330
1F
100
AcDbEntity
  8
0
  6
Continuous
 62
     7
370
    25
100
AcDbSpline
210
0.0
220
0.0
230
1.0
 70
     8
 71
     3
 72
    11
 73
     7
 74
     0
 42
0.00000001
 43
0.00000001
 40
0.0
 40
0.0
 40
0.0
 40
0.0
 40
0.061464119541392
 40
0.4999988937835378
 40
0.9375097801832794
 40
1.0
 40
1.0
 40
1.0
 40
1.0
 10
454.5832362865076
 20
700.8651801198785
 30
0.0
 10
454.5715670903052
 20
700.7487231474264
 30
0.0
 10
454.4766404040358
 20
699.8013678800952
 30
0.0
 10
454.3929375767697
 20
698.004123681647
 30
0.0
 10
454.4765075002898
 20
696.2049256574061
 30
0.0
 10
454.5713792053351
 20
695.257550832973
 30
0.0
 10
454.5832362865074
 20
695.1391477728765
 30
0.0
  0
SPLINE
  5
1C6
330
1F
100
AcDbEntity
  8
0
  6
Continuous
 62
     7
370
    25
100
AcDbSpline
210
0.0
220
0.0
230
1.0
 70
     8
 71
     3
 72
    10
 73
     6
 74
     0
 42
0.00000001
 43
0.00000001
 40
0.0
 40
0.0
 40
0.0
 40
0.0
 40
0.2594618540778875
 40
0.6296073956705976
 40
1.0
 40
1.0
 40
1.0
 40
1.0
 10
501.7583972404446
 20
703.4567376888656
 30
0.0
 10
497.6755290023491
 20
703.28935337934
 30
0.0
 10
487.7680840432845
 20
702.8831803811124
 30
0.0
 10
472.0367874818152
 20
702.0963970233819
 30
0.0
 10
460.4023805316037
 20
701.2756770255405
 30
0.0
 10
454.5832362865076
 20
700.8651801198785
 30
0.0
  0
SPLINE
  5
1C7
330
1F
100
AcDbEntity
  8
0
  6
Continuous
 62
     7
370
    25
100
AcDbSpline
210
0.0
220
0.0
230
1.0
 70
     8
 71
     3
 72
     9
 73
     5
 74
     0
 42
0.00000001
 43
0.00000001
 40
0.0
 40
0.0
 40
0.0
 40
0.0
 40
0.0790369080192139
 40
1.0
 40
1.0
 40
1.0
 40
1.0
 10
503.3984396036911
 20
703.777060964499
 30
0.0
 10
503.3569044034958
 20
703.7622801568663
 30
0.0
 10
502.8313878918266
 20
703.5752686959784
 30
0.0
 10
502.272818778312
 20
703.513564747783
 30
0.0
 10
501.7583972404446
 20
703.4567376888656
 30
0.0
  0
SPLINE
  5
1C8
330
1F
100
AcDbEntity
  8
0
  6
Continuous
 62
     7
370
    25
100
AcDbSpline
210
0.0
220
0.0
230
1.0
 70
     8
 71
     3
 72
    11
 73
     7
 74
     0
 42
0.00000001
 43
0.00000001
 40
0.0
 40
0.0
 40
0.0
 40
0.0
 40
0.0728838064943292
 40
0.4140719411596029
 40
0.9209668754550567
 40
1.0
 40
1.0
 40
1.0
 40
1.0
 10
501.8305094057807
 20
699.6028038129372
 30
0.0
 10
501.822794256643
 20
699.7132502471761
 30
0.0
 10
501.7789624792784
 20
700.3407252875071
 30
0.0
 10
502.1234541907165
 20
701.7237173179723
 30
0.0
 10
502.763143540203
 20
702.9936488357498
 30
0.0
 10
503.3229322896357
 20
703.6839495019227
 30
0.0
 10
503.3984396036911
 20
703.777060964499
 30
0.0
  0
SPLINE
  5
1C9
330
1F
100
AcDbEntity
  8
0
  6
Continuous
 62
     7
370
    25
100
AcDbSpline
210
0.0
220
0.0
230
1.0
 70
     8
 71
     3
 72
    10
 73
     6
 74
     0
 42
0.00000001
 43
0.00000001
 40
0.0
 40
0.0
 40
0.0
 40
0.0
 40
0.3880207377811389
 40
0.979063776650686
 40
1.0
 40
1.0
 40
1.0
 40
1.0
 10
501.8305094057769
 20
696.4015240798011
 30
0.0
 10
501.9038239365363
 20
696.8123639416569
 30
0.0
 10
502.0888130218596
 20
697.8490055115052
 30
0.0
 10
501.9931060960287
 20
698.9427748330766
 30
0.0
 10
501.8358879447807
 20
699.5809707017959
 30
0.0
 10
501.8305094057807
 20
699.6028038129372
 30
0.0
  0
ARC
  5
1CA
330
1F
100
AcDbEntity
  8
0
  6
Continuous
 62
     7
370
    25
100
AcDbCircle
 10
510.0760297483
 20
698.0021639464
 30
0.0
 40
8.39944365426466
100
AcDbArc
 50
190.985757993
 51
169.0142420071
  0
SPLINE
  5
1CB
330
1F
100
AcDbEntity
  8
0
  6
Continuous
 62
     7
370
    25
100
AcDbSpline
210
0.0
220
0.0
230
1.0
 70
     8
 71
     3
 72
     9
 73
     5
 74
     0
 42
0.00000001
 43
0.00000001
 40
0.0
 40
0.0
 40
0.0
 40
0.0
 40
0.6817923421274312
 40
1.0
 40
1.0
 40
1.0
 40
1.0
 10
503.3984396036911
 20
703.777060964499
 30
0.0
 10
503.5407031643342
 20
703.9669713196042
 30
0.0
 10
503.7493642944946
 20
704.2455170634777
 30
0.0
 10
503.978790128375
 20
704.4784214364207
 30
0.0
 10
504.0517951856295
 20
704.5525333914431
 30
0.0
  0
ARC
  5
1CC
330
1F
100
AcDbEntity
  8
0
  6
Continuous
 62
     7
370
    25
100
AcDbCircle
 10
510.0760297483
 20
698.0021639464
 30
0.0
 40
8.899367501836297
100
AcDbArc
 50
227.3959191961
 51
132.6040808039
  0
LINE
  5
1CD
330
1F
100
AcDbEntity
  8
0
  6
Continuous
 62
     7
370
    25
100
AcDbLine
 10
504.0517951856
 20
691.4517945013
 30
0.0
 11
503.3984396037
 21
692.2272669283
 31
0.0
  0
SPLINE
  5
1CE
330
1F
100
AcDbEntity
  8
0
  6
Continuous
 62
     7
370
    25
100
AcDbSpline
210
0.0
220
0.0
230
1.0
 70
     8
 71
     3
 72
    10
 73
     6
 74
     0
 42
0.00000001
 43
0.00000001
 40
0.0
 40
0.0
 40
0.0
 40
0.0
 40
0.3702896688583046
 40
0.7405318123903298
 40
0.9999999999999999
 40
0.9999999999999999
 40
0.9999999999999999
 40
0.9999999999999999
 10
454.5717168233292
 20
701.3080397007117
 30
0.0
 10
460.3917806695475
 20
701.6282307152379
 30
0.0
 10
472.0311613780512
 20
702.2685716489436
 30
0.0
 10
487.7500297848259
 20
703.1378059808069
 30
0.0
 10
497.6472036008357
 20
703.6865469824161
 30
0.0
 10
501.7252719212999
 20
703.9126522662478
 30
0.0
  0
ARC
  5
1CF
330
1F
100
AcDbEntity
  8
0
  6
Continuous
 62
     7
370
    25
100
AcDbCircle
 10
494.5101827138
 20
703.1592658996
 30
0.0
 40
7.254316183416733
100
AcDbArc
 50
2.3501399448
 51
5.9611177313
  0
ARC
  5
1D0
330
1F
100
AcDbEntity
  8
0
  6
Continuous
 62
     7
370
    25
100
AcDbCircle
 10
458.8322393645
 20
701.1972828767
 30
0.0
 40
4.261961918877348
100
AcDbArc
 50
178.5108705386
 51
184.4691613065
  0
SPLINE
  5
1D1
330
1F
100
AcDbEntity
  8
0
  6
Continuous
 62
     7
370
    25
100
AcDbSpline
210
0.0
220
0.0
230
1.0
 70
     8
 71
     3
 72
    10
 73
     6
 74
     0
 42
0.00000001
 43
0.00000001
 40
0.0
 40
0.0
 40
0.0
 40
0.0
 40
0.3702717503651152
 40
0.7405122151371749
 40
1.0
 40
1.0
 40
1.0
 40
1.0
 10
501.7252719212999
 20
692.0916756265053
 30
0.0
 10
495.9055998596307
 20
692.4142041121733
 30
0.0
 10
484.2667474613338
 20
693.0592338319163
 30
0.0
 10
468.5476078773792
 20
693.9280483193952
 30
0.0
 10
458.6501104536805
 20
694.4721032301621
 30
0.0
 10
454.5717168233325
 20
694.6962881920413
 30
0.0
  0
ARC
  5
1D2
330
1F
100
AcDbEntity
  8
0
  6
Continuous
 62
     7
370
    25
100
AcDbCircle
 10
458.8322393674
 20
694.807045016
 30
0.0
 40
4.261961921792643
100
AcDbArc
 50
175.530838696
 51
181.4891294598
  0
ARC
  5
1D3
330
1F
100
AcDbEntity
  8
0
  6
Continuous
 62
     7
370
    25
100
AcDbCircle
 10
494.5101827137
 20
692.8450619932
 30
0.0
 40
7.254316183554713
100
AcDbArc
 50
354.0388822687
 51
357.6498600551
  0
SPLINE
  5
1D4
330
1F
100
AcDbEntity
  8
0
  6
Continuous
 62
     7
370
    25
100
AcDbSpline
210
0.0
220
0.0
230
1.0
 70
     8
 71
     3
 72
    12
 73
     8
 74
     0
 42
0.00000001
 43
0.00000001
 40
0.0
 40
0.0
 40
0.0
 40
0.0
 40
0.1224290494151349
 40
0.3423522449770471
 40
0.5614228816909413
 40
0.7807229538533572
 40
1.0
 40
1.0
 40
1.0
 40
1.0
 10
452.6475088536599
 20
695.2498221425328
 30
0.0
 10
452.6565129295239
 20
695.2474634580918
 30
0.0
 10
452.681691313255
 20
695.2408677937672
 30
0.0
 10
452.8976789968997
 20
695.2238598260278
 30
0.0
 10
453.3335771266288
 20
695.1983488518734
 30
0.0
 10
453.9175027400589
 20
695.1687966693141
 30
0.0
 10
454.361332871627
 20
695.1490303924352
 30
0.0
 10
454.5832362865074
 20
695.1391477728765
 30
0.0
  0
SPLINE
  5
1D5
330
1F
100
AcDbEntity
  8
0
  6
Continuous
 62
     7
370
    25
100
AcDbSpline
210
0.0
220
0.0
230
1.0
 70
     8
 71
     3
 72
    11
 73
     7
 74
     0
 42
0.00000001
 43
0.00000001
 40
0.0
 40
0.0
 40
0.0
 40
0.0
 40
0.0800485240044433
 40
0.5000005853538798
 40
0.9209248322279645
 40
1.0
 40
1.0
 40
1.0
 40
1.0
 10
452.6475088536599
 20
695.2498221425328
 30
0.0
 10
452.6477950980741
 20
695.3960665676334
 30
0.0
 10
452.6495830432787
 20
696.3095412264665
 30
0.0
 10
452.6508187401086
 20
698.003950814225
 30
0.0
 10
452.6495810420137
 20
699.6965776660797
 30
0.0
 10
452.6477918200457
 20
700.6100410417235
 30
0.0
 10
452.6475088536598
 20
700.7545057502148
 30
0.0
  0
SPLINE
  5
1D6
330
1F
100
AcDbEntity
  8
0
  6
Continuous
 62
     7
370
    25
100
AcDbSpline
210
0.0
220
0.0
230
1.0
 70
     8
 71
     3
 72
    12
 73
     8
 74
     0
 42
0.00000001
 43
0.00000001
 40
0.0
 40
0.0
 40
0.0
 40
0.0
 40
0.1130367476169362
 40
0.3328594693548023
 40
0.5544127937945006
 40
0.7774207483513244
 40
1.0
 40
1.0
 40
1.0
 40
1.0
 10
454.5832362865076
 20
700.8651801198785
 30
0.0
 10
454.4691654465207
 20
700.860164874177
 30
0.0
 10
454.1332608839128
 20
700.8453964731212
 30
0.0
 10
453.599193027518
 20
700.8198042690119
 30
0.0
 10
453.0826673896309
 20
700.791929006141
 30
0.0
 10
452.7257726724764
 20
700.7684871325505
 30
0.0
 10
452.6735800549579
 20
700.7591632207908
 30
0.0
 10
452.6475088536598
 20
700.7545057502148
 30
0.0
  0
SPLINE
  5
1D7
330
1F
100
AcDbEntity
  8
0
  6
Continuous
 62
     7
370
    25
100
AcDbSpline
210
0.0
220
0.0
230
1.0
 70
     8
 71
     3
 72
     9
 73
     5
 74
     0
 42
0.00000001
 43
0.00000001
 40
0.0
 40
0.0
 40
0.0
 40
0.0
 40
0.500010612381544
 40
1.0
 40
1.0
 40
1.0
 40
1.0
 10
504.5514030344725
 20
691.0199628120637
 30
0.0
 10
504.1216816676516
 20
691.307803350157
 30
0.0
 10
503.262257175091
 20
691.8834722079083
 30
0.0
 10
502.2375930898128
 20
692.0222754689951
 30
0.0
 10
501.7252719212999
 20
692.0916756265053
 30
0.0
  0
SPLINE
  5
1D8
330
1F
100
AcDbEntity
  8
0
  6
Continuous
 62
     7
370
    25
100
AcDbSpline
210
0.0
220
0.0
230
1.0
 70
     8
 71
     3
 72
     9
 73
     5
 74
     0
 42
0.00000001
 43
0.00000001
 40
0.0
 40
0.0
 40
0.0
 40
0.0
 40
0.9838702326459385
 40
1.0
 40
1.0
 40
1.0
 40
1.0
 10
504.0517951856296
 20
691.45179450131
 30
0.0
 10
504.2131360005642
 20
691.306962088291
 30
0.0
 10
504.3771218694126
 20
691.1597552634342
 30
0.0
 10
504.5486365426946
 20
691.0221818393877
 30
0.0
 10
504.5514030344725
 20
691.0199628120637
 30
0.0
  0
SPLINE
  5
1D9
330
1F
100
AcDbEntity
  8
0
  6
Continuous
 62
     7
370
    25
100
AcDbSpline
210
0.0
220
0.0
230
1.0
 70
     8
 71
     3
 72
     9
 73
     5
 74
     0
 42
0.00000001
 43
0.00000001
 40
0.0
 40
0.0
 40
0.0
 40
0.0
 40
0.5055561057107305
 40
1.0
 40
1.0
 40
1.0
 40
1.0
 10
501.7252719212999
 20
703.9126522662478
 30
0.0
 10
502.2433314386329
 20
703.9833083005178
 30
0.0
 10
503.2680634347082
 20
704.1230673370953
 30
0.0
 10
504.1268040034698
 20
704.699400611891
 30
0.0
 10
504.5514030344725
 20
704.9843650806895
 30
0.0
  0
SPLINE
  5
1DA
330
1F
100
AcDbEntity
  8
0
  6
Continuous
 62
     7
370
    25
100
AcDbSpline
210
0.0
220
0.0
230
1.0
 70
     8
 71
     3
 72
     9
 73
     5
 74
     0
 42
0.00000001
 43
0.00000001
 40
0.0
 40
0.0
 40
0.0
 40
0.0
 40
0.0161297673533178
 40
0.9999999999999999
 40
0.9999999999999999
 40
0.9999999999999999
 40
0.9999999999999999
 10
504.5514030344725
 20
704.9843650806895
 30
0.0
 10
504.5486365426947
 20
704.9821460533656
 30
0.0
 10
504.3771218694087
 20
704.844572629316
 30
0.0
 10
504.2131360005621
 20
704.6973658044607
 30
0.0
 10
504.0517951856295
 20
704.5525333914431
 30
0.0
  0
SPLINE
  5
1DB
330
1F
100
AcDbEntity
  8
0
  6
Continuous
 62
     7
370
    25
100
AcDbSpline
210
0.0
220
0.0
230
1.0
 70
     8
 71
     3
 72
    12
 73
     8
 74
     0
 42
0.00000001
 43
0.00000001
 40
0.0
 40
0.0
 40
0.0
 40
0.0
 40
0.2230315344150378
 40
0.4461337558340359
 40
0.6675099896777023
 40
0.8870667292265011
 40
1.0
 40
1.0
 40
1.0
 40
1.0
 10
453.1198631187444
 20
701.2536688212633
 30
0.0
 10
453.1393969048702
 20
701.2517785739685
 30
0.0
 10
453.1784706681068
 20
701.2479974802892
 30
0.0
 10
453.446059850163
 20
701.2549403165598
 30
0.0
 10
453.833588933988
 20
701.2705291390496
 30
0.0
 10
454.2343110464511
 20
701.2898664191139
 30
0.0
 10
454.486170468709
 20
701.3034320202903
 30
0.0
 10
454.5717168233292
 20
701.3080397007117
 30
0.0
  0
ARC
  5
1DC
330
1F
100
AcDbEntity
  8
0
  6
Continuous
 62
     7
370
    25
100
AcDbCircle
 10
453.1476087413
 20
700.7543391649
 30
0.0
 40
0.5000999153473011
100
AcDbArc
 50
93.1804119247
 51
179.9809145383
  0
SPLINE
  5
1DD
330
1F
100
AcDbEntity
  8
0
  6
Continuous
 62
     7
370
    25
100
AcDbSpline
210
0.0
220
0.0
230
1.0
 70
     8
 71
     3
 72
    12
 73
     8
 74
     0
 42
0.00000001
 43
0.00000001
 40
0.0
 40
0.0
 40
0.0
 40
0.0
 40
0.2190444340109334
 40
0.4380981679380241
 40
0.6571027493691853
 40
0.8772791087290019
 40
1.0
 40
1.0
 40
1.0
 40
1.0
 10
454.5717168233325
 20
694.6962881920413
 30
0.0
 10
454.4052990825617
 20
694.705117004991
 30
0.0
 10
454.0724565354625
 20
694.7227750057333
 30
0.0
 10
453.6342980928194
 20
694.7422934951423
 30
0.0
 10
453.3073322660598
 20
694.7535992787747
 30
0.0
 10
453.1454883890457
 20
694.7554231468513
 30
0.0
 10
453.1266170566335
 20
694.7519147175265
 30
0.0
 10
453.1198631187444
 20
694.75065907149
 30
0.0
  0
ARC
  5
1DE
330
1F
100
AcDbEntity
  8
0
  6
Continuous
 62
     7
370
    25
100
AcDbCircle
 10
453.1476087413
 20
695.2499887279
 30
0.0
 40
0.5000999153468585
100
AcDbArc
 50
180.0190854623
 51
266.8195880753
  0
LINE
  5
1DF
330
1F
100
AcDbEntity
  8
0
  6
Continuous
 62
     7
370
    25
100
AcDbLine
 10
501.7252719213
 20
703.9126522662
 30
0.0
 11
501.6982857396
 21
703.9839425416
 31
0.0
  0
LINE
  5
1E0
330
1F
100
AcDbEntity
  8
0
  6
Continuous
 62
     7
370
    25
100
AcDbLine
 10
453.1151727581
 20
701.2581072743
 30
0.0
 11
453.1198631187
 21
701.2536688213
 31
0.0
  0
ELLIPSE
  5
1E1
330
1F
100
AcDbEntity
  8
0
  6
Continuous
 62
     7
370
    25
100
AcDbEllipse
 10
454.6149443008
 20
701.3413997243
 30
0.0
 11
1.499999304622804
 21
0.08287263343856921
 31
0.0
210
0.0
220
0.0
230
1.0
 40
0.0174284859
 41
2.25512531670087
 42
3.158083049615212
  0
LINE
  5
1E2
330
1F
100
AcDbEntity
  8
0
  6
Continuous
 62
     7
370
    25
100
AcDbLine
 10
457.1305589698
 20
701.5501593124
 30
0.0
 11
453.6655957604
 21
701.3092680334
 31
0.0
  0
LINE
  5
1E3
330
1F
100
AcDbEntity
  8
0
  6
Continuous
 62
     7
370
    25
100
AcDbLine
 10
457.1305589698
 20
701.5500609211
 30
0.0
 11
457.1305589698
 21
701.5501593124
 31
0.0
  0
ELLIPSE
  5
1E4
330
1F
100
AcDbEntity
  8
0
  6
Continuous
 62
     7
370
    25
100
AcDbEllipse
 10
466.5800453908
 20
701.8797069726
 30
0.0
 11
14.49999327802038
 21
0.8011021232406392
 31
0.0
210
0.0
220
0.0
230
1.0
 40
0.0174284859
 41
1.543516838852423
 42
2.279642175408187
  0
ELLIPSE
  5
1E5
330
1F
100
AcDbEntity
  8
0
  6
Continuous
 62
     7
370
    25
100
AcDbEllipse
 10
467.9010553063
 20
702.8299905219
 30
0.0
 11
35.70262504606018
 21
1.972514619921981
 31
0.0
210
0.0
220
0.0
230
1.0
 40
0.0174284859
 41
4.685109492442209
 42
5.167309992307954
  0
ELLIPSE
  5
1E6
330
1F
100
AcDbEntity
  8
0
  6
Continuous
 62
     7
370
    25
100
AcDbEllipse
 10
486.9212827784
 20
703.2023865816
 30
0.0
 11
7.499996523113964
 21
0.4143631671934145
 31
0.0
210
0.0
220
0.0
230
1.0
 40
0.0174284859
 41
1.834826681007974
 42
2.025717338718144
  0
LINE
  5
1E7
330
1F
100
AcDbEntity
  8
0
  6
Continuous
 62
     7
370
    25
100
AcDbLine
 10
484.9766303773
 20
703.0700421304
 30
0.0
 11
484.95701212
 21
703.220432675
 31
0.0
  0
SPLINE
  5
1E8
330
1F
100
AcDbEntity
  8
0
  6
Continuous
 62
     7
370
    25
100
AcDbSpline
210
0.0
220
0.0
230
1.0
 70
     8
 71
     3
 72
    10
 73
     6
 74
     0
 42
0.00000001
 43
0.00000001
 40
0.0
 40
0.0
 40
0.0
 40
0.0
 40
0.0186368637457253
 40
0.3939469944633057
 40
1.0
 40
1.0
 40
1.0
 40
1.0
 10
485.1604016630301
 20
703.0705284976517
 30
0.0
 10
485.1579454557814
 20
703.0704407471724
 30
0.0
 10
485.1060260193044
 20
703.0685858729795
 30
0.0
 10
485.0020271708265
 20
703.0659058916013
 30
0.0
 10
484.9863265134772
 20
703.0684629729989
 30
0.0
 10
484.9766303773336
 20
703.0700421304068
 30
0.0
  0
LINE
  5
1E9
330
1F
100
AcDbEntity
  8
0
  6
Continuous
 62
     7
370
    25
100
AcDbLine
 10
501.6982857396
 20
703.9839425416
 30
0.0
 11
485.160401663
 21
703.0705284977
 31
0.0
  0
LINE
  5
1EA
330
1F
100
AcDbEntity
  8
0
  6
Continuous
 62
     7
370
    25
100
AcDbLine
 10
485.1583359311
 20
692.9175957463
 30
0.0
 11
501.6922443546
 21
692.0044012841
 31
0.0
  0
SPLINE
  5
1EB
330
1F
100
AcDbEntity
  8
0
  6
Continuous
 62
     7
370
    25
100
AcDbSpline
210
0.0
220
0.0
230
1.0
 70
     8
 71
     3
 72
    11
 73
     7
 74
     0
 42
0.00000001
 43
0.00000001
 40
0.0
 40
0.0
 40
0.0
 40
0.0
 40
0.4177469294495291
 40
0.8392770662410922
 40
0.9817832068819584
 40
1.0
 40
1.0
 40
1.0
 40
1.0
 10
484.9746304904617
 20
692.9189451915598
 30
0.0
 10
484.9792675184937
 20
692.9200283827435
 30
0.0
 10
484.988583568495
 20
692.9222045747265
 30
0.0
 10
485.0640800342453
 20
692.9210023978352
 30
0.0
 10
485.1343402348171
 20
692.9185318704951
 30
0.0
 10
485.1558930714748
 20
692.9176910475381
 30
0.0
 10
485.1583359311048
 20
692.9175957462797
 30
0.0
  0
LINE
  5
1EC
330
1F
100
AcDbEntity
  8
0
  6
Continuous
 62
     7
370
    25
100
AcDbLine
 10
484.95701212
 20
692.7838952178
 30
0.0
 11
484.9746304905
 21
692.9189451916
 31
0.0
  0
ELLIPSE
  5
1ED
330
1F
100
AcDbEntity
  8
0
  6
Continuous
 62
     7
370
    25
100
AcDbEllipse
 10
486.9212827784
 20
692.8019413112
 30
0.0
 11
7.499996523113964
 21
-0.4143631671934145
 31
0.0
210
0.0
220
0.0
230
1.0
 40
0.0174284859
 41
4.257467968461606
 42
4.448358626171444
  0
ELLIPSE
  5
1EE
330
1F
100
AcDbEntity
  8
0
  6
Continuous
 62
     7
370
    25
100
AcDbEllipse
 10
467.9010553063
 20
693.1743373709
 30
0.0
 11
35.70262504606006
 21
-1.972514619921981
 31
0.0
210
0.0
220
0.0
230
1.0
 40
0.0174284859
 41
1.11587531487171
 42
1.598075814737379
  0
ELLIPSE
  5
1EF
330
1F
100
AcDbEntity
  8
0
  6
Continuous
 62
     7
370
    25
100
AcDbEllipse
 10
466.5800453908
 20
694.1246209202
 30
0.0
 11
14.49999327802038
 21
-0.801102123240753
 31
0.0
210
0.0
220
0.0
230
1.0
 40
0.0174284859
 41
4.003543131772161
 42
4.739668468327152
  0
LINE
  5
1F0
330
1F
100
AcDbEntity
  8
0
  6
Continuous
 62
     7
370
    25
100
AcDbLine
 10
457.1305589698
 20
694.4541685804
 30
0.0
 11
457.1305589698
 21
694.4542669716
 31
0.0
  0
LINE
  5
1F1
330
1F
100
AcDbEntity
  8
0
  6
Continuous
 62
     7
370
    25
100
AcDbLine
 10
453.6655957604
 20
694.6950598594
 30
0.0
 11
457.1305589698
 21
694.4541685804
 31
0.0
  0
ELLIPSE
  5
1F2
330
1F
100
AcDbEntity
  8
0
  6
Continuous
 62
     7
370
    25
100
AcDbEllipse
 10
454.6149443008
 20
694.6629281684
 30
0.0
 11
1.499999304622804
 21
-0.0828726334386829
 31
0.0
210
0.0
220
0.0
230
1.0
 40
0.0174284859
 41
3.125102257565245
 42
4.028059990481447
  0
LINE
  5
1F3
330
1F
100
AcDbEntity
  8
0
  6
Continuous
 62
     7
370
    25
100
AcDbLine
 10
453.1198631187
 20
694.7506590715
 30
0.0
 11
453.1151727581
 21
694.7462206184
 31
0.0
  0
LINE
  5
1F4
330
1F
100
AcDbEntity
  8
0
  6
Continuous
 62
     7
370
    25
100
AcDbLine
 10
501.6922443546
 20
692.0044012841
 30
0.0
 11
501.7252719213
 21
692.0916756265
 31
0.0
  0
SPLINE
  5
1F5
330
1F
100
AcDbEntity
  8
0
  6
Continuous
 62
     7
370
    25
100
AcDbSpline
210
0.0
220
0.0
230
1.0
 70
     8
 71
     3
 72
     9
 73
     5
 74
     0
 42
0.00000001
 43
0.00000001
 40
0.0
 40
0.0
 40
0.0
 40
0.0
 40
0.5001021276704695
 40
1.0
 40
1.0
 40
1.0
 40
1.0
 10
504.518184168417
 20
705.0500565276496
 30
0.0
 10
504.0892363927097
 20
704.7635308935611
 30
0.0
 10
503.2315160352592
 20
704.1905966502633
 30
0.0
 10
502.2092929066441
 20
704.0528178638091
 30
0.0
 10
501.6982857396033
 20
703.9839425416086
 30
0.0
  0
LINE
  5
1F6
330
1F
100
AcDbEntity
  8
0
  6
Continuous
 62
     7
370
    25
100
AcDbLine
 10
504.5181841684
 20
705.0500565276
 30
0.0
 11
504.5514030345
 21
704.9843650807
 31
0.0
  0
SPLINE
  5
1F7
330
1F
100
AcDbEntity
  8
0
  6
Continuous
 62
     7
370
    25
100
AcDbSpline
210
0.0
220
0.0
230
1.0
 70
     8
 71
     3
 72
     9
 73
     5
 74
     0
 42
0.00000001
 43
0.00000001
 40
0.0
 40
0.0
 40
0.0
 40
0.0
 40
0.400722737156528
 40
1.0
 40
1.0
 40
1.0
 40
1.0
 10
501.6922443545516
 20
692.0044012840651
 30
0.0
 10
502.1009304779609
 20
691.9559940219996
 30
0.0
 10
503.1208030370007
 20
691.8351941332556
 30
0.0
 10
503.9898790808266
 20
691.275086859902
 30
0.0
 10
504.5106965935735
 20
690.9394273062279
 30
0.0
  0
LINE
  5
1F8
330
1F
100
AcDbEntity
  8
0
  6
Continuous
 62
     7
370
    25
100
AcDbLine
 10
504.5514030345
 20
691.0199628121
 30
0.0
 11
504.5106965936
 21
690.9394273062
 31
0.0
  0
ARC
  5
1F9
330
1F
100
AcDbEntity
  8
0
  6
Continuous
 62
     7
370
    25
100
AcDbCircle
 10
510.0760297483
 20
698.0021639464
 30
0.0
 40
8.975658044222053
100
AcDbArc
 50
65.1648853947
 51
128.2586979829
  0
LWPOLYLINE
  5
1FA
330
1F
100
AcDbEntity
  8
0
  6
Continuous
 62
     7
370
    25
100
AcDbPolyline
 90
        3
 70
   128
 43
0.0
 10
514.0113431725
 20
706.2528236697
 10
513.9067616084
 20
706.1865712584
 10
513.8458810657
 20
706.1477552921
  0
ARC
  5
1FB
330
1F
100
AcDbEntity
  8
0
  6
Continuous
 62
     7
370
    25
100
AcDbCircle
 10
510.0760297483
 20
698.0021639464
 30
0.0
 40
9.141120151092233
100
AcDbArc
 50
295.4997164176
 51
64.5002794289
  0
LWPOLYLINE
  5
1FC
330
1F
100
AcDbEntity
  8
0
  6
Continuous
 62
     7
370
    25
100
AcDbPolyline
 90
        3
 70
   128
 43
0.0
 10
513.8621739761
 20
689.8461665299
 10
513.9067616084
 20
689.8177566343
 10
514.0113431728
 20
689.7515042229
  0
ARC
  5
1FD
330
1F
100
AcDbEntity
  8
0
  6
Continuous
 62
     7
370
    25
100
AcDbCircle
 10
510.0760297483
 20
698.0021639464
 30
0.0
 40
8.99195095466079
100
AcDbArc
 50
231.762407147
 51
294.9014811666
  0
LINE
  5
1FE
330
1F
100
AcDbEntity
  8
0
  6
Continuous
 62
     7
370
    25
100
AcDbLine
 10
452.642818493
 20
695.2453836895
 30
0.0
 11
452.6475088537
 21
695.2498221425
 31
0.0
  0
LINE
  5
1FF
330
1F
100
AcDbEntity
  8
0
  6
Continuous
 62
     7
370
    25
100
AcDbLine
 10
452.642818493
 20
700.7589442033
 30
0.0
 11
452.642818493
 21
695.2453836895
 31
0.0
  0
LINE
  5
200
330
1F
100
AcDbEntity
  8
0
  6
Continuous
 62
     7
370
    25
100
AcDbLine
 10
452.6475088537
 20
700.7545057502
 30
0.0
 11
452.642818493
 21
700.7589442033
 31
0.0
  0
ARC
  5
201
330
1F
100
AcDbEntity
  8
0
  6
Continuous
 62
     7
370
    25
100
AcDbCircle
 10
453.1429183806
 20
695.2455502748
 30
0.0
 40
0.5000999153469134
100
AcDbArc
 50
180.0190854617
 51
266.8195880753
  0
ARC
  5
202
330
1F
100
AcDbEntity
  8
0
  6
Continuous
 62
     7
370
    25
100
AcDbCircle
 10
453.1429183806
 20
700.7587776179
 30
0.0
 40
0.5000999153470679
100
AcDbArc
 50
93.1804119247
 51
179.9809145383
  0
LINE
  5
203
330
1F
100
AcDbEntity
  8
0
  6
Continuous
 62
     7
370
    25
100
AcDbLine
 10
453.6655957604
 20
694.6950598594
 30
0.0
 11
453.6584880296
 21
694.695426896
 31
0.0
  0
LINE
  5
204
330
1F
100
AcDbEntity
  8
0
  6
Continuous
 62
     7
370
    25
100
AcDbLine
 10
453.6655957604
 20
701.3092680334
 30
0.0
 11
453.6584880296
 21
701.3089009967
 31
0.0
  0
SPLINE
  5
205
330
1F
100
AcDbEntity
  8
0
  6
Continuous
 62
     7
370
    25
100
AcDbSpline
210
0.0
220
0.0
230
1.0
 70
     8
 71
     3
 72
    11
 73
     7
 74
     0
 42
0.00000001
 43
0.00000001
 40
0.0
 40
0.0
 40
0.0
 40
0.0
 40
0.1345990676765959
 40
0.4126978815969493
 40
0.6969472592954598
 40
1.0
 40
1.0
 40
1.0
 40
1.0
 10
513.8466596721078
 20
706.1485619091969
 30
0.0
 10
513.4173536518595
 20
706.3394457943581
 30
0.0
 10
512.1010467251352
 20
706.9247200937779
 30
0.0
 10
509.725236674252
 20
707.5471879778015
 30
0.0
 10
506.6715472893709
 20
707.9236906603018
 30
0.0
 10
504.4805173810102
 20
707.9508319886346
 30
0.0
 10
503.3499278634722
 20
707.9648371380797
 30
0.0
  0
ARC
  5
206
330
1F
100
AcDbEntity
  8
0
  6
Continuous
 62
     7
370
    25
100
AcDbCircle
 10
507.8424588565
 20
707.3450130935
 30
0.0
 40
4.535087272519032
100
AcDbArc
 50
149.0284626407
 51
172.1446266983
  0
SPLINE
  5
207
330
1F
100
AcDbEntity
  8
0
  6
Continuous
 62
     7
370
    25
100
AcDbSpline
210
0.0
220
0.0
230
1.0
 70
     8
 71
     3
 72
    12
 73
     8
 74
     0
 42
0.00000001
 43
0.00000001
 40
0.0
 40
0.0
 40
0.0
 40
0.0
 40
0.1662426524176545
 40
0.3368059756191297
 40
0.6054181071254586
 40
0.8801435087136193
 40
1.0
 40
1.0
 40
1.0
 40
1.0
 10
503.9539705009732
 20
709.6788243280475
 30
0.0
 10
504.5916520215093
 20
709.5233391525646
 30
0.0
 10
505.88358849831
 20
709.2083277192093
 30
0.0
 10
508.0677748806593
 20
708.5453626142107
 30
0.0
 10
510.4297492242191
 20
707.6931676974054
 30
0.0
 10
512.3952867861117
 20
706.8505390187934
 30
0.0
 10
513.5090617709072
 20
706.3126809260981
 30
0.0
 10
513.8473772490648
 20
706.1493034752708
 30
0.0
  0
LINE
  5
208
330
1F
100
AcDbEntity
  8
0
  6
Continuous
 62
     7
370
    25
100
AcDbLine
 10
513.8473772491
 20
706.1493034753
 30
0.0
 11
513.8466596721
 21
706.1485619092
 31
0.0
  0
LINE
  5
209
330
1F
100
AcDbEntity
  8
0
  6
Continuous
 62
     7
370
    25
100
AcDbLine
 10
503.953970501
 20
709.678824328
 30
0.0
 11
503.9698285779
 21
709.7482978596
 31
0.0
  0
ARC
  5
20A
330
1F
100
AcDbEntity
  8
0
  6
Continuous
 62
     7
370
    25
100
AcDbCircle
 10
493.2480503414
 20
662.7766630474
 30
0.0
 40
48.17977797259046
100
AcDbArc
 50
64.4718479123
 51
77.1419190681
  0
LWPOLYLINE
  5
20B
330
1F
100
AcDbEntity
  8
0
  6
Continuous
 62
     7
370
    25
100
AcDbPolyline
 90
        3
 70
   128
 43
0.0
 10
513.8473772491
 20
706.1493034753
 10
513.9067650994
 20
706.1868271788
 10
514.0113431722
 20
706.2528252087
  0
LINE
  5
20C
330
1F
100
AcDbEntity
  8
0
  6
Continuous
 62
     7
370
    25
100
AcDbLine
 10
504.5181841684
 20
705.0500565276
 30
0.0
 11
502.3203122483
 21
707.837173402
 31
0.0
  0
ARC
  5
20D
330
1F
100
AcDbEntity
  8
0
  6
Continuous
 62
     7
370
    25
100
AcDbCircle
 10
510.0760297483
 20
698.0021639464
 30
0.0
 40
12.52511736202725
100
AcDbArc
 50
127.8583068702
 51
128.2586979829
  0
LINE
  5
20E
330
1F
100
AcDbEntity
  8
0
  6
Continuous
 62
     7
370
    25
100
AcDbLine
 10
503.3499278635
 20
707.9648371381
 30
0.0
 11
502.3892295146
 21
707.8911308843
 31
0.0
  0
LINE
  5
20F
330
1F
100
AcDbEntity
  8
0
  6
Continuous
 62
     7
370
    25
100
AcDbLine
 10
513.8458810657
 20
706.1477552921
 30
0.0
 11
513.8466596721
 21
706.1485619092
 31
0.0
  0
LINE
  5
210
330
1F
100
AcDbEntity
  8
0
  6
Continuous
 62
     7
370
    25
100
AcDbLine
 10
499.4024591878
 20
707.4120093973
 30
0.0
 11
501.5025417039
 21
707.5280003461
 31
0.0
  0
LINE
  5
211
330
1F
100
AcDbEntity
  8
0
  6
Continuous
 62
     7
370
    25
100
AcDbLine
 10
501.6982857396
 20
703.9839425416
 30
0.0
 11
501.5025417039
 21
707.5280003461
 31
0.0
  0
SPLINE
  5
212
330
1F
100
AcDbEntity
  8
0
  6
Continuous
 62
     7
370
    25
100
AcDbSpline
210
0.0
220
0.0
230
1.0
 70
     8
 71
     3
 72
    16
 73
    12
 74
     0
 42
0.00000001
 43
0.00000001
 40
0.0
 40
0.0
 40
0.0
 40
0.0
 40
0.2861254310575669
 40
0.7591203623085425
 40
0.8520758313858449
 40
0.9266344548631255
 40
0.9604862301433736
 40
0.9835335436569232
 40
0.9930756629548352
 40
0.9972242292023619
 40
1.0
 40
1.0
 40
1.0
 40
1.0
 10
497.9617908257243
 20
706.8878657153617
 30
0.0
 10
496.7336439886006
 20
706.3577984060097
 30
0.0
 10
493.4752434035163
 20
704.9514750098825
 30
0.0
 10
489.677661948909
 20
703.9336630069981
 30
0.0
 10
486.8800002990045
 20
703.3717427892266
 30
0.0
 10
486.0148673601101
 20
703.2172402733337
 30
0.0
 10
485.4892811913759
 20
703.1287196075032
 30
0.0
 10
485.2556189326619
 20
703.0896102238546
 30
0.0
 10
485.1779687855012
 20
703.0752902548849
 30
0.0
 10
485.161887130466
 20
703.0715565162619
 30
0.0
 10
485.1608267425443
 20
703.0708226741789
 30
0.0
 10
485.1604016630301
 20
703.0705284976517
 30
0.0
  0
LINE
  5
213
330
1F
100
AcDbEntity
  8
0
  6
Continuous
 62
     7
370
    25
100
AcDbLine
 10
499.4024591878
 20
707.4120093973
 30
0.0
 11
497.9617908257
 21
706.8878657154
 31
0.0
  0
ARC
  5
214
330
1F
100
AcDbEntity
  8
0
  6
Continuous
 62
     7
370
    25
100
AcDbCircle
 10
492.1583580346
 20
703.2787633345
 30
0.0
 40
6.834138728225124
100
AcDbArc
 50
31.8771071303
 51
46.9488007428
  0
SPLINE
  5
215
330
1F
100
AcDbEntity
  8
0
  6
Continuous
 62
     7
370
    25
100
AcDbSpline
210
0.0
220
0.0
230
1.0
 70
     8
 71
     3
 72
    10
 73
     6
 74
     0
 42
0.00000001
 43
0.00000001
 40
0.0
 40
0.0
 40
0.0
 40
0.0
 40
0.5975855365574454
 40
0.9790563563181981
 40
1.0
 40
1.0
 40
1.0
 40
1.0
 10
485.0503763433424
 20
703.079655394991
 30
0.0
 10
485.0478572039889
 20
703.0759160972647
 30
0.0
 10
485.0437299632083
 20
703.0697898057412
 30
0.0
 10
485.1181010897639
 20
703.0694132468847
 30
0.0
 10
485.1583090418682
 20
703.0704733258851
 30
0.0
 10
485.1604016630301
 20
703.0705284976517
 30
0.0
  0
SPLINE
  5
216
330
1F
100
AcDbEntity
  8
0
  6
Continuous
 62
     7
370
    25
100
AcDbSpline
210
0.0
220
0.0
230
1.0
 70
     8
 71
     3
 72
    14
 73
    10
 74
     0
 42
0.00000001
 43
0.00000001
 40
0.0
 40
0.0
 40
0.0
 40
0.0
 40
0.0129036569231464
 40
0.0519665716781148
 40
0.131889182426121
 40
0.2280032005552168
 40
0.4679440229400842
 40
0.7079115564493631
 40
0.9999999999999999
 40
0.9999999999999999
 40
0.9999999999999999
 40
0.9999999999999999
 10
485.0503763433424
 20
703.079655394991
 30
0.0
 10
485.0838449198067
 20
703.0875003690525
 30
0.0
 10
485.2186320726394
 20
703.119094234985
 30
0.0
 10
485.6579055176319
 20
703.2214762822787
 30
0.0
 10
486.4693329358578
 20
703.4238777910957
 30
0.0
 10
488.1228101176784
 20
703.8909284718619
 30
0.0
 10
490.4671001899221
 20
704.7283855312522
 30
0.0
 10
493.6121943664193
 20
706.1733257716027
 30
0.0
 10
495.6854930406118
 20
707.5286966543973
 30
0.0
 10
496.823693923359
 20
708.272769061547
 30
0.0
  0
LWPOLYLINE
  5
217
330
1F
100
AcDbEntity
  8
0
  6
Continuous
 62
     7
370
    25
100
AcDbPolyline
 90
        4
 70
   128
 43
0.0
 10
485.0308495293
 20
703.2307509713
 10
485.0330941649
 20
703.2133928244
 10
485.0420691989
 20
703.1439600782
 10
485.0503763433
 20
703.079655395
  0
LINE
  5
218
330
1F
100
AcDbEntity
  8
0
  6
Continuous
 62
     7
370
    25
100
AcDbLine
 10
486.818973813
 20
703.6602784745
 30
0.0
 11
485.0308495293
 21
703.2307509713
 31
0.0
  0
ARC
  5
219
330
1F
100
AcDbEntity
  8
0
  6
Continuous
 62
     7
370
    25
100
AcDbCircle
 10
478.6334154145
 20
734.0859720684
 30
0.0
 40
31.50755777528326
100
AcDbArc
 50
285.0579972479
 51
305.1719294169
  0
LINE
  5
21A
330
1F
100
AcDbEntity
  8
0
  6
Continuous
 62
     7
370
    25
100
AcDbLine
 10
496.8236939234
 20
708.2727690615
 30
0.0
 11
496.7827740372
 21
708.3308370746
 31
0.0
  0
SPLINE
  5
21B
330
1F
100
AcDbEntity
  8
0
  6
Continuous
 62
     7
370
    25
100
AcDbSpline
210
0.0
220
0.0
230
1.0
 70
     8
 71
     3
 72
     9
 73
     5
 74
     0
 42
0.00000001
 43
0.00000001
 40
0.0
 40
0.0
 40
0.0
 40
0.0
 40
0.4998978730609624
 40
1.0
 40
1.0
 40
1.0
 40
1.0
 10
501.5025417038981
 20
707.5280003460524
 30
0.0
 10
501.6507366197937
 20
707.5479666840547
 30
0.0
 10
501.9471870027258
 20
707.5879075181296
 30
0.0
 10
502.1959202315024
 20
707.7540734606999
 30
0.0
 10
502.320312248254
 20
707.8371734020044
 30
0.0
  0
ARC
  5
21C
330
1F
100
AcDbEntity
  8
0
  6
Continuous
 62
     7
370
    25
100
AcDbCircle
 10
484.9490410285
 20
703.5693568348
 30
0.0
 40
0.5000763403763224
100
AcDbArc
 50
273.1626296398
 51
281.6913635617
  0
ARC
  5
21D
330
1F
100
AcDbEntity
  8
0
  6
Continuous
 62
     7
370
    25
100
AcDbCircle
 10
493.2480503414
 20
733.2276648454
 30
0.0
 40
48.10950076354632
100
AcDbArc
 50
282.8580809319
 51
283.1066633214
  0
SPLINE
  5
21E
330
1F
100
AcDbEntity
  8
0
  6
Continuous
 62
     7
370
    25
100
AcDbSpline
210
0.0
220
0.0
230
1.0
 70
     8
 71
     3
 72
    12
 73
     8
 74
     0
 42
0.00000001
 43
0.00000001
 40
0.0
 40
0.0
 40
0.0
 40
0.0
 40
0.046072672532115
 40
0.2494576442748305
 40
0.4755636088397373
 40
0.7057929889265022
 40
1.0
 40
1.0
 40
1.0
 40
1.0
 10
513.863408222755
 20
689.8448921862741
 30
0.0
 10
513.7350728135797
 20
689.7823874869348
 30
0.0
 10
513.0402086546225
 20
689.4439596468214
 30
0.0
 10
511.6874096851002
 20
688.8283762306811
 30
0.0
 10
509.6795410410186
 20
688.0209169254266
 30
0.0
 10
507.1842692260131
 20
687.1477968078985
 30
0.0
 10
505.2453230378784
 20
686.6504471682555
 30
0.0
 10
504.1575808974419
 20
686.371435731589
 30
0.0
  0
LWPOLYLINE
  5
21F
330
1F
100
AcDbEntity
  8
0
  6
Continuous
 62
     7
370
    25
100
AcDbPolyline
 90
        3
 70
   128
 43
0.0
 10
513.8634082228
 20
689.8448921863
 10
513.9067650994
 20
689.8175007139
 10
514.0113431725
 20
689.7515026838
  0
ARC
  5
220
330
1F
100
AcDbEntity
  8
0
  6
Continuous
 62
     7
370
    25
100
AcDbCircle
 10
493.2480503414
 20
733.2276648454
 30
0.0
 40
48.17977797259049
100
AcDbArc
 50
282.8580809319
 51
295.5281512988
  0
LINE
  5
221
330
1F
100
AcDbEntity
  8
0
  6
Continuous
 62
     7
370
    25
100
AcDbLine
 10
503.954189306
 20
686.3245449898
 30
0.0
 11
503.9698285779
 21
686.2560300331
 31
0.0
  0
LINE
  5
222
330
1F
100
AcDbEntity
  8
0
  6
Continuous
 62
     7
370
    25
100
AcDbLine
 10
503.7041208196
 20
688.3190382608
 30
0.0
 11
504.1575808974
 21
686.3714357316
 31
0.0
  0
SPLINE
  5
223
330
1F
100
AcDbEntity
  8
0
  6
Continuous
 62
     7
370
    25
100
AcDbSpline
210
0.0
220
0.0
230
1.0
 70
     8
 71
     3
 72
    13
 73
     9
 74
     0
 42
0.00000001
 43
0.00000001
 40
0.0
 40
0.0
 40
0.0
 40
0.0
 40
0.2574896950994368
 40
0.4890886589321025
 40
0.7206004760683485
 40
0.9447506334961274
 40
0.9460032291293288
 40
1.0
 40
1.0
 40
1.0
 40
1.0
 10
503.7041208195549
 20
688.319038260803
 30
0.0
 10
504.6228463955428
 20
688.2909752966882
 30
0.0
 10
506.3679191826809
 20
688.2376711150229
 30
0.0
 10
508.8624844285944
 20
688.4022352338609
 30
0.0
 10
511.1781342345951
 20
688.815609228871
 30
0.0
 10
512.6552428361992
 20
689.3151664154343
 30
0.0
 10
513.5265042807399
 20
689.6894092703644
 30
0.0
 10
513.6965506895627
 20
689.7683896888494
 30
0.0
 10
513.862741861618
 20
689.8455794890241
 30
0.0
  0
LINE
  5
224
330
1F
100
AcDbEntity
  8
0
  6
Continuous
 62
     7
370
    25
100
AcDbLine
 10
513.8627418616
 20
689.845579489
 30
0.0
 11
513.8634082228
 21
689.8448921863
 31
0.0
  0
LINE
  5
225
330
1F
100
AcDbEntity
  8
0
  6
Continuous
 62
     7
370
    25
100
AcDbLine
 10
497.5988015038
 20
689.6269226683
 30
0.0
 11
496.4693260863
 21
687.9767508786
 31
0.0
  0
SPLINE
  5
226
330
1F
100
AcDbEntity
  8
0
  6
Continuous
 62
     7
370
    25
100
AcDbSpline
210
0.0
220
0.0
230
1.0
 70
     8
 71
     3
 72
    14
 73
    10
 74
     0
 42
0.00000001
 43
0.00000001
 40
0.0
 40
0.0
 40
0.0
 40
0.0
 40
0.2256458607195977
 40
0.4518169308148961
 40
0.8157761447763431
 40
0.8946140573305374
 40
0.9637846180221655
 40
0.994079914312567
 40
1.0
 40
1.0
 40
1.0
 40
1.0
 10
496.4693260862861
 20
687.9767508786463
 30
0.0
 10
495.623578539215
 20
688.5217746011476
 30
0.0
 10
493.9301148978111
 20
689.6130906338747
 30
0.0
 10
490.7498927977588
 20
691.1785317186768
 30
0.0
 10
488.0786147345923
 20
692.1319105529127
 30
0.0
 10
486.1280862473413
 20
692.6533586990417
 30
0.0
 10
485.4840097368995
 20
692.8087393736839
 30
0.0
 10
485.1560588406727
 20
692.8842894345285
 30
0.0
 10
485.063521508074
 20
692.9058102086736
 30
0.0
 10
485.0483945396878
 20
692.9093281841867
 30
0.0
  0
SPLINE
  5
227
330
1F
100
AcDbEntity
  8
0
  6
Continuous
 62
     7
370
    25
100
AcDbSpline
210
0.0
220
0.0
230
1.0
 70
     8
 71
     3
 72
    11
 73
     7
 74
     0
 42
0.00000001
 43
0.00000001
 40
0.0
 40
0.0
 40
0.0
 40
0.0
 40
0.0195561212295927
 40
0.1681891996744411
 40
0.5898876540792777
 40
1.0
 40
1.0
 40
1.0
 40
1.0
 10
485.1583359311048
 20
692.9175957462797
 30
0.0
 10
485.1563772179568
 20
692.9176538599955
 30
0.0
 10
485.139531628134
 20
692.9181536574363
 30
0.0
 10
485.0876310643749
 20
692.9190000748497
 30
0.0
 10
485.0383464323093
 20
692.9169107763277
 30
0.0
 10
485.0450764173857
 20
692.9118321351442
 30
0.0
 10
485.0483945396877
 20
692.9093281841867
 30
0.0
  0
SPLINE
  5
228
330
1F
100
AcDbEntity
  8
0
  6
Continuous
 62
     7
370
    25
100
AcDbSpline
210
0.0
220
0.0
230
1.0
 70
     8
 71
     3
 72
    17
 73
    13
 74
     0
 42
0.00000001
 43
0.00000001
 40
0.0
 40
0.0
 40
0.0
 40
0.0
 40
0.0068263121770685
 40
0.0088448507297254
 40
0.0223990310416126
 40
0.0309593028397538
 40
0.0563218912149143
 40
0.1198824177066684
 40
0.1957460556357056
 40
0.5558621944880031
 40
0.77803360979772
 40
1.0
 40
1.0
 40
1.0
 40
1.0
 10
485.1583359311048
 20
692.9175957462797
 30
0.0
 10
485.1619560762664
 20
692.9165575632346
 30
0.0
 10
485.166646697314
 20
692.915212389761
 30
0.0
 10
485.2101794100172
 20
692.907622401686
 30
0.0
 10
485.2847113324497
 20
692.8958708948794
 30
0.0
 10
485.4515435779516
 20
692.8701519996563
 30
0.0
 10
485.833119695019
 20
692.811637420634
 30
0.0
 10
486.5160206617533
 20
692.7024404360468
 30
0.0
 10
488.621019978671
 20
692.3352682036228
 30
0.0
 10
491.4339545604572
 20
691.7010905196574
 30
0.0
 10
494.8327387750238
 20
690.6881502277989
 30
0.0
 10
496.6770643897875
 20
689.9805563071122
 30
0.0
 10
497.5988015037781
 20
689.6269226682851
 30
0.0
  0
LINE
  5
229
330
1F
100
AcDbEntity
  8
0
  6
Continuous
 62
     7
370
    25
100
AcDbLine
 10
501.6922443546
 20
692.0044012841
 30
0.0
 11
501.5488825256
 21
689.4087533146
 31
0.0
  0
LINE
  5
22A
330
1F
100
AcDbEntity
  8
0
  6
Continuous
 62
     7
370
    25
100
AcDbLine
 10
501.5488825256
 20
689.4087533146
 30
0.0
 11
497.5988015038
 21
689.6269226683
 31
0.0
  0
LINE
  5
22B
330
1F
100
AcDbEntity
  8
0
  6
Continuous
 62
     7
370
    25
100
AcDbLine
 10
504.5106965936
 20
690.9394273062
 30
0.0
 11
502.9017396003
 21
688.8975658053
 31
0.0
  0
LINE
  5
22C
330
1F
100
AcDbEntity
  8
0
  6
Continuous
 62
     7
370
    25
100
AcDbLine
 10
513.8627418616
 20
689.845579489
 30
0.0
 11
513.8621739761
 21
689.8461665299
 31
0.0
  0
ARC
  5
22D
330
1F
100
AcDbEntity
  8
0
  6
Continuous
 62
     7
370
    25
100
AcDbCircle
 10
510.0760297483
 20
698.0021639464
 30
0.0
 40
11.59155496206743
100
AcDbArc
 50
231.762407147
 51
236.6533814372
  0
LWPOLYLINE
  5
22E
330
1F
100
AcDbEntity
  8
0
  6
Continuous
 62
     7
370
    25
100
AcDbPolyline
 90
        4
 70
   128
 43
0.0
 10
485.0483945397
 20
692.9093281842
 10
485.0461522934
 20
692.8919699292
 10
485.0371798105
 20
692.8225370676
 10
485.0308495293
 20
692.7735769215
  0
ARC
  5
22F
330
1F
100
AcDbEntity
  8
0
  6
Continuous
 62
     7
370
    25
100
AcDbCircle
 10
478.6334154145
 20
661.9183558244
 30
0.0
 40
31.57783498432758
100
AcDbArc
 50
54.8280705831
 51
55.6099480104
  0
LINE
  5
230
330
1F
100
AcDbEntity
  8
0
  6
Continuous
 62
     7
370
    25
100
AcDbLine
 10
496.823255952
 20
687.730937321
 30
0.0
 11
496.7827740372
 21
687.6734908182
 31
0.0
  0
ARC
  5
231
330
1F
100
AcDbEntity
  8
0
  6
Continuous
 62
     7
370
    25
100
AcDbCircle
 10
478.6334154145
 20
661.9183558244
 30
0.0
 40
31.50755777528343
100
AcDbArc
 50
54.8280705831
 51
74.9420027521
  0
LINE
  5
232
330
1F
100
AcDbEntity
  8
0
  6
Continuous
 62
     7
370
    25
100
AcDbLine
 10
485.0308495293
 20
692.7735769215
 30
0.0
 11
486.818973813
 21
692.3440494182
 31
0.0
  0
LINE
  5
233
330
1F
100
AcDbEntity
  8
0
  6
Continuous
 62
     7
370
    25
100
AcDbLine
 10
484.95701212
 20
703.220432675
 30
0.0
 11
485.0308495293
 21
703.2307509713
 31
0.0
  0
SPLINE
  5
234
330
1F
100
AcDbEntity
  8
0
  6
Continuous
 62
     7
370
    25
100
AcDbSpline
210
0.0
220
0.0
230
1.0
 70
     8
 71
     3
 72
    10
 73
     6
 74
     0
 42
0.00000001
 43
0.00000001
 40
0.0
 40
0.0
 40
0.0
 40
0.0
 40
0.0490769085761659
 40
0.599580584366531
 40
1.0
 40
1.0
 40
1.0
 40
1.0
 10
502.9017396003149
 20
688.8975658052516
 30
0.0
 10
502.8827920619458
 20
688.9121885408531
 30
0.0
 10
502.6513069000393
 20
689.0908368830421
 30
0.0
 10
502.205433125222
 20
689.3248888764633
 30
0.0
 10
501.7434265483376
 20
689.383903249481
 30
0.0
 10
501.548882525584
 20
689.4087533146134
 30
0.0
  0
ARC
  5
235
330
1F
100
AcDbEntity
  8
0
  6
Continuous
 62
     7
370
    25
100
AcDbCircle
 10
484.9470411387
 20
692.4196304872
 30
0.0
 40
0.5000763404895359
100
AcDbArc
 50
78.3065203377
 51
86.8373700347
  0
SPLINE
  5
236
330
1F
100
AcDbEntity
  8
0
  6
Continuous
 62
     7
370
    25
100
AcDbSpline
210
0.0
220
0.0
230
1.0
 70
     8
 71
     3
 72
     9
 73
     5
 74
     0
 42
0.00000001
 43
0.00000001
 40
0.0
 40
0.0
 40
0.0
 40
0.0
 40
0.8458911907785839
 40
1.0
 40
1.0
 40
1.0
 40
1.0
 10
485.0308495292772
 20
692.7735769215004
 30
0.0
 10
485.0100089331662
 20
692.7773917284928
 30
0.0
 10
484.9853714900314
 20
692.7819015366501
 30
0.0
 10
484.9607989628551
 20
692.7836290004011
 30
0.0
 10
484.9570121199524
 20
692.7838952177829
 30
0.0
  0
LINE
  5
237
330
1F
100
AcDbEntity
  8
0
  6
Continuous
 62
     7
370
    25
100
AcDbLine
 10
466.9615919223
 20
693.8501510711
 30
0.0
 11
466.9620499421
 21
693.8501259846
 31
0.0
  0
LINE
  5
238
330
1F
100
AcDbEntity
  8
0
  6
Continuous
 62
     7
370
    25
100
AcDbLine
 10
496.8236939234
 20
708.2727690615
 30
0.0
 11
498.6624347727
 21
709.2697352972
 31
0.0
  0
LINE
  5
239
330
1F
100
AcDbEntity
  8
0
  6
Continuous
 62
     7
370
    25
100
AcDbLine
 10
499.4024591878
 20
707.4120093973
 30
0.0
 11
498.6624347727
 21
709.2697352972
 31
0.0
  0
LINE
  5
23A
330
1F
100
AcDbEntity
  8
0
  6
Continuous
 62
     7
370
    25
100
AcDbLine
 10
502.3892295146
 20
707.8911308843
 30
0.0
 11
502.5110632612
 21
709.8871113933
 31
0.0
  0
LINE
  5
23B
330
1F
100
AcDbEntity
  8
0
  6
Continuous
 62
     7
370
    25
100
AcDbLine
 10
502.5110632612
 20
709.8871113933
 30
0.0
 11
503.953970501
 21
709.678824328
 31
0.0
  0
ARC
  5
23C
330
1F
100
AcDbEntity
  8
0
  6
Continuous
 62
     7
370
    25
100
AcDbCircle
 10
493.2480503414
 20
733.2276648454
 30
0.0
 40
46.10980537323367
100
AcDbArc
 50
282.8580809319
 51
283.1066633214
  0
LINE
  5
23D
330
1F
100
AcDbEntity
  8
0
  6
Continuous
 62
     7
370
    25
100
AcDbLine
 10
503.509183301
 20
688.2740965561
 30
0.0
 11
503.954189306
 21
686.3245449898
 31
0.0
  0
ARC
  5
23E
330
1F
100
AcDbEntity
  8
0
  6
Continuous
 62
     7
370
    25
100
AcDbCircle
 10
501.9670145431
 20
700.9740584222
 30
0.0
 40
6.929946387144304
100
AcDbArc
 50
86.5070253286
 51
111.7198462835
  0
ARC
  5
23F
330
1F
100
AcDbEntity
  8
0
  6
Continuous
 62
     7
370
    25
100
AcDbCircle
 10
501.9670145431
 20
700.9740584222
 30
0.0
 40
8.929641777457059
100
AcDbArc
 50
86.5070253286
 51
111.7198462835
  0
ARC
  5
240
330
1F
100
AcDbEntity
  8
0
  6
Continuous
 62
     7
370
    25
100
AcDbCircle
 10
501.9670145431
 20
695.0302694706
 30
0.0
 40
6.92994638714442
100
AcDbArc
 50
234.8280705831
 51
282.8580809319
  0
ARC
  5
241
330
1F
100
AcDbEntity
  8
0
  6
Continuous
 62
     7
370
    25
100
AcDbCircle
 10
501.9670145431
 20
695.0302694706
 30
0.0
 40
8.929641777457071
100
AcDbArc
 50
234.8280705831
 51
282.8580809319
  0
LINE
  5
242
330
1F
100
AcDbEntity
  8
0
  6
Continuous
 62
     7
370
    25
100
AcDbLine
 10
497.9751443031
 20
689.3655427414
 30
0.0
 11
496.823255952
 21
687.730937321
 31
0.0
  0
ARC
  5
243
330
1F
100
AcDbEntity
  8
0
  6
Continuous
 62
     7
370
    25
100
AcDbCircle
 10
478.6334154145
 20
661.9183558244
 30
0.0
 40
33.57753037464034
100
AcDbArc
 50
54.8280705831
 51
55.6099480104
  0
ARC
  5
244
330
1F
100
AcDbEntity
  8
0
  6
Continuous
 62
     7
370
    25
100
AcDbCircle
 10
501.9670145431
 20
700.9740584222
 30
0.0
 40
8.999918986501237
100
AcDbArc
 50
77.1419190681
 51
125.1719294169
  0
ARC
  5
245
330
1F
100
AcDbEntity
  8
0
  6
Continuous
 62
     7
370
    25
100
AcDbCircle
 10
501.9670145431
 20
695.0302694706
 30
0.0
 40
8.999918986501145
100
AcDbArc
 50
234.8280705831
 51
282.8580809319
  0
CIRCLE
  5
246
330
1F
100
AcDbEntity
  8
0
  6
Continuous
 62
     7
370
    25
100
AcDbCircle
 10
510.0760297483
 20
698.0021639464
 30
0.0
 40
5.328914336627577
  0
CIRCLE
  5
247
330
1F
100
AcDbEntity
  8
0
  6
Continuous
 62
     7
370
    25
100
AcDbCircle
 10
510.0760297483
 20
698.0021639464
 30
0.0
 40
5.074569253689219
  0
CIRCLE
  5
248
330
1F
100
AcDbEntity
  8
0
  6
Continuous
 62
     7
370
    25
100
AcDbCircle
 10
510.0760297483
 20
698.0021639464
 30
0.0
 40
5.925127771161442
  0
CIRCLE
  5
249
330
1F
100
AcDbEntity
  8
0
  6
Continuous
 62
     7
370
    25
100
AcDbCircle
 10
510.0760297483
 20
698.0021639464
 30
0.0
 40
4.452105871057256
  0
CIRCLE
  5
24A
330
1F
100
AcDbEntity
  8
0
  6
Continuous
 62
     7
370
    25
100
AcDbCircle
 10
510.0760297483
 20
698.0021639464
 30
0.0
 40
7.149999999999977
  0
SPLINE
  5
24B
330
1F
100
AcDbEntity
  8
0
  6
Continuous
 62
     7
370
    25
100
AcDbSpline
210
0.0
220
0.0
230
1.0
 70
    24
 71
     3
 72
    10
 73
     6
 74
     0
 42
0.00000001
 43
0.00000001
 40
0.0
 40
0.0
 40
0.0
 40
0.0
 40
0.1516742927762401
 40
0.573718668931815
 40
1.0
 40
1.0
 40
1.0
 40
1.0
 10
727.6473961117533
 20
707.9244484627956
 30
0.0
 10
727.4250019796831
 20
708.3096463988466
 30
0.0
 10
726.5837805499061
 20
709.7666846556359
 30
0.0
 10
725.1318105312367
 20
712.2815704990379
 30
0.0
 10
723.9299575571292
 20
714.36324091342
 30
0.0
 10
723.3260297482839
 20
715.4092745624439
 30
0.0
  0
SPLINE
  5
24C
330
1F
100
AcDbEntity
  8
0
  6
Continuous
 62
     7
370
    25
100
AcDbSpline
210
0.0
220
0.0
230
1.0
 70
    24
 71
     3
 72
     9
 73
     5
 74
     0
 42
0.00000001
 43
0.00000001
 40
0.0
 40
0.0
 40
0.0
 40
0.0
 40
0.6197129473236728
 40
1.0
 40
1.0
 40
1.0
 40
1.0
 10
723.3260297482839
 20
680.5950533303094
 30
0.0
 10
724.1972777742387
 20
682.1040991772572
 30
0.0
 10
725.6031674360853
 20
684.5391715014114
 30
0.0
 10
727.0571563980515
 20
687.057554257181
 30
0.0
 10
727.6100895750213
 20
688.0152626128834
 30
0.0
  0
SPLINE
  5
24D
330
1F
100
AcDbEntity
  8
0
  6
Continuous
 62
     7
370
    25
100
AcDbSpline
210
0.0
220
0.0
230
1.0
 70
    24
 71
     3
 72
     9
 73
     5
 74
     0
 42
0.00000001
 43
0.00000001
 40
0.0
 40
0.0
 40
0.0
 40
0.0
 40
0.5881605129007254
 40
1.0
 40
1.0
 40
1.0
 40
1.0
 10
703.2260297482838
 20
680.5950533303094
 30
0.0
 10
704.9691528051019
 20
680.5950533303094
 30
0.0
 10
707.9328387693655
 20
680.5950533303094
 30
0.0
 10
710.9978839999771
 20
680.5950533303094
 30
0.0
 10
712.2601906556882
 20
680.5950533303094
 30
0.0
  0
SPLINE
  5
24E
330
1F
100
AcDbEntity
  8
0
  6
Continuous
 62
     7
370
    25
100
AcDbSpline
210
0.0
220
0.0
230
1.0
 70
    24
 71
     3
 72
     9
 73
     5
 74
     0
 42
0.00000001
 43
0.00000001
 40
0.0
 40
0.0
 40
0.0
 40
0.0
 40
0.4345208978429723
 40
1.0
 40
1.0
 40
1.0
 40
1.0
 10
715.0070937723909
 20
680.5950533303094
 30
0.0
 10
716.2322993176565
 20
680.5950533303094
 30
0.0
 10
719.0519693297266
 20
680.5950533303094
 30
0.0
 10
721.7821625419311
 20
680.5950533303094
 30
0.0
 10
723.3260297482839
 20
680.5950533303094
 30
0.0
  0
SPLINE
  5
24F
330
1F
100
AcDbEntity
  8
0
  6
Continuous
 62
     7
370
    25
100
AcDbSpline
210
0.0
220
0.0
230
1.0
 70
    24
 71
     3
 72
     9
 73
     5
 74
     0
 42
0.00000001
 43
0.00000001
 40
0.0
 40
0.0
 40
0.0
 40
0.0
 40
0.5290062514329625
 40
1.0
 40
1.0
 40
1.0
 40
1.0
 10
700.4930899709456
 20
685.328643878685
 30
0.0
 10
700.9823040966315
 20
684.4813001572168
 30
0.0
 10
701.9070835758167
 20
682.8795351134709
 30
0.0
 10
702.8037197265495
 20
681.3265157444988
 30
0.0
 10
703.2260297482838
 20
680.5950533303094
 30
0.0
  0
SPLINE
  5
250
330
1F
100
AcDbEntity
  8
0
  6
Continuous
 62
     7
370
    25
100
AcDbSpline
210
0.0
220
0.0
230
1.0
 70
    24
 71
     3
 72
     9
 73
     5
 74
     0
 42
0.00000001
 43
0.00000001
 40
0.0
 40
0.0
 40
0.0
 40
0.0
 40
0.9659881130670709
 40
1.0
 40
1.0
 40
1.0
 40
1.0
 10
703.2260297482838
 20
715.4092745624439
 30
0.0
 10
702.3582222845632
 20
713.906187944092
 30
0.0
 10
701.4598598182122
 20
712.3501785087592
 30
0.0
 10
700.5306400787352
 20
710.7407227085894
 30
0.0
 10
700.4990355620204
 20
710.6859820798904
 30
0.0
  0
SPLINE
  5
251
330
1F
100
AcDbEntity
  8
0
  6
Continuous
 62
     7
370
    25
100
AcDbSpline
210
0.0
220
0.0
230
1.0
 70
    24
 71
     3
 72
     9
 73
     5
 74
     0
 42
0.00000001
 43
0.00000001
 40
0.0
 40
0.0
 40
0.0
 40
0.0
 40
0.6058510256477487
 40
1.0
 40
1.0
 40
1.0
 40
1.0
 10
723.3260297482839
 20
715.4092745624439
 30
0.0
 10
721.5832582344934
 20
715.4092745624439
 30
0.0
 10
718.7066904975201
 20
715.4092745624439
 30
0.0
 10
715.7317231283622
 20
715.4092745624439
 30
0.0
 10
714.5591427910772
 20
715.4092745624439
 30
0.0
  0
SPLINE
  5
252
330
1F
100
AcDbEntity
  8
0
  6
Continuous
 62
     7
370
    25
100
AcDbSpline
210
0.0
220
0.0
230
1.0
 70
    24
 71
     3
 72
     9
 73
     5
 74
     0
 42
0.00000001
 43
0.00000001
 40
0.0
 40
0.0
 40
0.0
 40
0.0
 40
0.4538337404283768
 40
1.0
 40
1.0
 40
1.0
 40
1.0
 10
711.8427077614839
 20
715.4092745624439
 30
0.0
 10
710.5175259408342
 20
715.4092745624439
 30
0.0
 10
707.597553927738
 20
715.4092745624439
 30
0.0
 10
704.7702226802787
 20
715.4092745624439
 30
0.0
 10
703.2260297482838
 20
715.4092745624439
 30
0.0
  0
SPLINE
  5
253
330
1F
100
AcDbEntity
  8
0
  6
Continuous
 62
     7
370
    25
100
AcDbSpline
210
0.0
220
0.0
230
1.0
 70
    24
 71
     3
 72
    10
 73
     6
 74
     0
 42
0.00000001
 43
0.00000001
 40
0.0
 40
0.0
 40
0.0
 40
0.0
 40
0.1444117226198174
 40
0.5700692474338062
 40
1.0
 40
1.0
 40
1.0
 40
1.0
 10
495.7419699215465
 20
688.0152626128831
 30
0.0
 10
495.9519105774958
 20
687.6516347302045
 30
0.0
 10
496.780657091779
 20
686.2162036608704
 30
0.0
 10
498.2202303865956
 20
683.7227895730286
 30
0.0
 10
499.4220957259407
 20
681.6410977414271
 30
0.0
 10
500.0260297482838
 20
680.5950533303094
 30
0.0
  0
SPLINE
  5
254
330
1F
100
AcDbEntity
  8
0
  6
Continuous
 62
     7
370
    25
100
AcDbSpline
210
0.0
220
0.0
230
1.0
 70
    24
 71
     3
 72
     9
 73
     5
 74
     0
 42
0.00000001
 43
0.00000001
 40
0.0
 40
0.0
 40
0.0
 40
0.0
 40
0.5920686517903692
 40
1.0
 40
1.0
 40
1.0
 40
1.0
 10
500.0260297482838
 20
715.4092745624439
 30
0.0
 10
499.1545070508288
 20
713.8997529705025
 30
0.0
 10
497.6825110334423
 20
711.3501810798497
 30
0.0
 10
496.1601699100429
 20
708.7134089076706
 30
0.0
 10
495.5391592431396
 20
707.6377868805519
 30
0.0
  0
SPLINE
  5
255
330
1F
100
AcDbEntity
  8
0
  6
Continuous
 62
     7
370
    25
100
AcDbSpline
210
0.0
220
0.0
230
1.0
 70
    24
 71
     3
 72
     9
 73
     5
 74
     0
 42
0.00000001
 43
0.00000001
 40
0.0
 40
0.0
 40
0.0
 40
0.0
 40
0.6162682864357912
 40
1.0
 40
1.0
 40
1.0
 40
1.0
 10
520.1260297482838
 20
715.4092745624439
 30
0.0
 10
518.3834652446263
 20
715.4092745624439
 30
0.0
 10
515.5558582721246
 20
715.4092745624439
 30
0.0
 10
512.6315149927342
 20
715.4092745624439
 30
0.0
 10
511.5093517350837
 20
715.4092745624439
 30
0.0
  0
SPLINE
  5
256
330
1F
100
AcDbEntity
  8
0
  6
Continuous
 62
     7
370
    25
100
AcDbSpline
210
0.0
220
0.0
230
1.0
 70
    24
 71
     3
 72
     9
 73
     5
 74
     0
 42
0.00000001
 43
0.00000001
 40
0.0
 40
0.0
 40
0.0
 40
0.0
 40
0.4630847895199843
 40
1.0
 40
1.0
 40
1.0
 40
1.0
 10
508.7929167054905
 20
715.4092745624439
 30
0.0
 10
507.4172891959539
 20
715.4092745624439
 30
0.0
 10
504.4467154680572
 20
715.4092745624439
 30
0.0
 10
501.5703787061921
 20
715.4092745624439
 30
0.0
 10
500.0260297482838
 20
715.4092745624439
 30
0.0
  0
SPLINE
  5
257
330
1F
100
AcDbEntity
  8
0
  6
Continuous
 62
     7
370
    25
100
AcDbSpline
210
0.0
220
0.0
230
1.0
 70
    24
 71
     3
 72
     9
 73
     5
 74
     0
 42
0.00000001
 43
0.00000001
 40
0.0
 40
0.0
 40
0.0
 40
0.0
 40
0.5286328760408042
 40
1.0
 40
1.0
 40
1.0
 40
1.0
 10
522.8567837327694
 20
710.6794699183437
 30
0.0
 10
522.368303985849
 20
711.5255416584781
 30
0.0
 10
521.4442605351675
 20
713.1260318634598
 30
0.0
 10
520.5483381202799
 20
714.6778150056848
 30
0.0
 10
520.1260297482838
 20
715.4092745624439
 30
0.0
  0
SPLINE
  5
258
330
1F
100
AcDbEntity
  8
0
  6
Continuous
 62
     7
370
    25
100
AcDbSpline
210
0.0
220
0.0
230
1.0
 70
    24
 71
     3
 72
     9
 73
     5
 74
     0
 42
0.00000001
 43
0.00000001
 40
0.0
 40
0.0
 40
0.0
 40
0.0
 40
0.9651475940341748
 40
1.0
 40
1.0
 40
1.0
 40
1.0
 10
520.1260297482838
 20
680.5950533303094
 30
0.0
 10
520.9938455633342
 20
682.0981544135882
 30
0.0
 10
521.8929990403925
 20
683.6555339196555
 30
0.0
 10
522.8230366632804
 20
685.2664063354479
 30
0.0
 10
522.8554507120767
 20
685.3225491148422
 30
0.0
  0
SPLINE
  5
259
330
1F
100
AcDbEntity
  8
0
  6
Continuous
 62
     7
370
    25
100
AcDbSpline
210
0.0
220
0.0
230
1.0
 70
    24
 71
     3
 72
     9
 73
     5
 74
     0
 42
0.00000001
 43
0.00000001
 40
0.0
 40
0.0
 40
0.0
 40
0.0
 40
0.6380134089095435
 40
1.0
 40
1.0
 40
1.0
 40
1.0
 10
500.0260297482838
 20
680.5950533303094
 30
0.0
 10
501.7681621363607
 20
680.5950533303094
 30
0.0
 10
504.4987197762924
 20
680.5950533303094
 30
0.0
 10
507.3227167033142
 20
680.5950533303094
 30
0.0
 10
508.3449657241767
 20
680.5950533303094
 30
0.0
  0
SPLINE
  5
25A
330
1F
100
AcDbEntity
  8
0
  6
Continuous
 62
     7
370
    25
100
AcDbSpline
210
0.0
220
0.0
230
1.0
 70
    24
 71
     3
 72
     9
 73
     5
 74
     0
 42
0.00000001
 43
0.00000001
 40
0.0
 40
0.0
 40
0.0
 40
0.0
 40
0.4787933681683263
 40
1.0
 40
1.0
 40
1.0
 40
1.0
 10
511.0918688408796
 20
680.5950533303094
 30
0.0
 10
512.5572694620066
 20
680.5950533303094
 30
0.0
 10
515.6178812385091
 20
680.5950533303094
 30
0.0
 10
518.5814158533605
 20
680.5950533303094
 30
0.0
 10
520.1260297482838
 20
680.5950533303094
 30
0.0
  0
ARC
  5
25B
330
1F
100
AcDbEntity
  8
0
  6
Continuous
 62
     7
370
    25
100
AcDbCircle
 10
713.2760297483
 20
698.0021639464
 30
0.0
 40
25.80000000000007
100
AcDbArc
 50
207.7177476896
 51
270.0
  0
ARC
  5
25C
330
1F
100
AcDbEntity
  8
0
  6
Continuous
 62
     7
370
    25
100
AcDbCircle
 10
713.2760297483
 20
698.0021639464
 30
0.0
 40
25.79999999999993
100
AcDbArc
 50
12.355358281
 51
152.2822523104
  0
ARC
  5
25D
330
1F
100
AcDbEntity
  8
0
  6
Continuous
 62
     7
370
    25
100
AcDbCircle
 10
713.2760297483
 20
698.0021639464
 30
0.0
 40
25.80000000000015
100
AcDbArc
 50
270.0
 51
348.632283567
  0
ARC
  5
25E
330
1F
100
AcDbEntity
  8
0
  6
Continuous
 62
     7
370
    25
100
AcDbCircle
 10
510.0760297483
 20
698.0021639464
 30
0.0
 40
25.79999999999998
100
AcDbArc
 50
27.7177476896
 51
90.0
  0
ARC
  5
25F
330
1F
100
AcDbEntity
  8
0
  6
Continuous
 62
     7
370
    25
100
AcDbCircle
 10
510.0760297483
 20
698.0021639464
 30
0.0
 40
25.80000000000003
100
AcDbArc
 50
191.8273896223
 51
332.2822523104
  0
ARC
  5
260
330
1F
100
AcDbEntity
  8
0
  6
Continuous
 62
     7
370
    25
100
AcDbCircle
 10
510.0760297483
 20
698.0021639464
 30
0.0
 40
25.8
100
AcDbArc
 50
90.0
 51
168.1084633881
  0
ARC
  5
261
330
1F
100
AcDbEntity
  8
0
  6
Continuous
 62
     7
370
    25
100
AcDbCircle
 10
510.0760297483
 20
698.0021639464
 30
0.0
 40
10.3000000000001
100
AcDbArc
 50
292.7308609266
 51
307.2691390734
  0
SPLINE
  5
262
330
1F
100
AcDbEntity
  8
0
  6
Continuous
 62
     7
370
    25
100
AcDbSpline
210
0.0
220
0.0
230
1.0
 70
    24
 71
     3
 72
    10
 73
     6
 74
     0
 42
0.00000001
 43
0.00000001
 40
0.0
 40
0.0
 40
0.0
 40
0.0
 40
0.0753950068353775
 40
0.6651401158242182
 40
1.0
 40
1.0
 40
1.0
 40
1.0
 10
514.0559794967103
 20
688.5021639463765
 30
0.0
 10
513.9807680308409
 20
688.5021639463765
 30
0.0
 10
513.3172471264799
 20
688.5021639463765
 30
0.0
 10
512.2914988943028
 20
688.5021639463765
 30
0.0
 10
511.308797368536
 20
688.5021639463765
 30
0.0
 10
510.9528969337228
 20
688.5021639463765
 30
0.0
  0
SPLINE
  5
263
330
1F
100
AcDbEntity
  8
0
  6
Continuous
 62
     7
370
    25
100
AcDbSpline
210
0.0
220
0.0
230
1.0
 70
    24
 71
     3
 72
    10
 73
     6
 74
     0
 42
0.00000001
 43
0.00000001
 40
0.0
 40
0.0
 40
0.0
 40
0.0
 40
0.3848035719694788
 40
0.9302662133992883
 40
1.0
 40
1.0
 40
1.0
 40
1.0
 10
510.695134169436
 20
707.5021639463765
 30
0.0
 10
511.1375558661614
 20
707.5021639463765
 30
0.0
 10
512.2071144319304
 20
707.5021639463765
 30
0.0
 10
513.3172778283529
 20
707.5021639463765
 30
0.0
 10
513.9807711566452
 20
707.5021639463765
 30
0.0
 10
514.0559794967103
 20
707.5021639463765
 30
0.0
  0
ARC
  5
264
330
1F
100
AcDbEntity
  8
0
  6
Continuous
 62
     7
370
    25
100
AcDbCircle
 10
510.0760297483
 20
698.0021639464
 30
0.0
 40
10.29999999999999
100
AcDbArc
 50
52.7308609266
 51
67.2691390734
  0
SPLINE
  5
265
330
1F
100
AcDbEntity
  8
0
  6
Continuous
 62
     7
370
    25
100
AcDbSpline
210
0.0
220
0.0
230
1.0
 70
    24
 71
     3
 72
    11
 73
     7
 74
     0
 42
0.00000001
 43
0.00000001
 40
0.0
 40
0.0
 40
0.0
 40
0.0
 40
0.2431641197380913
 40
0.4936284730588932
 40
0.7421706076863291
 40
1.0
 40
1.0
 40
1.0
 40
1.0
 10
516.3132962100227
 20
706.1989015342995
 30
0.0
 10
516.6270552117195
 20
705.6554550020285
 30
0.0
 10
517.2639928367394
 20
704.5522466742418
 30
0.0
 10
518.274381805746
 20
702.8022016445152
 30
0.0
 10
519.306088933582
 20
701.0152324805723
 30
0.0
 10
519.9601946764802
 20
699.88228810035
 30
0.0
 10
520.2932459584492
 20
699.3054263584537
 30
0.0
  0
ARC
  5
266
330
1F
100
AcDbEntity
  8
0
  6
Continuous
 62
     7
370
    25
100
AcDbCircle
 10
510.0760297483
 20
698.0021639464
 30
0.0
 40
10.3
100
AcDbArc
 50
352.7308609266
 51
7.2691390734
  0
SPLINE
  5
267
330
1F
100
AcDbEntity
  8
0
  6
Continuous
 62
     7
370
    25
100
AcDbSpline
210
0.0
220
0.0
230
1.0
 70
    24
 71
     3
 72
    11
 73
     7
 74
     0
 42
0.00000001
 43
0.00000001
 40
0.0
 40
0.0
 40
0.0
 40
0.0
 40
0.2431641197380911
 40
0.493628473058894
 40
0.742170607686329
 40
1.0
 40
1.0
 40
1.0
 40
1.0
 10
520.2932459584491
 20
696.6989015342994
 30
0.0
 10
519.9794869567525
 20
696.1554550020286
 30
0.0
 10
519.3425493317325
 20
695.0522466742417
 30
0.0
 10
518.3321603627259
 20
693.3022016445152
 30
0.0
 10
517.3004532348899
 20
691.5152324805723
 30
0.0
 10
516.6463474919918
 20
690.38228810035
 30
0.0
 10
516.3132962100227
 20
689.8054263584538
 30
0.0
  0
SPLINE
  5
268
330
1F
100
AcDbEntity
  8
0
  6
Continuous
 62
     7
370
    25
100
AcDbSpline
210
0.0
220
0.0
230
1.0
 70
    24
 71
     3
 72
    10
 73
     6
 74
     0
 42
0.00000001
 43
0.00000001
 40
0.0
 40
0.0
 40
0.0
 40
0.0
 40
0.4603886900857901
 40
0.9416813162295673
 40
1.0
 40
1.0
 40
1.0
 40
1.0
 10
713.2665676763195
 20
688.5021639463765
 30
0.0
 10
712.6423921413468
 20
688.5021639463765
 30
0.0
 10
711.3657003980685
 20
688.5021639463765
 30
0.0
 10
710.0551341671259
 20
688.5021639463765
 30
0.0
 10
709.3701138172158
 20
688.5021639463765
 30
0.0
 10
709.2960799998573
 20
688.5021639463765
 30
0.0
  0
ARC
  5
269
330
1F
100
AcDbEntity
  8
0
  6
Continuous
 62
     7
370
    25
100
AcDbCircle
 10
713.2760297483
 20
698.0021639464
 30
0.0
 40
10.30000000000012
100
AcDbArc
 50
232.7308609266
 51
247.2691390734
  0
SPLINE
  5
26A
330
1F
100
AcDbEntity
  8
0
  6
Continuous
 62
     7
370
    25
100
AcDbSpline
210
0.0
220
0.0
230
1.0
 70
    24
 71
     3
 72
    11
 73
     7
 74
     0
 42
0.00000001
 43
0.00000001
 40
0.0
 40
0.0
 40
0.0
 40
0.0
 40
0.2431641197380911
 40
0.4936284730588937
 40
0.7421706076863289
 40
1.0
 40
1.0
 40
1.0
 40
1.0
 10
707.038763286545
 20
689.8054263584538
 30
0.0
 10
706.7250042848482
 20
690.3488728907246
 30
0.0
 10
706.0880666598283
 20
691.4520812185115
 30
0.0
 10
705.0776776908216
 20
693.202126248238
 30
0.0
 10
704.0459705629856
 20
694.9890954121807
 30
0.0
 10
703.3918648200874
 20
696.1220397924031
 30
0.0
 10
703.0588135381184
 20
696.6989015342994
 30
0.0
  0
ARC
  5
26B
330
1F
100
AcDbEntity
  8
0
  6
Continuous
 62
     7
370
    25
100
AcDbCircle
 10
713.2760297483
 20
698.0021639464
 30
0.0
 40
10.29999999999997
100
AcDbArc
 50
172.7308609266
 51
187.2691390734
  0
SPLINE
  5
26C
330
1F
100
AcDbEntity
  8
0
  6
Continuous
 62
     7
370
    25
100
AcDbSpline
210
0.0
220
0.0
230
1.0
 70
    24
 71
     3
 72
    11
 73
     7
 74
     0
 42
0.00000001
 43
0.00000001
 40
0.0
 40
0.0
 40
0.0
 40
0.0
 40
0.2431641197380909
 40
0.4936284730588934
 40
0.7421706076863288
 40
1.0
 40
1.0
 40
1.0
 40
1.0
 10
703.0588135381184
 20
699.3054263584537
 30
0.0
 10
703.3725725398152
 20
699.8488728907246
 30
0.0
 10
704.0095101648352
 20
700.9520812185114
 30
0.0
 10
705.0198991338417
 20
702.702126248238
 30
0.0
 10
706.0516062616778
 20
704.4890954121809
 30
0.0
 10
706.705712004576
 20
705.6220397924031
 30
0.0
 10
707.038763286545
 20
706.1989015342994
 30
0.0
  0
ARC
  5
26D
330
1F
100
AcDbEntity
  8
0
  6
Continuous
 62
     7
370
    25
100
AcDbCircle
 10
713.2760297483
 20
698.0021639464
 30
0.0
 40
10.29999999999991
100
AcDbArc
 50
112.7308609266
 51
127.2691390734
  0
SPLINE
  5
26E
330
1F
100
AcDbEntity
  8
0
  6
Continuous
 62
     7
370
    25
100
AcDbSpline
210
0.0
220
0.0
230
1.0
 70
    24
 71
     3
 72
    10
 73
     6
 74
     0
 42
0.00000001
 43
0.00000001
 40
0.0
 40
0.0
 40
0.0
 40
0.0
 40
0.0993746184585311
 40
0.9194937980719894
 40
1.0
 40
1.0
 40
1.0
 40
1.0
 10
709.2960799998573
 20
707.5021639463765
 30
0.0
 10
709.3701376150696
 20
707.5021639463765
 30
0.0
 10
710.0553781618385
 20
707.5021639463765
 30
0.0
 10
710.8180850384493
 20
707.5021639463765
 30
0.0
 10
711.531553583143
 20
707.5021639463765
 30
0.0
 10
711.5953299810833
 20
707.5021639463765
 30
0.0
  0
ARC
  5
26F
330
1F
100
AcDbEntity
  8
0
  6
Continuous
 62
     7
370
    25
100
AcDbCircle
 10
510.0760297483
 20
698.0021639464
 30
0.0
 40
10.57500000000004
100
AcDbArc
 50
261.6509017607
 51
30.0
  0
ARC
  5
270
330
1F
100
AcDbEntity
  8
0
  6
Continuous
 62
     7
370
    25
100
AcDbCircle
 10
510.0760297483
 20
698.0021639464
 30
0.0
 40
10.57499999999995
100
AcDbArc
 50
30.0
 51
98.3490982393
  0
ARC
  5
271
330
1F
100
AcDbEntity
  8
0
  6
Continuous
 62
     7
370
    25
100
AcDbCircle
 10
510.0760297483
 20
698.0021639464
 30
0.0
 40
14.87500000000008
100
AcDbArc
 50
233.3837470415
 51
30.0
  0
ARC
  5
272
330
1F
100
AcDbEntity
  8
0
  6
Continuous
 62
     7
370
    25
100
AcDbCircle
 10
510.0760297483
 20
698.0021639464
 30
0.0
 40
14.87499999999994
100
AcDbArc
 50
30.0
 51
126.6162529585
  0
ARC
  5
273
330
1F
100
AcDbEntity
  8
0
  6
Continuous
 62
     7
370
    25
100
AcDbCircle
 10
510.0760297483
 20
698.0021639464
 30
0.0
 40
16.2
100
AcDbArc
 50
223.9250761661
 51
136.0749238339
  0
SPLINE
  5
274
330
1F
100
AcDbEntity
  8
0
  6
Continuous
 62
     7
370
    25
100
AcDbSpline
210
0.0
220
0.0
230
1.0
 70
     8
 71
     3
 72
     9
 73
     5
 74
     0
 42
0.00000001
 43
0.00000001
 40
0.0
 40
0.0
 40
0.0
 40
0.0
 40
0.5850553834534097
 40
1.0
 40
1.0
 40
1.0
 40
1.0
 10
498.949619100369
 20
684.7736724944405
 30
0.0
 10
499.2093940201779
 20
684.3871259688763
 30
0.0
 10
499.6534116758663
 20
683.7264252275511
 30
0.0
 10
500.325262867899
 20
683.248266395425
 30
0.0
 10
500.6040439031535
 20
683.0498569621801
 30
0.0
  0
LINE
  5
275
330
1F
100
AcDbEntity
  8
0
  6
Continuous
 62
     7
370
    25
100
AcDbLine
 10
497.444293821
 20
687.3809723602
 30
0.0
 11
498.9496191004
 21
684.7736724944
 31
0.0
  0
SPLINE
  5
276
330
1F
100
AcDbEntity
  8
0
  6
Continuous
 62
     7
370
    25
100
AcDbSpline
210
0.0
220
0.0
230
1.0
 70
    24
 71
     3
 72
     9
 73
     5
 74
     0
 42
0.00000001
 43
0.00000001
 40
0.0
 40
0.0
 40
0.0
 40
0.0
 40
0.9286188355902005
 40
1.0
 40
1.0
 40
1.0
 40
1.0
 10
498.9496191003698
 20
711.2306553983142
 30
0.0
 10
498.5056578802276
 20
710.4616920084377
 30
0.0
 10
498.0275702051483
 20
709.6336198647277
 30
0.0
 10
497.528090099346
 20
708.7684949441083
 30
0.0
 10
497.4924366277943
 20
708.7067413199146
 30
0.0
  0
SPLINE
  5
277
330
1F
100
AcDbEntity
  8
0
  6
Continuous
 62
     7
370
    25
100
AcDbSpline
210
0.0
220
0.0
230
1.0
 70
     8
 71
     3
 72
     9
 73
     5
 74
     0
 42
0.00000001
 43
0.00000001
 40
0.0
 40
0.0
 40
0.0
 40
0.0
 40
0.584191749740925
 40
1.0
 40
1.0
 40
1.0
 40
1.0
 10
500.6040439031535
 20
712.954470930573
 30
0.0
 10
500.216387637703
 20
712.6651950270734
 30
0.0
 10
499.5528105405897
 20
712.1700221602398
 30
0.0
 10
499.1267701921813
 20
711.5065377076286
 30
0.0
 10
498.9496191003698
 20
711.2306553983142
 30
0.0
  0
ARC
  5
278
330
1F
100
AcDbEntity
  8
0
  6
Continuous
 62
     7
370
    25
100
AcDbCircle
 10
510.0760297483
 20
698.0021639464
 30
0.0
 40
17.69999999999996
100
AcDbArc
 50
117.6465635726
 51
122.3534364274
  0
SPLINE
  5
279
330
1F
100
AcDbEntity
  8
0
  6
Continuous
 62
     7
370
    25
100
AcDbSpline
210
0.0
220
0.0
230
1.0
 70
     8
 71
     3
 72
     9
 73
     5
 74
     0
 42
0.00000001
 43
0.00000001
 40
0.0
 40
0.0
 40
0.0
 40
0.0
 40
0.5850553834536162
 40
1.0
 40
1.0
 40
1.0
 40
1.0
 10
504.1830254211176
 20
714.2521639463766
 30
0.0
 10
503.7183788503302
 20
714.220465529338
 30
0.0
 10
502.9241863961997
 20
714.1662853304454
 30
0.0
 10
502.1741631045187
 20
713.8235245466453
 30
0.0
 10
501.8629449773513
 20
713.6812978046443
 30
0.0
  0
SPLINE
  5
27A
330
1F
100
AcDbEntity
  8
0
  6
Continuous
 62
     7
370
    25
100
AcDbSpline
210
0.0
220
0.0
230
1.0
 70
    24
 71
     3
 72
    11
 73
     7
 74
     0
 42
0.00000001
 43
0.00000001
 40
0.0
 40
0.0
 40
0.0
 40
0.0
 40
0.2328716322111479
 40
0.4710265024313248
 40
0.7311421212560302
 40
0.9999999999999999
 40
0.9999999999999999
 40
0.9999999999999999
 40
0.9999999999999999
 10
515.96903407545
 20
714.2521639463766
 30
0.0
 10
515.0751776451297
 20
714.2521639463766
 30
0.0
 10
513.2671855593103
 20
714.2521639463766
 30
0.0
 10
510.3395128187473
 20
714.2521639463766
 30
0.0
 10
507.2524139082694
 20
714.2521639463766
 30
0.0
 10
505.2173658872832
 20
714.2521639463766
 30
0.0
 10
504.1830254211176
 20
714.2521639463766
 30
0.0
  0
SPLINE
  5
27B
330
1F
100
AcDbEntity
  8
0
  6
Continuous
 62
     7
370
    25
100
AcDbSpline
210
0.0
220
0.0
230
1.0
 70
     8
 71
     3
 72
     9
 73
     5
 74
     0
 42
0.00000001
 43
0.00000001
 40
0.0
 40
0.0
 40
0.0
 40
0.0
 40
0.5841917497409234
 40
1.0
 40
1.0
 40
1.0
 40
1.0
 10
518.2891145192164
 20
713.6812978046443
 30
0.0
 10
517.8447661053576
 20
713.8723800267109
 30
0.0
 10
517.0841452748583
 20
714.1994682167636
 30
0.0
 10
516.2965307096767
 20
714.2366877552168
 30
0.0
 10
515.96903407545
 20
714.2521639463766
 30
0.0
  0
ARC
  5
27C
330
1F
100
AcDbEntity
  8
0
  6
Continuous
 62
     7
370
    25
100
AcDbCircle
 10
510.0760297483
 20
698.0021639464
 30
0.0
 40
17.69999999999995
100
AcDbArc
 50
57.6465635726
 51
62.3534364274
  0
SPLINE
  5
27D
330
1F
100
AcDbEntity
  8
0
  6
Continuous
 62
     7
370
    25
100
AcDbSpline
210
0.0
220
0.0
230
1.0
 70
     8
 71
     3
 72
     9
 73
     5
 74
     0
 42
0.00000001
 43
0.00000001
 40
0.0
 40
0.0
 40
0.0
 40
0.0
 40
0.5850553834536193
 40
1.0
 40
1.0
 40
1.0
 40
1.0
 10
521.2024403961977
 20
711.2306553983142
 30
0.0
 10
520.9426654763889
 20
711.617201923878
 30
0.0
 10
520.4986478207006
 20
712.2779026652026
 30
0.0
 10
519.8267966286683
 20
712.7560614973283
 30
0.0
 10
519.5480155934141
 20
712.954470930573
 30
0.0
  0
SPLINE
  5
27E
330
1F
100
AcDbEntity
  8
0
  6
Continuous
 62
     7
370
    25
100
AcDbSpline
210
0.0
220
0.0
230
1.0
 70
    24
 71
     3
 72
    11
 73
     7
 74
     0
 42
0.00000001
 43
0.00000001
 40
0.0
 40
0.0
 40
0.0
 40
0.0
 40
0.2556279644380972
 40
0.5185037642963867
 40
0.7560467972580103
 40
1.0
 40
1.0
 40
1.0
 40
1.0
 10
527.095444723364
 20
701.023672494439
 30
0.0
 10
526.6041516450958
 20
701.8746170674063
 30
0.0
 10
525.6076358256519
 20
703.6006330972295
 30
0.0
 10
524.0874249191987
 20
706.2337156254268
 30
0.0
 10
522.5957091976505
 20
708.8174430455975
 30
0.0
 10
521.670967034144
 20
710.4191434566919
 30
0.0
 10
521.2024403961977
 20
711.2306553983142
 30
0.0
  0
SPLINE
  5
27F
330
1F
100
AcDbEntity
  8
0
  6
Continuous
 62
     7
370
    25
100
AcDbSpline
210
0.0
220
0.0
230
1.0
 70
     8
 71
     3
 72
     9
 73
     5
 74
     0
 42
0.00000001
 43
0.00000001
 40
0.0
 40
0.0
 40
0.0
 40
0.0
 40
0.5841917497409242
 40
1.0
 40
1.0
 40
1.0
 40
1.0
 10
527.7611003643467
 20
698.7289908204478
 30
0.0
 10
527.7044082159384
 20
699.2093489460141
 30
0.0
 10
527.6073644825524
 20
700.0316100029004
 30
0.0
 10
527.2457902657793
 20
700.7323139939649
 30
0.0
 10
527.095444723364
 20
701.023672494439
 30
0.0
  0
ARC
  5
280
330
1F
100
AcDbEntity
  8
0
  6
Continuous
 62
     7
370
    25
100
AcDbCircle
 10
510.0760297483
 20
698.0021639464
 30
0.0
 40
17.70000000000009
100
AcDbArc
 50
357.6465635726
 51
2.3534364274
  0
SPLINE
  5
281
330
1F
100
AcDbEntity
  8
0
  6
Continuous
 62
     7
370
    25
100
AcDbSpline
210
0.0
220
0.0
230
1.0
 70
     8
 71
     3
 72
     9
 73
     5
 74
     0
 42
0.00000001
 43
0.00000001
 40
0.0
 40
0.0
 40
0.0
 40
0.0
 40
0.5850553834536182
 40
0.9999999999999999
 40
0.9999999999999999
 40
0.9999999999999999
 40
0.9999999999999999
 10
527.095444723364
 20
694.9806553983142
 30
0.0
 10
527.3003163743425
 20
695.3989003409167
 30
0.0
 10
527.6504911727848
 20
696.1137812811339
 30
0.0
 10
527.7286632724333
 20
696.9347008970597
 30
0.0
 10
527.7611003643467
 20
697.2753370723053
 30
0.0
  0
SPLINE
  5
282
330
1F
100
AcDbEntity
  8
0
  6
Continuous
 62
     7
370
    25
100
AcDbSpline
210
0.0
220
0.0
230
1.0
 70
    24
 71
     3
 72
    11
 73
     7
 74
     0
 42
0.00000001
 43
0.00000001
 40
0.0
 40
0.0
 40
0.0
 40
0.0
 40
0.2328716322111471
 40
0.471026502431323
 40
0.7311421212560296
 40
1.0
 40
1.0
 40
1.0
 40
1.0
 10
521.2024403961977
 20
684.773672494439
 30
0.0
 10
521.649368611358
 20
685.5477748704326
 30
0.0
 10
522.5533646542677
 20
687.1135419465933
 30
0.0
 10
524.0172010245492
 20
689.6489809138881
 30
0.0
 10
525.5607504797881
 20
692.3224869943572
 30
0.0
 10
526.5782744902813
 20
694.0848902784525
 30
0.0
 10
527.095444723364
 20
694.9806553983142
 30
0.0
  0
SPLINE
  5
283
330
1F
100
AcDbEntity
  8
0
  6
Continuous
 62
     7
370
    25
100
AcDbSpline
210
0.0
220
0.0
230
1.0
 70
     8
 71
     3
 72
     9
 73
     5
 74
     0
 42
0.00000001
 43
0.00000001
 40
0.0
 40
0.0
 40
0.0
 40
0.0
 40
0.5841917497409237
 40
1.0
 40
1.0
 40
1.0
 40
1.0
 10
519.5480155934141
 20
683.0498569621801
 30
0.0
 10
519.9356718588647
 20
683.3391328656799
 30
0.0
 10
520.5992489559778
 20
683.8343057325134
 30
0.0
 10
521.0252893043863
 20
684.4977901851246
 30
0.0
 10
521.2024403961977
 20
684.773672494439
 30
0.0
  0
ARC
  5
284
330
1F
100
AcDbEntity
  8
0
  6
Continuous
 62
     7
370
    25
100
AcDbCircle
 10
510.0760297483
 20
698.0021639464
 30
0.0
 40
17.70000000000005
100
AcDbArc
 50
297.6465635726
 51
302.3534364274
  0
SPLINE
  5
285
330
1F
100
AcDbEntity
  8
0
  6
Continuous
 62
     7
370
    25
100
AcDbSpline
210
0.0
220
0.0
230
1.0
 70
     8
 71
     3
 72
     9
 73
     5
 74
     0
 42
0.00000001
 43
0.00000001
 40
0.0
 40
0.0
 40
0.0
 40
0.0
 40
0.5850553834536171
 40
1.0
 40
1.0
 40
1.0
 40
1.0
 10
515.96903407545
 20
681.7521639463766
 30
0.0
 10
516.4336806462373
 20
681.7838623634152
 30
0.0
 10
517.2278731003679
 20
681.8380425623077
 30
0.0
 10
517.9778963920488
 20
682.1808033461078
 30
0.0
 10
518.2891145192162
 20
682.3230300881089
 30
0.0
  0
SPLINE
  5
286
330
1F
100
AcDbEntity
  8
0
  6
Continuous
 62
     7
370
    25
100
AcDbSpline
210
0.0
220
0.0
230
1.0
 70
    24
 71
     3
 72
    11
 73
     7
 74
     0
 42
0.00000001
 43
0.00000001
 40
0.0
 40
0.0
 40
0.0
 40
0.0
 40
0.2328716322111485
 40
0.471026502431326
 40
0.7311421212560308
 40
1.0
 40
1.0
 40
1.0
 40
1.0
 10
504.1830254211176
 20
681.7521639463766
 30
0.0
 10
505.0768818514381
 20
681.7521639463766
 30
0.0
 10
506.8848739372573
 20
681.7521639463766
 30
0.0
 10
509.8125466778203
 20
681.7521639463766
 30
0.0
 10
512.8996455882983
 20
681.7521639463766
 30
0.0
 10
514.9346936092844
 20
681.7521639463766
 30
0.0
 10
515.96903407545
 20
681.7521639463766
 30
0.0
  0
SPLINE
  5
287
330
1F
100
AcDbEntity
  8
0
  6
Continuous
 62
     7
370
    25
100
AcDbSpline
210
0.0
220
0.0
230
1.0
 70
     8
 71
     3
 72
     9
 73
     5
 74
     0
 42
0.00000001
 43
0.00000001
 40
0.0
 40
0.0
 40
0.0
 40
0.0
 40
0.5841917497409266
 40
1.0
 40
1.0
 40
1.0
 40
1.0
 10
501.8629449773513
 20
682.3230300881089
 30
0.0
 10
502.3072933912101
 20
682.1319478660423
 30
0.0
 10
503.0679142217093
 20
681.8048596759896
 30
0.0
 10
503.8555287868909
 20
681.7676401375363
 30
0.0
 10
504.1830254211176
 20
681.7521639463766
 30
0.0
  0
ARC
  5
288
330
1F
100
AcDbEntity
  8
0
  6
Continuous
 62
     7
370
    25
100
AcDbCircle
 10
510.0760297483
 20
698.0021639464
 30
0.0
 40
17.70000000000005
100
AcDbArc
 50
237.6465635726
 51
242.3534364274
  0
LINE
  5
289
330
1F
100
AcDbEntity
  8
0
  6
Continuous
 62
     7
370
    25
100
AcDbLine
 10
704.8322820614
 20
693.1271639464
 30
0.0
 11
704.2464801111
 21
694.3238853614
 31
0.0
  0
LINE
  5
28A
330
1F
100
AcDbEntity
  8
0
  6
Continuous
 62
     7
370
    25
100
AcDbLine
 10
704.1718543848
 20
701.4916468524
 30
0.0
 11
704.2771396001
 21
701.7548264813
 31
0.0
  0
LWPOLYLINE
  5
28B
330
1F
100
AcDbEntity
  8
0
  6
Continuous
 62
     7
370
    25
100
AcDbPolyline
 90
        3
 70
   128
 43
0.0
 10
706.0996777155
 20
691.4019767141
 10
705.9074713983
 20
691.6172717904
 10
704.8322820614
 20
693.1271639464
  0
ARC
  5
28C
330
1F
100
AcDbEntity
  8
0
  6
Continuous
 62
     7
370
    25
100
AcDbCircle
 10
713.2760297483
 20
698.0021639464
 30
0.0
 40
14.87500000000013
100
AcDbArc
 50
55.1611835908
 51
308.4167037132
  0
ARC
  5
28D
330
1F
100
AcDbEntity
  8
0
  6
Continuous
 62
     7
370
    25
100
AcDbCircle
 10
713.2760297483
 20
698.0021639464
 30
0.0
 40
10.57500000000009
100
AcDbArc
 50
84.5490172093
 51
281.0490866707
  0
ARC
  5
28E
330
1F
100
AcDbEntity
  8
0
  6
Continuous
 62
     7
370
    25
100
AcDbCircle
 10
713.2760297483
 20
698.0021639464
 30
0.0
 40
16.20000000000009
100
AcDbArc
 50
210.0
 51
318.1420914366
  0
ARC
  5
28F
330
1F
100
AcDbEntity
  8
0
  6
Continuous
 62
     7
370
    25
100
AcDbCircle
 10
713.2760297483
 20
698.0021639464
 30
0.0
 40
16.19999999999999
100
AcDbArc
 50
45.9729863763
 51
210.0
  0
SPLINE
  5
290
330
1F
100
AcDbEntity
  8
0
  6
Continuous
 62
     7
370
    25
100
AcDbSpline
210
0.0
220
0.0
230
1.0
 70
     8
 71
     3
 72
     9
 73
     5
 74
     0
 42
0.00000001
 43
0.00000001
 40
0.0
 40
0.0
 40
0.0
 40
0.0
 40
0.5850553834534097
 40
1.0
 40
1.0
 40
1.0
 40
1.0
 10
702.1496191003691
 20
684.7736724944405
 30
0.0
 10
702.4093940201778
 20
684.3871259688763
 30
0.0
 10
702.8534116758663
 20
683.7264252275511
 30
0.0
 10
703.5252628678991
 20
683.248266395425
 30
0.0
 10
703.8040439031536
 20
683.0498569621801
 30
0.0
  0
SPLINE
  5
291
330
1F
100
AcDbEntity
  8
0
  6
Continuous
 62
     7
370
    25
100
AcDbSpline
210
0.0
220
0.0
230
1.0
 70
    24
 71
     3
 72
    11
 73
     7
 74
     0
 42
0.00000001
 43
0.00000001
 40
0.0
 40
0.0
 40
0.0
 40
0.0
 40
0.2379053903768482
 40
0.4814905141303176
 40
0.7366519444348056
 40
0.9999999999999999
 40
0.9999999999999999
 40
0.9999999999999999
 40
0.9999999999999999
 10
696.2566147732034
 20
694.9806553983144
 30
0.0
 10
696.7133468839787
 20
694.1895721770035
 30
0.0
 10
697.6377150897123
 20
692.5885194797718
 30
0.0
 10
699.114041182232
 20
690.0314476789879
 30
0.0
 10
700.6461745666954
 20
687.3777148131248
 30
0.0
 10
701.6432235313418
 20
685.6507753487231
 30
0.0
 10
702.1496191003691
 20
684.7736724944405
 30
0.0
  0
SPLINE
  5
292
330
1F
100
AcDbEntity
  8
0
  6
Continuous
 62
     7
370
    25
100
AcDbSpline
210
0.0
220
0.0
230
1.0
 70
     8
 71
     3
 72
     9
 73
     5
 74
     0
 42
0.00000001
 43
0.00000001
 40
0.0
 40
0.0
 40
0.0
 40
0.0
 40
0.5841917497409942
 40
1.0
 40
1.0
 40
1.0
 40
1.0
 10
695.590959132221
 20
697.2753370723053
 30
0.0
 10
695.6476512806292
 20
696.7949789467391
 30
0.0
 10
695.7446950140153
 20
695.9727178898528
 30
0.0
 10
696.1062692307884
 20
695.2720138987885
 30
0.0
 10
696.2566147732034
 20
694.9806553983144
 30
0.0
  0
ARC
  5
293
330
1F
100
AcDbEntity
  8
0
  6
Continuous
 62
     7
370
    25
100
AcDbCircle
 10
713.2760297483
 20
698.0021639464
 30
0.0
 40
17.70000000000003
100
AcDbArc
 50
177.6465635726
 51
182.3534364274
  0
SPLINE
  5
294
330
1F
100
AcDbEntity
  8
0
  6
Continuous
 62
     7
370
    25
100
AcDbSpline
210
0.0
220
0.0
230
1.0
 70
     8
 71
     3
 72
     9
 73
     5
 74
     0
 42
0.00000001
 43
0.00000001
 40
0.0
 40
0.0
 40
0.0
 40
0.0
 40
0.5850553834536183
 40
1.0
 40
1.0
 40
1.0
 40
1.0
 10
696.2566147732036
 20
701.023672494439
 30
0.0
 10
696.0517431222252
 20
700.6054275518366
 30
0.0
 10
695.7015683237829
 20
699.8905466116194
 30
0.0
 10
695.6233962241344
 20
699.0696269956935
 30
0.0
 10
695.590959132221
 20
698.7289908204478
 30
0.0
  0
SPLINE
  5
295
330
1F
100
AcDbEntity
  8
0
  6
Continuous
 62
     7
370
    25
100
AcDbSpline
210
0.0
220
0.0
230
1.0
 70
    24
 71
     3
 72
    11
 73
     7
 74
     0
 42
0.00000001
 43
0.00000001
 40
0.0
 40
0.0
 40
0.0
 40
0.0
 40
0.2328716322111468
 40
0.4710265024313225
 40
0.7311421212560294
 40
1.0
 40
1.0
 40
1.0
 40
1.0
 10
702.1496191003699
 20
711.2306553983141
 30
0.0
 10
701.7026908852097
 20
710.4565530223206
 30
0.0
 10
700.7986948423
 20
708.8907859461599
 30
0.0
 10
699.3348584720185
 20
706.3553469788651
 30
0.0
 10
697.7913090167796
 20
703.6818408983959
 30
0.0
 10
696.7737850062864
 20
701.9194376143006
 30
0.0
 10
696.2566147732036
 20
701.023672494439
 30
0.0
  0
SPLINE
  5
296
330
1F
100
AcDbEntity
  8
0
  6
Continuous
 62
     7
370
    25
100
AcDbSpline
210
0.0
220
0.0
230
1.0
 70
     8
 71
     3
 72
     9
 73
     5
 74
     0
 42
0.00000001
 43
0.00000001
 40
0.0
 40
0.0
 40
0.0
 40
0.0
 40
0.584191749740925
 40
1.0
 40
1.0
 40
1.0
 40
1.0
 10
703.8040439031536
 20
712.954470930573
 30
0.0
 10
703.416387637703
 20
712.6651950270734
 30
0.0
 10
702.7528105405898
 20
712.1700221602398
 30
0.0
 10
702.3267701921814
 20
711.5065377076285
 30
0.0
 10
702.1496191003699
 20
711.2306553983141
 30
0.0
  0
ARC
  5
297
330
1F
100
AcDbEntity
  8
0
  6
Continuous
 62
     7
370
    25
100
AcDbCircle
 10
713.2760297483
 20
698.0021639464
 30
0.0
 40
17.69999999999992
100
AcDbArc
 50
117.6465635726
 51
122.3534364274
  0
SPLINE
  5
298
330
1F
100
AcDbEntity
  8
0
  6
Continuous
 62
     7
370
    25
100
AcDbSpline
210
0.0
220
0.0
230
1.0
 70
     8
 71
     3
 72
     9
 73
     5
 74
     0
 42
0.00000001
 43
0.00000001
 40
0.0
 40
0.0
 40
0.0
 40
0.0
 40
0.5850553834536162
 40
1.0
 40
1.0
 40
1.0
 40
1.0
 10
707.3830254211176
 20
714.2521639463766
 30
0.0
 10
706.9183788503302
 20
714.220465529338
 30
0.0
 10
706.1241863961998
 20
714.1662853304454
 30
0.0
 10
705.3741631045187
 20
713.8235245466453
 30
0.0
 10
705.0629449773513
 20
713.6812978046443
 30
0.0
  0
SPLINE
  5
299
330
1F
100
AcDbEntity
  8
0
  6
Continuous
 62
     7
370
    25
100
AcDbSpline
210
0.0
220
0.0
230
1.0
 70
    24
 71
     3
 72
    11
 73
     7
 74
     0
 42
0.00000001
 43
0.00000001
 40
0.0
 40
0.0
 40
0.0
 40
0.0
 40
0.2328716322111479
 40
0.4710265024313248
 40
0.7311421212560302
 40
0.9999999999999999
 40
0.9999999999999999
 40
0.9999999999999999
 40
0.9999999999999999
 10
719.1690340754501
 20
714.2521639463766
 30
0.0
 10
718.2751776451297
 20
714.2521639463766
 30
0.0
 10
716.4671855593103
 20
714.2521639463766
 30
0.0
 10
713.5395128187474
 20
714.2521639463766
 30
0.0
 10
710.4524139082694
 20
714.2521639463766
 30
0.0
 10
708.4173658872833
 20
714.2521639463766
 30
0.0
 10
707.3830254211176
 20
714.2521639463766
 30
0.0
  0
SPLINE
  5
29A
330
1F
100
AcDbEntity
  8
0
  6
Continuous
 62
     7
370
    25
100
AcDbSpline
210
0.0
220
0.0
230
1.0
 70
     8
 71
     3
 72
     9
 73
     5
 74
     0
 42
0.00000001
 43
0.00000001
 40
0.0
 40
0.0
 40
0.0
 40
0.0
 40
0.5841917497409234
 40
1.0
 40
1.0
 40
1.0
 40
1.0
 10
721.4891145192164
 20
713.6812978046443
 30
0.0
 10
721.0447661053577
 20
713.8723800267109
 30
0.0
 10
720.2841452748584
 20
714.1994682167636
 30
0.0
 10
719.4965307096768
 20
714.2366877552168
 30
0.0
 10
719.1690340754501
 20
714.2521639463766
 30
0.0
  0
ARC
  5
29B
330
1F
100
AcDbEntity
  8
0
  6
Continuous
 62
     7
370
    25
100
AcDbCircle
 10
713.2760297483
 20
698.0021639464
 30
0.0
 40
17.69999999999997
100
AcDbArc
 50
57.6465635726
 51
62.3534364274
  0
SPLINE
  5
29C
330
1F
100
AcDbEntity
  8
0
  6
Continuous
 62
     7
370
    25
100
AcDbSpline
210
0.0
220
0.0
230
1.0
 70
     8
 71
     3
 72
     9
 73
     5
 74
     0
 42
0.00000001
 43
0.00000001
 40
0.0
 40
0.0
 40
0.0
 40
0.0
 40
0.5850553834536193
 40
1.0
 40
1.0
 40
1.0
 40
1.0
 10
724.4024403961978
 20
711.2306553983141
 30
0.0
 10
724.142665476389
 20
711.617201923878
 30
0.0
 10
723.6986478207007
 20
712.2779026652026
 30
0.0
 10
723.0267966286683
 20
712.7560614973283
 30
0.0
 10
722.7480155934142
 20
712.954470930573
 30
0.0
  0
LINE
  5
29D
330
1F
100
AcDbEntity
  8
0
  6
Continuous
 62
     7
370
    25
100
AcDbLine
 10
725.7174958556
 20
708.9529125279
 30
0.0
 11
724.4024403962
 21
711.2306553983
 31
0.0
  0
SPLINE
  5
29E
330
1F
100
AcDbEntity
  8
0
  6
Continuous
 62
     7
370
    25
100
AcDbSpline
210
0.0
220
0.0
230
1.0
 70
    24
 71
     3
 72
     9
 73
     5
 74
     0
 42
0.00000001
 43
0.00000001
 40
0.0
 40
0.0
 40
0.0
 40
0.0
 40
0.7598805654552347
 40
1.0
 40
1.0
 40
1.0
 40
1.0
 10
724.4024403961978
 20
684.773672494439
 30
0.0
 10
724.8475189682108
 20
685.5445711945256
 30
0.0
 10
725.43324071482
 20
686.5590710187508
 30
0.0
 10
726.0451052725651
 20
687.618851520116
 30
0.0
 10
726.1920258441888
 20
687.8733254148452
 30
0.0
  0
SPLINE
  5
29F
330
1F
100
AcDbEntity
  8
0
  6
Continuous
 62
     7
370
    25
100
AcDbSpline
210
0.0
220
0.0
230
1.0
 70
     8
 71
     3
 72
     9
 73
     5
 74
     0
 42
0.00000001
 43
0.00000001
 40
0.0
 40
0.0
 40
0.0
 40
0.0
 40
0.5841917497409237
 40
1.0
 40
1.0
 40
1.0
 40
1.0
 10
722.7480155934142
 20
683.0498569621801
 30
0.0
 10
723.1356718588647
 20
683.3391328656799
 30
0.0
 10
723.7992489559779
 20
683.8343057325134
 30
0.0
 10
724.2252893043864
 20
684.4977901851246
 30
0.0
 10
724.4024403961978
 20
684.773672494439
 30
0.0
  0
ARC
  5
2A0
330
1F
100
AcDbEntity
  8
0
  6
Continuous
 62
     7
370
    25
100
AcDbCircle
 10
713.2760297483
 20
698.0021639464
 30
0.0
 40
17.70000000000007
100
AcDbArc
 50
297.6465635726
 51
302.3534364274
  0
SPLINE
  5
2A1
330
1F
100
AcDbEntity
  8
0
  6
Continuous
 62
     7
370
    25
100
AcDbSpline
210
0.0
220
0.0
230
1.0
 70
     8
 71
     3
 72
     9
 73
     5
 74
     0
 42
0.00000001
 43
0.00000001
 40
0.0
 40
0.0
 40
0.0
 40
0.0
 40
0.5850553834536171
 40
1.0
 40
1.0
 40
1.0
 40
1.0
 10
719.1690340754501
 20
681.7521639463766
 30
0.0
 10
719.6336806462374
 20
681.7838623634152
 30
0.0
 10
720.427873100368
 20
681.8380425623077
 30
0.0
 10
721.1778963920489
 20
682.1808033461077
 30
0.0
 10
721.4891145192164
 20
682.3230300881089
 30
0.0
  0
SPLINE
  5
2A2
330
1F
100
AcDbEntity
  8
0
  6
Continuous
 62
     7
370
    25
100
AcDbSpline
210
0.0
220
0.0
230
1.0
 70
    24
 71
     3
 72
    11
 73
     7
 74
     0
 42
0.00000001
 43
0.00000001
 40
0.0
 40
0.0
 40
0.0
 40
0.0
 40
0.2328716322111485
 40
0.471026502431326
 40
0.7311421212560308
 40
1.0
 40
1.0
 40
1.0
 40
1.0
 10
707.3830254211176
 20
681.7521639463766
 30
0.0
 10
708.276881851438
 20
681.7521639463766
 30
0.0
 10
710.0848739372574
 20
681.7521639463766
 30
0.0
 10
713.0125466778203
 20
681.7521639463766
 30
0.0
 10
716.0996455882984
 20
681.7521639463766
 30
0.0
 10
718.1346936092843
 20
681.7521639463766
 30
0.0
 10
719.1690340754501
 20
681.7521639463766
 30
0.0
  0
SPLINE
  5
2A3
330
1F
100
AcDbEntity
  8
0
  6
Continuous
 62
     7
370
    25
100
AcDbSpline
210
0.0
220
0.0
230
1.0
 70
     8
 71
     3
 72
     9
 73
     5
 74
     0
 42
0.00000001
 43
0.00000001
 40
0.0
 40
0.0
 40
0.0
 40
0.0
 40
0.5841917497409266
 40
1.0
 40
1.0
 40
1.0
 40
1.0
 10
705.0629449773513
 20
682.3230300881089
 30
0.0
 10
705.50729339121
 20
682.1319478660423
 30
0.0
 10
706.2679142217095
 20
681.8048596759896
 30
0.0
 10
707.0555287868909
 20
681.7676401375363
 30
0.0
 10
707.3830254211176
 20
681.7521639463766
 30
0.0
  0
ARC
  5
2A4
330
1F
100
AcDbEntity
  8
0
  6
Continuous
 62
     7
370
    25
100
AcDbCircle
 10
713.2760297483
 20
698.0021639464
 30
0.0
 40
17.70000000000002
100
AcDbArc
 50
237.6465635726
 51
242.3534364274
  0
SPLINE
  5
2A5
330
1F
100
AcDbEntity
  8
0
  6
Continuous
 62
     7
370
    25
100
AcDbSpline
210
0.0
220
0.0
230
1.0
 70
     8
 71
     3
 72
    22
 73
    18
 74
     0
 42
0.00000001
 43
0.00000001
 40
0.0
 40
0.0
 40
0.0
 40
0.0
 40
0.0572864194646081
 40
0.1229381135129725
 40
0.1889690539883527
 40
0.2549999944638637
 40
0.3212149049680308
 40
0.3874333377052333
 40
0.4538274481666401
 40
0.5202215586272284
 40
0.5870010590344663
 40
0.6537806686213684
 40
0.7205436780598867
 40
0.7873066874969189
 40
0.8546458523711977
 40
0.9219850172464724
 40
1.0
 40
1.0
 40
1.0
 40
1.0
 10
603.7760297482838
 20
688.6129260184299
 30
0.0
 10
603.3236696594732
 20
689.0092295466598
 30
0.0
 10
602.3528934010394
 20
689.8597070000325
 30
0.0
 10
601.16088249116
 20
691.4590089853552
 30
0.0
 10
600.1912498723286
 20
693.2973228314092
 30
0.0
 10
599.5411256011053
 20
695.2816092401412
 30
0.0
 10
599.2383862937684
 20
697.3482978894932
 30
0.0
 10
599.2793333338585
 20
699.4407804196998
 30
0.0
 10
599.6758279387385
 20
701.4975387696632
 30
0.0
 10
600.4054257214012
 20
703.4673321697717
 30
0.0
 10
601.4628495330694
 20
705.2871636551201
 30
0.0
 10
602.8079104409446
 20
706.9111838006976
 30
0.0
 10
604.40999309415
 20
708.2812762708145
 30
0.0
 10
606.2190307362325
 20
709.3769709457878
 30
0.0
 10
608.1936560608164
 20
710.1432157785757
 30
0.0
 10
610.3859694803152
 20
710.6258728626854
 30
0.0
 10
611.9135974105789
 20
710.5978426599592
 30
0.0
 10
612.7335111769041
 20
710.5827981922372
 30
0.0
  0
ARC
  5
2A6
330
1F
100
AcDbEntity
  8
0
  6
Continuous
 62
     7
370
    25
100
AcDbCircle
 10
611.6760297483
 20
698.0021639464
 30
0.0
 40
12.62500000000009
100
AcDbArc
 50
350.938753047
 51
85.1952241371
  0
LINE
  5
2A7
330
1F
100
AcDbEntity
  8
0
  6
Continuous
 62
     7
370
    25
100
AcDbLine
 10
623.5708091146
 20
698.0021639464
 30
0.0
 11
623.5020379311
 21
697.4767200965
 31
0.0
  0
SPLINE
  5
2A8
330
1F
100
AcDbEntity
  8
0
  6
Continuous
 62
     7
370
    25
100
AcDbSpline
210
0.0
220
0.0
230
1.0
 70
     8
 71
     3
 72
    10
 73
     6
 74
     0
 42
0.00000001
 43
0.00000001
 40
0.0
 40
0.0
 40
0.0
 40
0.0
 40
0.4366777435309245
 40
0.8650683835413501
 40
1.0
 40
1.0
 40
1.0
 40
1.0
 10
622.4495902900584
 20
692.9607187739468
 30
0.0
 10
622.1174793626781
 20
692.3515687872571
 30
0.0
 10
621.459560182318
 20
691.1448290297899
 30
0.0
 10
620.4740294503785
 20
689.8566401405143
 30
0.0
 10
619.7495605457214
 20
689.3258077194171
 30
0.0
 10
619.5760297482839
 20
689.1986583376473
 30
0.0
  0
SPLINE
  5
2A9
330
1F
100
AcDbEntity
  8
0
  6
Continuous
 62
     7
370
    25
100
AcDbSpline
210
0.0
220
0.0
230
1.0
 70
     8
 71
     3
 72
    10
 73
     6
 74
     0
 42
0.00000001
 43
0.00000001
 40
0.0
 40
0.0
 40
0.0
 40
0.0
 40
0.1614861643795461
 40
0.5801934759773473
 40
1.0
 40
1.0
 40
1.0
 40
1.0
 10
619.5760297482839
 20
688.9503686258352
 30
0.0
 10
619.7787398072866
 20
689.12542063825
 30
0.0
 10
620.5070440196025
 20
689.7543539957923
 30
0.0
 10
621.5224256699986
 20
691.0917642766213
 30
0.0
 10
622.1402654401811
 20
692.3371897298001
 30
0.0
 10
622.4495902900584
 20
692.9607187739468
 30
0.0
  0
ARC
  5
2AA
330
1F
100
AcDbEntity
  8
0
  6
Continuous
 62
     7
370
    25
100
AcDbCircle
 10
713.2760297483
 20
698.0021639464
 30
0.0
 40
17.60000000000005
100
AcDbArc
 50
152.0468131166
 51
172.4710217602
  0
ARC
  5
2AB
330
1F
100
AcDbEntity
  8
0
  6
Continuous
 62
     7
370
    25
100
AcDbCircle
 10
713.2760297483
 20
698.0021639464
 30
0.0
 40
17.60000000000009
100
AcDbArc
 50
187.7001886922
 51
207.9531868834
  0
ARC
  5
2AC
330
1F
100
AcDbEntity
  8
0
  6
Continuous
 62
     7
370
    25
100
AcDbCircle
 10
713.2760297483
 20
698.0021639464
 30
0.0
 40
17.60000000000012
100
AcDbArc
 50
207.9531868834
 51
231.9423049492
  0
ARC
  5
2AD
330
1F
100
AcDbEntity
  8
0
  6
Continuous
 62
     7
370
    25
100
AcDbCircle
 10
713.2760297483
 20
698.0021639464
 30
0.0
 40
17.60000000000023
100
AcDbArc
 50
248.3662117989
 51
292.6012741774
  0
ARC
  5
2AE
330
1F
100
AcDbEntity
  8
0
  6
Continuous
 62
     7
370
    25
100
AcDbCircle
 10
713.2760297483
 20
698.0021639464
 30
0.0
 40
17.60000000000021
100
AcDbArc
 50
307.4387102895
 51
329.914091969
  0
ARC
  5
2AF
330
1F
100
AcDbEntity
  8
0
  6
Continuous
 62
     7
370
    25
100
AcDbCircle
 10
713.2760297483
 20
698.0021639464
 30
0.0
 40
17.60000000000013
100
AcDbArc
 50
33.0957362986
 51
52.0595698702
  0
ARC
  5
2B0
330
1F
100
AcDbEntity
  8
0
  6
Continuous
 62
     7
370
    25
100
AcDbCircle
 10
713.2760297483
 20
698.0021639464
 30
0.0
 40
17.60000000000002
100
AcDbArc
 50
68.2372110924
 51
112.1945424058
  0
ARC
  5
2B1
330
1F
100
AcDbEntity
  8
0
  6
Continuous
 62
     7
370
    25
100
AcDbCircle
 10
713.2760297483
 20
698.0021639464
 30
0.0
 40
17.59999999999999
100
AcDbArc
 50
128.1352663927
 51
152.0468131166
  0
ARC
  5
2B2
330
1F
100
AcDbEntity
  8
0
  6
Continuous
 62
     7
370
    25
100
AcDbCircle
 10
510.0760297483
 20
698.0021639464
 30
0.0
 40
17.60000000000009
100
AcDbArc
 50
7.8284686027
 51
27.9531868834
  0
ARC
  5
2B3
330
1F
100
AcDbEntity
  8
0
  6
Continuous
 62
     7
370
    25
100
AcDbCircle
 10
510.0760297483
 20
698.0021639464
 30
0.0
 40
17.60000000000014
100
AcDbArc
 50
332.0468131166
 51
352.9126000189
  0
ARC
  5
2B4
330
1F
100
AcDbEntity
  8
0
  6
Continuous
 62
     7
370
    25
100
AcDbCircle
 10
510.0760297483
 20
698.0021639464
 30
0.0
 40
17.60000000000015
100
AcDbArc
 50
308.3524775834
 51
332.0468131166
  0
ARC
  5
2B5
330
1F
100
AcDbEntity
  8
0
  6
Continuous
 62
     7
370
    25
100
AcDbCircle
 10
510.0760297483
 20
698.0021639464
 30
0.0
 40
17.60000000000014
100
AcDbArc
 50
247.7053216207
 51
291.9394873066
  0
ARC
  5
2B6
330
1F
100
AcDbEntity
  8
0
  6
Continuous
 62
     7
370
    25
100
AcDbCircle
 10
510.0760297483
 20
698.0021639464
 30
0.0
 40
17.6000000000002
100
AcDbArc
 50
211.5427743269
 51
233.2869514371
  0
ARC
  5
2B7
330
1F
100
AcDbEntity
  8
0
  6
Continuous
 62
     7
370
    25
100
AcDbCircle
 10
510.0760297483
 20
698.0021639464
 30
0.0
 40
17.60000000000011
100
AcDbArc
 50
128.2989892036
 51
148.4572256731
  0
ARC
  5
2B8
330
1F
100
AcDbEntity
  8
0
  6
Continuous
 62
     7
370
    25
100
AcDbCircle
 10
510.0760297483
 20
698.0021639464
 30
0.0
 40
17.6
100
AcDbArc
 50
68.0922381153
 51
112.0468846828
  0
ARC
  5
2B9
330
1F
100
AcDbEntity
  8
0
  6
Continuous
 62
     7
370
    25
100
AcDbCircle
 10
510.0760297483
 20
698.0021639464
 30
0.0
 40
17.60000000000013
100
AcDbArc
 50
27.9531868834
 51
52.2965225843
  0
LWPOLYLINE
  5
2BA
330
1F
100
AcDbEntity
  8
0
  6
Continuous
 62
     7
370
    25
100
AcDbPolyline
 90
        9
 70
   128
 43
0.0
 10
690.6627593081
 20
705.2021639464
 10
691.8411410566
 20
704.8638128111
 10
692.9891524214
 20
704.6578921854
 10
694.0772057535
 20
704.589709253
 10
695.0772586997
 20
704.6610212898
 10
695.9635369371
 20
704.8699903735
 10
696.7131984537
 20
705.2112307528
 10
697.3069222545
 20
705.6759476535
 10
697.7294063207
 20
706.2521639464
  0
LWPOLYLINE
  5
2BB
330
1F
100
AcDbEntity
  8
0
  6
Continuous
 62
     7
370
    25
100
AcDbPolyline
 90
        9
 70
   128
 43
0.0
 10
532.6893001884
 20
705.2021639464
 10
531.51091844
 20
704.8638128111
 10
530.3629070752
 20
704.6578921855
 10
529.2748537431
 20
704.589709253
 10
528.2748007969
 20
704.6610212898
 10
527.3885225594
 20
704.8699903735
 10
526.6388610428
 20
705.2112307528
 10
526.0451372421
 20
705.6759476535
 10
525.6226531759
 20
706.2521639464
  0
LWPOLYLINE
  5
2BC
330
1F
100
AcDbEntity
  8
0
  6
Continuous
 62
     7
370
    25
100
AcDbPolyline
 90
        9
 70
   128
 43
0.0
 10
697.7294063207
 20
689.7521639464
 10
697.3069222545
 20
690.3283802392
 10
696.7131984537
 20
690.79309714
 10
695.9635369371
 20
691.1343375192
 10
695.0772586997
 20
691.343306603
 10
694.0772057535
 20
691.4146186397
 10
692.9891524214
 20
691.3464357073
 10
691.8411410566
 20
691.1405150816
 10
690.6627593081
 20
690.8021639464
  0
SPLINE
  5
2BD
330
1F
100
AcDbEntity
  8
0
  6
Continuous
 62
     7
370
    25
100
AcDbSpline
210
0.0
220
0.0
230
1.0
 70
     8
 71
     3
 72
    30
 73
    26
 74
     0
 42
0.00000001
 43
0.00000001
 40
0.0
 40
0.0
 40
0.0
 40
0.0
 40
0.1250000000000007
 40
0.1250000000000007
 40
0.1875000000000002
 40
0.1875000000000002
 40
0.2499999999999997
 40
0.2499999999999997
 40
0.3749999999999995
 40
0.3749999999999995
 40
0.4999999999999993
 40
0.4999999999999993
 40
0.5624999999999992
 40
0.5624999999999992
 40
0.6249999999999991
 40
0.6249999999999991
 40
0.7499999999999992
 40
0.7499999999999992
 40
0.8124999999999994
 40
0.8124999999999994
 40
0.8749999999999997
 40
0.8749999999999997
 40
0.9374999999999999
 40
0.9374999999999999
 40
1.0
 40
1.0
 40
1.0
 40
1.0
 10
690.6627593081196
 20
690.8021639463766
 30
0.0
 10
690.2696466800386
 20
691.2466420549887
 30
0.0
 10
689.9444911209571
 20
691.7412505866338
 30
0.0
 10
689.5518844003277
 20
692.5678157932582
 30
0.0
 10
689.4382035428742
 20
692.8550255978462
 30
0.0
 10
689.2438462857267
 20
693.4427793822026
 30
0.0
 10
689.1624877537048
 20
693.744717692931
 30
0.0
 10
688.9574967122669
 20
694.6736675770201
 30
0.0
 10
688.8724448394549
 20
695.3284266039215
 30
0.0
 10
688.7681609203372
 20
696.6630514697218
 30
0.0
 10
688.7477982099693
 20
697.3336389788541
 30
0.0
 10
688.7478407126254
 20
698.3383457830724
 30
0.0
 10
688.7532922354492
 20
698.6733784807982
 30
0.0
 10
688.7765974820894
 20
699.3437130783
 30
0.0
 10
688.7946092417111
 20
699.6807290979852
 30
0.0
 10
688.8727500832761
 20
700.6778534718921
 30
0.0
 10
688.9560343206329
 20
701.3224776580523
 30
0.0
 10
689.1614452720482
 20
702.2556538021738
 30
0.0
 10
689.2441084021276
 20
702.5628574983549
 30
0.0
 10
689.440625949355
 20
703.1561044389524
 30
0.0
 10
689.553711312055
 20
703.4404400071071
 30
0.0
 10
689.8124808917518
 20
703.9850708356059
 30
0.0
 10
689.9581576348019
 20
704.2453674633855
 30
0.0
 10
690.2846525741089
 20
704.7424995493452
 30
0.0
 10
690.4661163674486
 20
704.9798269465006
 30
0.0
 10
690.662759308119
 20
705.2021639463769
 30
0.0
  0
SPLINE
  5
2BE
330
1F
100
AcDbEntity
  8
0
  6
Continuous
 62
     7
370
    25
100
AcDbSpline
210
0.0
220
0.0
230
1.0
 70
     8
 71
     3
 72
    26
 73
    22
 74
     0
 42
0.00000001
 43
0.00000001
 40
0.0
 40
0.0
 40
0.0
 40
0.0
 40
0.1250000000000003
 40
0.1250000000000003
 40
0.1875
 40
0.1875
 40
0.2499999999999997
 40
0.2499999999999997
 40
0.3749999999999996
 40
0.3749999999999996
 40
0.4374999999999996
 40
0.4374999999999996
 40
0.4999999999999997
 40
0.4999999999999997
 40
0.6249999999999998
 40
0.6249999999999998
 40
0.7499999999999998
 40
0.7499999999999998
 40
0.8749999999999999
 40
0.8749999999999999
 40
1.0
 40
1.0
 40
1.0
 40
1.0
 10
532.6893001884395
 20
705.2021639463863
 30
0.0
 10
533.0820753460407
 20
704.7580674033373
 30
0.0
 10
533.4060121036384
 20
704.2650467170146
 30
0.0
 10
533.7968847961332
 20
703.4440826202588
 30
0.0
 10
533.911560943111
 20
703.1558523865244
 30
0.0
 10
534.1085087041276
 20
702.561041195042
 30
0.0
 10
534.1908496863384
 20
702.2546928293543
 30
0.0
 10
534.3960517970324
 20
701.3221388761701
 30
0.0
 10
534.4792812485296
 20
700.6779619209283
 30
0.0
 10
534.557395783042
 20
699.6815495013116
 30
0.0
 10
534.5754091203002
 20
699.344768067638
 30
0.0
 10
534.5987305364457
 20
698.6748994306704
 30
0.0
 10
534.6041966663513
 20
698.3400995370572
 30
0.0
 10
534.604305074016
 20
697.3360906051306
 30
0.0
 10
534.5839646951007
 20
696.6653794894263
 30
0.0
 10
534.4800829344805
 20
695.3329453799838
 30
0.0
 10
534.3969253949998
 20
694.6876283618659
 30
0.0
 10
534.1238019924863
 20
693.4434752783554
 30
0.0
 10
533.9300843948191
 20
692.8409233034685
 30
0.0
 10
533.406891132374
 20
691.7402199402785
 30
0.0
 10
533.0820031793936
 20
691.2461788932221
 30
0.0
 10
532.6893001884481
 20
690.8021639463765
 30
0.0
  0
LWPOLYLINE
  5
2BF
330
1F
100
AcDbEntity
  8
0
  6
Continuous
 62
     7
370
    25
100
AcDbPolyline
 90
        9
 70
   128
 43
0.0
 10
525.6226531759
 20
689.7521639464
 10
526.0451372421
 20
690.3283802392
 10
526.6388610428
 20
690.79309714
 10
527.3885225595
 20
691.1343375192
 10
528.2748007969
 20
691.343306603
 10
529.2748537431
 20
691.4146186397
 10
530.3629070752
 20
691.3464357073
 10
531.51091844
 20
691.1405150816
 10
532.6893001884
 20
690.8021639464
  0
LWPOLYLINE
  5
2C0
330
1F
100
AcDbEntity
  8
0
  6
Continuous
 62
     8
370
    25
100
AcDbPolyline
 90
       16
 70
   128
 43
0.0
 10
603.7760297483
 20
288.129175858
 10
603.8223398868
 20
288.4300043431
 10
604.1895696959
 20
289.0175949079
 10
604.9068580566
 20
289.5636439852
 10
605.9406653621
 20
290.0426189272
 10
607.2426519319
 20
290.432123398
 10
608.7519383211
 20
290.7139446013
 10
610.3979519755
 20
290.8749048909
 10
612.1037271261
 20
290.9074779427
 10
613.7895036227
 20
290.8101406768
 10
615.3764564298
 20
290.5874444756
 10
616.7903813981
 20
290.2498023661
 10
617.9651649674
 20
289.8130021179
 10
618.8458755637
 20
289.2974680253
 10
619.3913321384
 20
288.7273058894
 10
619.5760297483
 20
288.129175858
  0
LWPOLYLINE
  5
2C1
330
1F
100
AcDbEntity
  8
0
  6
Continuous
 62
     8
370
    25
100
AcDbPolyline
 90
       17
 70
   128
 43
0.0
 10
603.7760297483
 20
675.329175858
 10
603.8223398868
 20
675.6300043431
 10
604.1895696959
 20
676.2175949079
 10
604.9068580566
 20
676.7636439852
 10
605.9406653621
 20
677.2426189272
 10
607.2426519319
 20
677.632123398
 10
608.7519383211
 20
677.9139446013
 10
610.3979519755
 20
678.0749048909
 10
612.1037271261
 20
678.1074779427
 10
613.7895036227
 20
678.0101406768
 10
615.3764564298
 20
677.7874444756
 10
616.7903813981
 20
677.4498023661
 10
617.9651649674
 20
677.0130021179
 10
618.8458755637
 20
676.4974680253
 10
619.3913321384
 20
675.9273058894
 10
619.5760297483
 20
675.329175858
 10
619.5760297483
 20
675.329175858
  0
ARC
  5
2C2
330
1F
100
AcDbEntity
  8
0
  6
Continuous
 62
     8
370
    25
100
AcDbCircle
 10
611.6760297483
 20
240.8021639464
 30
0.0
 40
8.41047229201962
100
AcDbArc
 50
159.9351921799
 51
270.0
  0
ARC
  5
2C3
330
1F
100
AcDbEntity
  8
0
  6
Continuous
 62
     8
370
    25
100
AcDbCircle
 10
611.6760297483
 20
240.8021639464
 30
0.0
 40
8.41047229201964
100
AcDbArc
 50
270.0
 51
20.0648078201
  0
LINE
  5
2C4
330
1F
100
AcDbEntity
  8
0
  6
Continuous
 62
     8
370
    25
100
AcDbLine
 10
603.616795901
 20
690.4278029193
 30
0.0
 11
603.7760297483
 21
690.2618671062
 31
0.0
  0
ARC
  5
2C5
330
1F
100
AcDbEntity
  8
0
  6
Continuous
 62
     8
370
    25
100
AcDbCircle
 10
611.6760297483
 20
698.0021639464
 30
0.0
 40
11.05993649053899
100
AcDbArc
 50
315.5850271977
 51
223.2235523034
  0
ARC
  5
2C6
330
1F
100
AcDbEntity
  8
0
  6
Continuous
 62
     8
370
    25
100
AcDbCircle
 10
611.6760297483
 20
698.0021639464
 30
0.0
 40
11.30993649053895
100
AcDbArc
 50
314.3068486059
 51
225.6931513941
  0
LINE
  5
2C7
330
1F
100
AcDbEntity
  8
0
  6
Continuous
 62
     8
370
    25
100
AcDbLine
 10
619.5760297483
 20
685.6364276365
 30
0.0
 11
619.8332886069
 21
685.7430957553
 31
0.0
  0
ARC
  5
2C8
330
1F
100
AcDbEntity
  8
0
  6
Continuous
 62
     8
370
    25
100
AcDbCircle
 10
603.5185392414
 20
686.087109721
 30
0.0
 40
0.3529502268457942
100
AcDbArc
 50
279.538525686
 51
316.8476542185
  0
ARC
  5
2C9
330
1F
100
AcDbEntity
  8
0
  6
Continuous
 62
     8
370
    25
100
AcDbCircle
 10
611.6760297483
 20
698.0021639464
 30
0.0
 40
9.375000000000085
100
AcDbArc
 50
327.4227936768
 51
212.5772063232
  0
ARC
  5
2CA
330
1F
100
AcDbEntity
  8
0
  6
Continuous
 62
     8
370
    25
100
AcDbCircle
 10
713.2760297483
 20
698.0021639464
 30
0.0
 40
24.80000000000008
100
AcDbArc
 50
270.0
 51
347.7891131326
  0
ARC
  5
2CB
330
1F
100
AcDbEntity
  8
0
  6
Continuous
 62
     8
370
    25
100
AcDbCircle
 10
713.2760297483
 20
698.0021639464
 30
0.0
 40
24.8000000000001
100
AcDbArc
 50
13.4605379577
 51
151.0614722598
  0
ARC
  5
2CC
330
1F
100
AcDbEntity
  8
0
  6
Continuous
 62
     8
370
    25
100
AcDbCircle
 10
713.2760297483
 20
698.0021639464
 30
0.0
 40
24.80000000000007
100
AcDbArc
 50
208.9385277402
 51
270.0
  0
ARC
  5
2CD
330
1F
100
AcDbEntity
  8
0
  6
Continuous
 62
     8
370
    25
100
AcDbCircle
 10
510.0760297483
 20
698.0021639464
 30
0.0
 40
24.80000000000003
100
AcDbArc
 50
90.0
 51
167.1597533419
  0
ARC
  5
2CE
330
1F
100
AcDbEntity
  8
0
  6
Continuous
 62
     8
370
    25
100
AcDbCircle
 10
510.0760297483
 20
698.0021639464
 30
0.0
 40
24.8
100
AcDbArc
 50
192.8474248147
 51
331.0614722598
  0
ARC
  5
2CF
330
1F
100
AcDbEntity
  8
0
  6
Continuous
 62
     8
370
    25
100
AcDbCircle
 10
510.0760297483
 20
698.0021639464
 30
0.0
 40
24.79999999999996
100
AcDbArc
 50
28.9385277402
 51
90.0
  0
SPLINE
  5
2D0
330
1F
100
AcDbEntity
  8
0
  6
Continuous
 62
     8
370
    25
100
AcDbSpline
210
0.0
220
0.0
230
1.0
 70
     8
 71
     3
 72
    16
 73
    12
 74
     0
 42
0.00000001
 43
0.00000001
 40
0.0
 40
0.0
 40
0.0
 40
0.0
 40
0.0961490818557367
 40
0.1898118314713863
 40
0.2837145723291145
 40
0.2938991301868718
 40
0.4289456490880268
 40
0.5643578936429551
 40
0.7523444602197986
 40
0.9406047997644947
 40
1.0
 40
1.0
 40
1.0
 40
1.0
 10
589.8956977774186
 20
698.0021639463766
 30
0.0
 10
589.9301219180575
 20
698.5327304607139
 30
0.0
 10
589.9980800207807
 20
699.5801434974273
 30
0.0
 10
590.5109668817971
 20
701.045013214683
 30
0.0
 10
591.0103664922951
 20
701.9689656635799
 30
0.0
 10
591.6997233712179
 20
703.0119182751423
 30
0.0
 10
592.632666846251
 20
704.1247733571589
 30
0.0
 10
594.3791350010173
 20
705.6328929670703
 30
0.0
 10
596.5217385969885
 20
706.9495770310021
 30
0.0
 10
598.4272687736145
 20
707.8985909394775
 30
0.0
 10
599.5677599964408
 20
708.2128863945197
 30
0.0
 10
599.841283878066
 20
708.2882638381333
 30
0.0
  0
SPLINE
  5
2D1
330
1F
100
AcDbEntity
  8
0
  6
Continuous
 62
     8
370
    25
100
AcDbSpline
210
0.0
220
0.0
230
1.0
 70
     8
 71
     3
 72
    21
 73
    17
 74
     0
 42
0.00000001
 43
0.00000001
 40
0.0
 40
0.0
 40
0.0
 40
0.0
 40
0.0663563158339427
 40
0.1658649658082602
 40
0.265207497561921
 40
0.3310728964868671
 40
0.3967595905559012
 40
0.481652255226674
 40
0.542255432907143
 40
0.5653486080949367
 40
0.6354345020703395
 40
0.6509793826393807
 40
0.7070400396849487
 40
0.7632636108295996
 40
0.8866965935532711
 40
1.0
 40
1.0
 40
1.0
 40
1.0
 10
620.9461519092381
 20
709.0192001330219
 30
0.0
 10
621.6205917847458
 20
708.8742386343082
 30
0.0
 10
623.3064290028755
 20
708.5118913019485
 30
0.0
 10
625.9046429546144
 20
707.4431241951037
 30
0.0
 10
628.376488507784
 20
706.0594395109223
 30
0.0
 10
630.3534286262378
 20
704.486094995763
 30
0.0
 10
631.9847373243922
 20
702.6911386681732
 30
0.0
 10
633.17790711812
 20
700.4922461728664
 30
0.0
 10
633.4993914377625
 20
698.4526988056064
 30
0.0
 10
633.3911759620717
 20
696.6036754162492
 30
0.0
 10
633.0064138091632
 20
695.3343209969559
 30
0.0
 10
632.2611822484029
 20
693.8683562153077
 30
0.0
 10
631.424572968165
 20
692.6613742389569
 30
0.0
 10
629.5857691241391
 20
690.7925650002317
 30
0.0
 10
626.9446782492981
 20
688.9849788918918
 30
0.0
 10
624.6141617386901
 20
688.099846693545
 30
0.0
 10
623.498763044144
 20
687.6762172989266
 30
0.0
  0
SPLINE
  5
2D2
330
1F
100
AcDbEntity
  8
0
  6
Continuous
 62
     8
370
    25
100
AcDbSpline
210
0.0
220
0.0
230
1.0
 70
     8
 71
     3
 72
    15
 73
    11
 74
     0
 42
0.00000001
 43
0.00000001
 40
0.0
 40
0.0
 40
0.0
 40
0.0
 40
0.1470288848989916
 40
0.3452979151469482
 40
0.5430476916550921
 40
0.6556896590239909
 40
0.7680052823731757
 40
0.844972886296423
 40
0.9217575037793772
 40
1.0
 40
1.0
 40
1.0
 40
1.0
 10
602.4100493209937
 20
686.9807208929319
 30
0.0
 10
601.5998183665439
 20
687.1663407975245
 30
0.0
 10
599.6969877795385
 20
687.6022698743832
 30
0.0
 10
596.8270552691932
 20
688.8442265494753
 30
0.0
 10
594.2943493887338
 20
690.40853761151
 30
0.0
 10
592.4152415379041
 20
692.1047262992031
 30
0.0
 10
591.2555540043882
 20
693.562108442082
 30
0.0
 10
590.4741146435903
 20
695.0479433644896
 30
0.0
 10
589.9913281563221
 20
696.4752642248345
 30
0.0
 10
589.9277737926456
 20
697.4900164543358
 30
0.0
 10
589.8956977774186
 20
698.0021639463766
 30
0.0
  0
SPLINE
  5
2D3
330
1F
100
AcDbEntity
  8
0
  6
Continuous
 62
     8
370
    25
100
AcDbSpline
210
0.0
220
0.0
230
1.0
 70
     8
 71
     3
 72
    13
 73
     9
 74
     0
 42
0.00000001
 43
0.00000001
 40
0.0
 40
0.0
 40
0.0
 40
0.0
 40
0.246873581239535
 40
0.4413811989636142
 40
0.6398169724544361
 40
0.7569724566612596
 40
0.8777345843649657
 40
1.0
 40
1.0
 40
1.0
 40
1.0
 10
690.6627593081196
 20
705.2021639463766
 30
0.0
 10
691.3135911839911
 20
705.862780060664
 30
0.0
 10
692.4772027468546
 20
707.043884701812
 30
0.0
 10
694.2529531776561
 20
708.308668403156
 30
0.0
 10
695.5921788153134
 20
709.1217983772741
 30
0.0
 10
696.5444347959466
 20
709.632033058391
 30
0.0
 10
697.1688783492576
 20
709.941989768726
 30
0.0
 10
697.2347439516759
 20
709.9729524119784
 30
0.0
 10
697.2678804642912
 20
709.9885294959354
 30
0.0
  0
SPLINE
  5
2D4
330
1F
100
AcDbEntity
  8
0
  6
Continuous
 62
     8
370
    25
100
AcDbSpline
210
0.0
220
0.0
230
1.0
 70
     8
 71
     3
 72
    14
 73
    10
 74
     0
 42
0.00000001
 43
0.00000001
 40
0.0
 40
0.0
 40
0.0
 40
0.0
 40
0.0338406719493978
 40
0.1227065900592135
 40
0.2392973242781097
 40
0.3605097605622855
 40
0.5545600826377888
 40
0.7532538867057824
 40
1.0
 40
1.0
 40
1.0
 40
1.0
 10
526.1080080268025
 20
709.9770791969713
 30
0.0
 10
526.0914602067043
 20
709.9850719165331
 30
0.0
 10
526.0314576576944
 20
710.0140535917255
 30
0.0
 10
526.2846941508978
 20
709.8924165722636
 30
0.0
 10
526.7851028770173
 20
709.6430134750036
 30
0.0
 10
527.7462133094014
 20
709.1302426845203
 30
0.0
 10
529.0848604073096
 20
708.3175021606985
 30
0.0
 10
530.8642204647817
 20
707.0548104048628
 30
0.0
 10
532.0387072722006
 20
705.8625836784978
 30
0.0
 10
532.6893001884395
 20
705.2021639463863
 30
0.0
  0
SPLINE
  5
2D5
330
1F
100
AcDbEntity
  8
0
  6
Continuous
 62
     8
370
    25
100
AcDbSpline
210
0.0
220
0.0
230
1.0
 70
     8
 71
     3
 72
    13
 73
     9
 74
     0
 42
0.00000001
 43
0.00000001
 40
0.0
 40
0.0
 40
0.0
 40
0.0
 40
0.3086570593896741
 40
0.5142462440525061
 40
0.7190373955263313
 40
0.8855430685586471
 40
0.9382954799300373
 40
1.0
 40
1.0
 40
1.0
 40
1.0
 10
532.6893001884481
 20
690.8021639463765
 30
0.0
 10
531.8706343077797
 20
689.9909208337283
 30
0.0
 10
530.5066743999774
 20
688.6393278245881
 30
0.0
 10
528.5173897455586
 20
687.3271950716863
 30
0.0
 10
527.0922711193175
 20
686.5116117537287
 30
0.0
 10
526.3419560794745
 20
686.1403810028124
 30
0.0
 10
526.0899342465852
 20
686.0183585239786
 30
0.0
 10
526.0687877479357
 20
686.0082645794865
 30
0.0
 10
526.0573875248657
 20
686.002822864488
 30
0.0
  0
SPLINE
  5
2D6
330
1F
100
AcDbEntity
  8
0
  6
Continuous
 62
     8
370
    25
100
AcDbSpline
210
0.0
220
0.0
230
1.0
 70
     8
 71
     3
 72
    13
 73
     9
 74
     0
 42
0.00000001
 43
0.00000001
 40
0.0
 40
0.0
 40
0.0
 40
0.0
 40
0.0616988709538129
 40
0.2371847626742214
 40
0.2807307886799653
 40
0.487411842866282
 40
0.6949099454175248
 40
0.9999999999999999
 40
0.9999999999999999
 40
0.9999999999999999
 40
0.9999999999999999
 10
697.2946488654438
 20
686.0028339753532
 30
0.0
 10
697.2825417401334
 20
686.0086233882356
 30
0.0
 10
697.2359991438259
 20
686.0308792334293
 30
0.0
 10
696.8039902244724
 20
686.2401682557365
 30
0.0
 10
695.9524649250296
 20
686.6865397145793
 30
0.0
 10
694.8205754419923
 20
687.3357614267622
 30
0.0
 10
692.8296632595477
 20
688.6517702777221
 30
0.0
 10
691.4712691049364
 20
689.9998144250818
 30
0.0
 10
690.6627593081196
 20
690.8021639463766
 30
0.0
  0
ENDSEC
  0
SECTION
  2
OBJECTS
  0
DICTIONARY
  5
C
330
0
100
AcDbDictionary
281
     1
  3
ACAD_GROUP
350
D
  3
ACAD_LAYOUT
350
1A
  3
ACAD_MLINESTYLE
350
17
  3
ACAD_PLOTSETTINGS
350
19
  3
ACAD_PLOTSTYLENAME
350
E
  3
ACAD_SCALELIST
350
47
  3
DWGPROPS
350
2D7
  0
DICTIONARY
  5
D
102
{ACAD_REACTORS
330
C
102
}
330
C
100
AcDbDictionary
281
     1
  0
DICTIONARY
  5
1A
102
{ACAD_REACTORS
330
C
102
}
330
C
100
AcDbDictionary
281
     1
  3
Layout1
350
1E
  3
Layout2
350
26
  3
Model
350
22
  0
DICTIONARY
  5
17
102
{ACAD_REACTORS
330
C
102
}
330
C
100
AcDbDictionary
281
     1
  3
Standard
350
18
  0
DICTIONARY
  5
19
102
{ACAD_REACTORS
330
C
102
}
330
C
100
AcDbDictionary
281
     1
  0
ACDBDICTIONARYWDFLT
  5
E
102
{ACAD_REACTORS
330
C
102
}
330
C
100
AcDbDictionary
281
     1
  3
Normal
350
F
100
AcDbDictionaryWithDefault
340
F
  0
DICTIONARY
  5
47
102
{ACAD_REACTORS
330
C
102
}
330
C
100
AcDbDictionary
281
     1
  3
A0
350
48
  3
A1
350
49
  3
A2
350
4A
  3
A3
350
4B
  3
A4
350
4C
  3
A5
350
4D
  3
A6
350
4E
  3
A7
350
4F
  3
A8
350
50
  3
A9
350
51
  3
B0
350
52
  3
B1
350
53
  3
B2
350
54
  3
B3
350
55
  3
B4
350
56
  3
B5
350
57
  3
B6
350
58
  3
B7
350
59
  3
B8
350
5A
  3
B9
350
5B
  3
C0
350
5C
  3
C1
350
5D
  3
C2
350
5E
  3
C3
350
5F
  3
C4
350
60
  3
C5
350
61
  3
C6
350
62
  3
C7
350
63
  3
C8
350
64
  3
C9
350
65
  3
D0
350
66
  3
D1
350
67
  3
D2
350
68
  0
XRECORD
  5
2D7
102
{ACAD_REACTORS
330
C
102
}
330
C
100
AcDbXrecord
280
     1
  1
DWGPROPS COOKIE
  2

  3

  4

  6

  7

  8
designer5
  9

300
=
301
=
302
=
303
=
304
=
305
=
306
=
307
=
308
=
309
=
 40
0.0
 41
2460383.350150301
 42
2460383.350150857
  1

 90
        0
  0
LAYOUT
  5
1E
102
{ACAD_REACTORS
330
1A
102
}
330
1A
100
AcDbPlotSettings
  1

  2
none_device
  4

  6

 40
0.0
 41
0.0
 42
0.0
 43
0.0
 44
0.0
 45
0.0
 46
0.0
 47
0.0
 48
0.0
 49
0.0
140
0.0
141
0.0
142
1.0
143
1.0
 70
   688
 72
     1
 73
     0
 74
     5
  7

 75
    16
147
1.0
148
0.0
149
0.0
100
AcDbLayout
  1
Layout1
 70
     1
 71
     1
 10
0.0
 20
0.0
 11
420.0
 21
297.0
 12
0.0
 22
0.0
 32
0.0
 14
1.0000000000E+20
 24
1.0000000000E+20
 34
1.0000000000E+20
 15
-1.0000000000E+20
 25
-1.0000000000E+20
 35
-1.0000000000E+20
146
0.0
 13
0.0
 23
0.0
 33
0.0
 16
1.0
 26
0.0
 36
0.0
 17
0.0
 27
1.0
 37
0.0
 76
     0
330
1B
  0
LAYOUT
  5
26
102
{ACAD_REACTORS
330
1A
102
}
330
1A
100
AcDbPlotSettings
  1

  2
none_device
  4

  6

 40
0.0
 41
0.0
 42
0.0
 43
0.0
 44
0.0
 45
0.0
 46
0.0
 47
0.0
 48
0.0
 49
0.0
140
0.0
141
0.0
142
1.0
143
1.0
 70
   688
 72
     1
 73
     0
 74
     5
  7

 75
    16
147
1.0
148
0.0
149
0.0
100
AcDbLayout
  1
Layout2
 70
     1
 71
     2
 10
0.0
 20
0.0
 11
0.0
 21
0.0
 12
0.0
 22
0.0
 32
0.0
 14
0.0
 24
0.0
 34
0.0
 15
0.0
 25
0.0
 35
0.0
146
0.0
 13
0.0
 23
0.0
 33
0.0
 16
1.0
 26
0.0
 36
0.0
 17
0.0
 27
1.0
 37
0.0
 76
     0
330
23
  0
LAYOUT
  5
22
102
{ACAD_REACTORS
330
1A
102
}
330
1A
100
AcDbPlotSettings
  1

  2
none_device
  4
Letter_(8.50_x_11.00_Inches)
  6

 40
6.35
 41
6.35
 42
6.35000508
 43
6.35000508
 44
215.9
 45
279.4
 46
0.0
 47
0.0
 48
0.0
 49
0.0
140
0.0
141
0.0
142
1.0
143
1.0
 70
  1712
 72
     1
 73
     0
 74
     0
  7

 75
     0
147
1.0
148
0.0
149
0.0
100
AcDbLayout
  1
Model
 70
     1
 71
     0
 10
0.0
 20
0.0
 11
1189.0
 21
841.0
 12
0.0
 22
0.0
 32
0.0
 14
0.0
 24
0.0
 34
0.0
 15
1189.0
 25
841.0
 35
0.0
146
0.0
 13
0.0
 23
0.0
 33
0.0
 16
1.0
 26
0.0
 36
0.0
 17
0.0
 27
1.0
 37
0.0
 76
     0
330
1F
331
29
  0
MLINESTYLE
  5
18
102
{ACAD_REACTORS
330
17
102
}
330
17
100
AcDbMlineStyle
  2
Standard
 70
     0
  3

 62
   256
 51
90.0
 52
90.0
 71
     2
 49
0.5
 62
   256
  6
BYLAYER
 49
-0.5
 62
   256
  6
BYLAYER
  0
ACDBPLACEHOLDER
  5
F
102
{ACAD_REACTORS
330
E
102
}
330
E
  0
SCALE
  5
48
102
{ACAD_REACTORS
330
47
102
}
330
47
100
AcDbScale
 70
     0
300
1:1
140
1.0
141
1.0
290
     1
  0
SCALE
  5
49
102
{ACAD_REACTORS
330
47
102
}
330
47
100
AcDbScale
 70
     0
300
1:2
140
1.0
141
2.0
290
     0
  0
SCALE
  5
4A
102
{ACAD_REACTORS
330
47
102
}
330
47
100
AcDbScale
 70
     0
300
1:4
140
1.0
141
4.0
290
     0
  0
SCALE
  5
4B
102
{ACAD_REACTORS
330
47
102
}
330
47
100
AcDbScale
 70
     0
300
1:5
140
1.0
141
5.0
290
     0
  0
SCALE
  5
4C
102
{ACAD_REACTORS
330
47
102
}
330
47
100
AcDbScale
 70
     0
300
1:8
140
1.0
141
8.0
290
     0
  0
SCALE
  5
4D
102
{ACAD_REACTORS
330
47
102
}
330
47
100
AcDbScale
 70
     0
300
1:10
140
1.0
141
10.0
290
     0
  0
SCALE
  5
4E
102
{ACAD_REACTORS
330
47
102
}
330
47
100
AcDbScale
 70
     0
300
1:16
140
1.0
141
16.0
290
     0
  0
SCALE
  5
4F
102
{ACAD_REACTORS
330
47
102
}
330
47
100
AcDbScale
 70
     0
300
1:20
140
1.0
141
20.0
290
     0
  0
SCALE
  5
50
102
{ACAD_REACTORS
330
47
102
}
330
47
100
AcDbScale
 70
     0
300
1:30
140
1.0
141
30.0
290
     0
  0
SCALE
  5
51
102
{ACAD_REACTORS
330
47
102
}
330
47
100
AcDbScale
 70
     0
300
1:40
140
1.0
141
40.0
290
     0
  0
SCALE
  5
52
102
{ACAD_REACTORS
330
47
102
}
330
47
100
AcDbScale
 70
     0
300
1:50
140
1.0
141
50.0
290
     0
  0
SCALE
  5
53
102
{ACAD_REACTORS
330
47
102
}
330
47
100
AcDbScale
 70
     0
300
1:100
140
1.0
141
100.0
290
     0
  0
SCALE
  5
54
102
{ACAD_REACTORS
330
47
102
}
330
47
100
AcDbScale
 70
     0
300
2:1
140
2.0
141
1.0
290
     0
  0
SCALE
  5
55
102
{ACAD_REACTORS
330
47
102
}
330
47
100
AcDbScale
 70
     0
300
4:1
140
4.0
141
1.0
290
     0
  0
SCALE
  5
56
102
{ACAD_REACTORS
330
47
102
}
330
47
100
AcDbScale
 70
     0
300
8:1
140
8.0
141
1.0
290
     0
  0
SCALE
  5
57
102
{ACAD_REACTORS
330
47
102
}
330
47
100
AcDbScale
 70
     0
300
10:1
140
10.0
141
1.0
290
     0
  0
SCALE
  5
58
102
{ACAD_REACTORS
330
47
102
}
330
47
100
AcDbScale
 70
     0
300
100:1
140
100.0
141
1.0
290
     0
  0
SCALE
  5
59
102
{ACAD_REACTORS
330
47
102
}
330
47
100
AcDbScale
 70
     0
300
1/128" = 1'-0"
140
0.0078125
141
12.0
290
     0
  0
SCALE
  5
5A
102
{ACAD_REACTORS
330
47
102
}
330
47
100
AcDbScale
 70
     0
300
1/64" = 1'-0"
140
0.015625
141
12.0
290
     0
  0
SCALE
  5
5B
102
{ACAD_REACTORS
330
47
102
}
330
47
100
AcDbScale
 70
     0
300
1/32" = 1'-0"
140
0.03125
141
12.0
290
     0
  0
SCALE
  5
5C
102
{ACAD_REACTORS
330
47
102
}
330
47
100
AcDbScale
 70
     0
300
1/16" = 1'-0"
140
0.0625
141
12.0
290
     0
  0
SCALE
  5
5D
102
{ACAD_REACTORS
330
47
102
}
330
47
100
AcDbScale
 70
     0
300
3/32" = 1'-0"
140
0.09375
141
12.0
290
     0
  0
SCALE
  5
5E
102
{ACAD_REACTORS
330
47
102
}
330
47
100
AcDbScale
 70
     0
300
1/8" = 1'-0"
140
0.125
141
12.0
290
     0
  0
SCALE
  5
5F
102
{ACAD_REACTORS
330
47
102
}
330
47
100
AcDbScale
 70
     0
300
3/16" = 1'-0"
140
0.1875
141
12.0
290
     0
  0
SCALE
  5
60
102
{ACAD_REACTORS
330
47
102
}
330
47
100
AcDbScale
 70
     0
300
1/4" = 1'-0"
140
0.25
141
12.0
290
     0
  0
SCALE
  5
61
102
{ACAD_REACTORS
330
47
102
}
330
47
100
AcDbScale
 70
     0
300
3/8" = 1'-0"
140
0.375
141
12.0
290
     0
  0
SCALE
  5
62
102
{ACAD_REACTORS
330
47
102
}
330
47
100
AcDbScale
 70
     0
300
1/2" = 1'-0"
140
0.5
141
12.0
290
     0
  0
SCALE
  5
63
102
{ACAD_REACTORS
330
47
102
}
330
47
100
AcDbScale
 70
     0
300
3/4" = 1'-0"
140
0.75
141
12.0
290
     0
  0
SCALE
  5
64
102
{ACAD_REACTORS
330
47
102
}
330
47
100
AcDbScale
 70
     0
300
1" = 1'-0"
140
1.0
141
12.0
290
     0
  0
SCALE
  5
65
102
{ACAD_REACTORS
330
47
102
}
330
47
100
AcDbScale
 70
     0
300
1-1/2" = 1'-0"
140
1.5
141
12.0
290
     0
  0
SCALE
  5
66
102
{ACAD_REACTORS
330
47
102
}
330
47
100
AcDbScale
 70
     0
300
3" = 1'-0"
140
3.0
141
12.0
290
     0
  0
SCALE
  5
67
102
{ACAD_REACTORS
330
47
102
}
330
47
100
AcDbScale
 70
     0
300
6" = 1'-0"
140
6.0
141
12.0
290
     0
  0
SCALE
  5
68
102
{ACAD_REACTORS
330
47
102
}
330
47
100
AcDbScale
 70
     0
300
1'-0" = 1'-0"
140
12.0
141
12.0
290
     0
  0
ENDSEC
  0
EOF
