  0
SECTION
  2
HEADER
  9
$ACADVER
  1
AC1015
  9
$ACADMAINTVER
 70
     6
  9
$DWGCODEPAGE
  3
ANSI_1252
  9
$INSBASE
 10
0.0
 20
0.0
 30
0.0
  9
$EXTMIN
 10
0.0
 20
0.0
 30
0.0
  9
$EXTMAX
 10
1189.0
 20
841.0
 30
0.0
  9
$LIMMIN
 10
0.0
 20
0.0
  9
$LIMMAX
 10
1189.0
 20
841.0
  9
$ORTHOMODE
 70
     0
  9
$REGENMODE
 70
     1
  9
$FILLMODE
 70
     1
  9
$QTEXTMODE
 70
     0
  9
$MIRRTEXT
 70
     1
  9
$LTSCALE
 40
1.0
  9
$ATTMODE
 70
     1
  9
$TEXTSIZE
 40
3.5
  9
$TRACEWID
 40
1.0
  9
$TEXTSTYLE
  7
Standard
  9
$CLAYER
  8
0
  9
$CELTYPE
  6
ByLayer
  9
$CECOLOR
 62
   256
  9
$CELTSCALE
 40
1.0
  9
$DISPSILH
 70
     0
  9
$DIMSCALE
 40
1.0
  9
$DIMASZ
 40
3.302
  9
$DIMEXO
 40
1.0
  9
$DIMDLI
 40
3.75
  9
$DIMRND
 40
0.0
  9
$DIMDLE
 40
0.0
  9
$DIMEXE
 40
1.0
  9
$DIMTP
 40
0.0
  9
$DIMTM
 40
0.0
  9
$DIMTXT
 40
3.5
  9
$DIMCEN
 40
2.5
  9
$DIMTSZ
 40
0.0
  9
$DIMTOL
 70
     0
  9
$DIMLIM
 70
     0
  9
$DIMTIH
 70
     1
  9
$DIMTOH
 70
     1
  9
$DIMSE1
 70
     0
  9
$DIMSE2
 70
     0
  9
$DIMTAD
 70
     1
  9
$DIMZIN
 70
     1
  9
$DIMBLK
  1

  9
$DIMASO
 70
     1
  9
$DIMSHO
 70
     1
  9
$DIMPOST
  1

  9
$DIMAPOST
  1

  9
$DIMALT
 70
     0
  9
$DIMALTD
 70
     3
  9
$DIMALTF
 40
0.0393700787
  9
$DIMLFAC
 40
2.0
  9
$DIMTOFL
 70
     1
  9
$DIMTVP
 40
0.0
  9
$DIMTIX
 70
     0
  9
$DIMSOXD
 70
     0
  9
$DIMSAH
 70
     0
  9
$DIMBLK1
  1

  9
$DIMBLK2
  1

  9
$DIMSTYLE
  2
ISO-25
  9
$DIMCLRD
 70
     0
  9
$DIMCLRE
 70
     0
  9
$DIMCLRT
 70
     0
  9
$DIMTFAC
 40
1.0
  9
$DIMGAP
 40
1.524
  9
$DIMJUST
 70
     0
  9
$DIMSD1
 70
     0
  9
$DIMSD2
 70
     0
  9
$DIMTOLJ
 70
     0
  9
$DIMTZIN
 70
     1
  9
$DIMALTZ
 70
     0
  9
$DIMALTTZ
 70
     0
  9
$DIMUPT
 70
     0
  9
$DIMDEC
 70
     2
  9
$DIMTDEC
 70
     2
  9
$DIMALTU
 70
     2
  9
$DIMALTTD
 70
     3
  9
$DIMTXSTY
  7
Standard
  9
$DIMAUNIT
 70
     0
  9
$DIMADEC
 70
     2
  9
$DIMALTRND
 40
0.0
  9
$DIMAZIN
 70
     0
  9
$DIMDSEP
 70
    44
  9
$DIMATFIT
 70
     3
  9
$DIMFRAC
 70
     0
  9
$DIMLDRBLK
  1

  9
$DIMLUNIT
 70
     2
  9
$DIMLWD
 70
    -2
  9
$DIMLWE
 70
    -2
  9
$DIMTMOVE
 70
     0
  9
$LUNITS
 70
     2
  9
$LUPREC
 70
     2
  9
$SKETCHINC
 40
1.0
  9
$FILLETRAD
 40
10.0
  9
$AUNITS
 70
     0
  9
$AUPREC
 70
     2
  9
$MENU
  1
.
  9
$ELEVATION
 40
0.0
  9
$PELEVATION
 40
0.0
  9
$THICKNESS
 40
0.0
  9
$LIMCHECK
 70
     0
  9
$CHAMFERA
 40
0.0
  9
$CHAMFERB
 40
0.0
  9
$CHAMFERC
 40
0.0
  9
$CHAMFERD
 40
0.0
  9
$SKPOLY
 70
     0
  9
$TDCREATE
 40
2460383.587997963
  9
$TDUCREATE
 40
2460383.358831296
  9
$TDUPDATE
 40
2460383.587998484
  9
$TDUUPDATE
 40
2460383.358831817
  9
$TDINDWG
 40
0.0000000116
  9
$TDUSRTIMER
 40
0.0000000116
  9
$USRTIMER
 70
     1
  9
$ANGBASE
 50
0.0
  9
$ANGDIR
 70
     0
  9
$PDMODE
 70
     0
  9
$PDSIZE
 40
-1.0
  9
$PLINEWID
 40
0.0
  9
$SPLFRAME
 70
     0
  9
$SPLINETYPE
 70
     6
  9
$SPLINESEGS
 70
     8
  9
$HANDSEED
  5
2DB
  9
$SURFTAB1
 70
     6
  9
$SURFTAB2
 70
     6
  9
$SURFTYPE
 70
     6
  9
$SURFU
 70
     6
  9
$SURFV
 70
     6
  9
$UCSBASE
  2

  9
$UCSNAME
  2

  9
$UCSORG
 10
0.0
 20
0.0
 30
0.0
  9
$UCSXDIR
 10
1.0
 20
0.0
 30
0.0
  9
$UCSYDIR
 10
0.0
 20
1.0
 30
0.0
  9
$UCSORTHOREF
  2

  9
$UCSORTHOVIEW
 70
     0
  9
$UCSORGTOP
 10
0.0
 20
0.0
 30
0.0
  9
$UCSORGBOTTOM
 10
0.0
 20
0.0
 30
0.0
  9
$UCSORGLEFT
 10
0.0
 20
0.0
 30
0.0
  9
$UCSORGRIGHT
 10
0.0
 20
0.0
 30
0.0
  9
$UCSORGFRONT
 10
0.0
 20
0.0
 30
0.0
  9
$UCSORGBACK
 10
0.0
 20
0.0
 30
0.0
  9
$PUCSBASE
  2

  9
$PUCSNAME
  2

  9
$PUCSORG
 10
0.0
 20
0.0
 30
0.0
  9
$PUCSXDIR
 10
1.0
 20
0.0
 30
0.0
  9
$PUCSYDIR
 10
0.0
 20
1.0
 30
0.0
  9
$PUCSORTHOREF
  2

  9
$PUCSORTHOVIEW
 70
     0
  9
$PUCSORGTOP
 10
0.0
 20
0.0
 30
0.0
  9
$PUCSORGBOTTOM
 10
0.0
 20
0.0
 30
0.0
  9
$PUCSORGLEFT
 10
0.0
 20
0.0
 30
0.0
  9
$PUCSORGRIGHT
 10
0.0
 20
0.0
 30
0.0
  9
$PUCSORGFRONT
 10
0.0
 20
0.0
 30
0.0
  9
$PUCSORGBACK
 10
0.0
 20
0.0
 30
0.0
  9
$USERI1
 70
     0
  9
$USERI2
 70
     0
  9
$USERI3
 70
     0
  9
$USERI4
 70
     0
  9
$USERI5
 70
     0
  9
$USERR1
 40
0.0
  9
$USERR2
 40
0.0
  9
$USERR3
 40
0.0
  9
$USERR4
 40
0.0
  9
$USERR5
 40
0.0
  9
$WORLDVIEW
 70
     1
  9
$SHADEDGE
 70
     3
  9
$SHADEDIF
 70
    70
  9
$TILEMODE
 70
     1
  9
$MAXACTVP
 70
    64
  9
$PINSBASE
 10
0.0
 20
0.0
 30
0.0
  9
$PLIMCHECK
 70
     0
  9
$PEXTMIN
 10
1.0000000000E+20
 20
1.0000000000E+20
 30
1.0000000000E+20
  9
$PEXTMAX
 10
-1.0000000000E+20
 20
-1.0000000000E+20
 30
-1.0000000000E+20
  9
$PLIMMIN
 10
0.0
 20
0.0
  9
$PLIMMAX
 10
420.0
 20
297.0
  9
$UNITMODE
 70
     0
  9
$VISRETAIN
 70
     1
  9
$PLINEGEN
 70
     0
  9
$PSLTSCALE
 70
     1
  9
$TREEDEPTH
 70
  3020
  9
$CMLSTYLE
  2
Standard
  9
$CMLJUST
 70
     0
  9
$CMLSCALE
 40
20.0
  9
$PROXYGRAPHICS
 70
     1
  9
$MEASUREMENT
 70
     1
  9
$CELWEIGHT
370
    -1
  9
$ENDCAPS
280
     0
  9
$JOINSTYLE
280
     0
  9
$LWDISPLAY
290
     1
  9
$INSUNITS
 70
     4
  9
$HYPERLINKBASE
  1

  9
$STYLESHEET
  1

  9
$XEDIT
290
     1
  9
$CEPSNTYPE
380
     0
  9
$PSTYLEMODE
290
     1
  9
$FINGERPRINTGUID
  2
{38fb2e60-4a92-4288-b422-bd427b33d9d3}
  9
$VERSIONGUID
  2
{FAEB1C32-E019-11D5-929B-00C0DF256EC4}
  9
$EXTNAMES
290
     1
  9
$PSVPSCALE
 40
0.0
  9
$OLESTARTUP
290
     0
  0
ENDSEC
  0
SECTION
  2
CLASSES
  0
CLASS
  1
ACDBDICTIONARYWDFLT
  2
AcDbDictionaryWithDefault
  3
ObjectDBX Classes
 90
        0
280
     0
281
     0
  0
CLASS
  1
VISUALSTYLE
  2
AcDbVisualStyle
  3
ObjectDBX Classes
 90
     4095
280
     0
281
     0
  0
CLASS
  1
MATERIAL
  2
AcDbMaterial
  3
ObjectDBX Classes
 90
     1153
280
     0
281
     0
  0
CLASS
  1
SCALE
  2
AcDbScale
  3
ObjectDBX Classes
 90
     1153
280
     0
281
     0
  0
CLASS
  1
TABLESTYLE
  2
AcDbTableStyle
  3
ObjectDBX Classes
 90
     4095
280
     0
281
     0
  0
CLASS
  1
MLEADERSTYLE
  2
AcDbMLeaderStyle
  3
ACDB_MLEADERSTYLE_CLASS
 90
     4095
280
     0
281
     0
  0
CLASS
  1
SUN
  2
AcDbSun
  3
SCENEOE
 90
     1153
280
     0
281
     0
  0
CLASS
  1
ACDBPLACEHOLDER
  2
AcDbPlaceHolder
  3
ObjectDBX Classes
 90
        0
280
     0
281
     0
  0
CLASS
  1
LAYOUT
  2
AcDbLayout
  3
ObjectDBX Classes
 90
        0
280
     0
281
     0
  0
ENDSEC
  0
SECTION
  2
TABLES
  0
TABLE
  2
VPORT
  5
8
330
0
100
AcDbSymbolTable
 70
     1
  0
VPORT
  5
29
330
8
100
AcDbSymbolTableRecord
100
AcDbViewportTableRecord
  2
*Active
 70
     0
 10
0.0
 20
0.0
 11
1.0
 21
1.0
 12
594.5
 22
420.5
 13
0.0
 23
0.0
 14
10.0
 24
10.0
 15
10.0
 25
10.0
 16
0.0
 26
0.0
 36
1.0
 17
0.0
 27
0.0
 37
0.0
 40
841.0
 41
1.4137931034
 42
50.0
 43
0.0
 44
0.0
 50
0.0
 51
0.0
 71
     0
 72
  2000
 73
     1
 74
     3
 75
     0
 76
     0
 77
     0
 78
     0
281
     0
 65
     1
110
0.0
120
0.0
130
0.0
111
1.0
121
0.0
131
0.0
112
0.0
122
1.0
132
0.0
 79
     0
146
0.0
  0
ENDTAB
  0
TABLE
  2
LTYPE
  5
5
330
0
100
AcDbSymbolTable
 70
     6
  0
LTYPE
  5
14
330
5
100
AcDbSymbolTableRecord
100
AcDbLinetypeTableRecord
  2
ByBlock
 70
     0
  3

 72
    65
 73
     0
 40
0.0
  0
LTYPE
  5
15
330
5
100
AcDbSymbolTableRecord
100
AcDbLinetypeTableRecord
  2
ByLayer
 70
     0
  3

 72
    65
 73
     0
 40
0.0
  0
LTYPE
  5
16
330
5
100
AcDbSymbolTableRecord
100
AcDbLinetypeTableRecord
  2
Continuous
 70
     0
  3
Solid line
 72
    65
 73
     0
 40
0.0
  0
LTYPE
  5
6E
330
5
100
AcDbSymbolTableRecord
100
AcDbLinetypeTableRecord
  2
HIDDEN
 70
     0
  3
Hidden __ __ __ __ __ __ __ __ __ __ __ __ __ __
 72
    65
 73
     2
 40
1.905
 49
1.27
 74
     0
 49
-0.635
 74
     0
  0
LTYPE
  5
6F
330
5
100
AcDbSymbolTableRecord
100
AcDbLinetypeTableRecord
  2
PHANTOM
 70
     0
  3
Phantom ______  __  __  ______  __  __  ______
 72
    65
 73
     6
 40
12.7
 49
6.35
 74
     0
 49
-1.27
 74
     0
 49
1.27
 74
     0
 49
-1.27
 74
     0
 49
1.27
 74
     0
 49
-1.27
 74
     0
  0
LTYPE
  5
70
330
5
100
AcDbSymbolTableRecord
100
AcDbLinetypeTableRecord
  2
CENTER
 70
     0
  3
Center ____ _ ____ _ ____ _ ____ _ ____ _ ____
 72
    65
 73
     4
 40
10.16
 49
6.35
 74
     0
 49
-1.27
 74
     0
 49
1.27
 74
     0
 49
-1.27
 74
     0
  0
LTYPE
  5
71
330
5
100
AcDbSymbolTableRecord
100
AcDbLinetypeTableRecord
  2
CENTERX2
 70
     0
  3
Center (2x) ________  __  ________  __  _____
 72
    65
 73
     4
 40
20.32
 49
12.7
 74
     0
 49
-2.54
 74
     0
 49
2.54
 74
     0
 49
-2.54
 74
     0
  0
LTYPE
  5
72
330
5
100
AcDbSymbolTableRecord
100
AcDbLinetypeTableRecord
  2
DOT2
 70
     0
  3
Dot (.5x) ........................................
 72
    65
 73
     2
 40
0.635
 49
0.0
 74
     0
 49
-0.635
 74
     0
  0
ENDTAB
  0
TABLE
  2
LAYER
  5
2
330
0
100
AcDbSymbolTable
 70
     1
  0
LAYER
  5
10
330
2
100
AcDbSymbolTableRecord
100
AcDbLayerTableRecord
  2
0
 70
     0
 62
     7
  6
Continuous
370
    -3
390
F
  0
ENDTAB
  0
TABLE
  2
STYLE
  5
3
330
0
100
AcDbSymbolTable
 70
     1
  0
STYLE
  5
11
330
3
100
AcDbSymbolTableRecord
100
AcDbTextStyleTableRecord
  2
Standard
 70
     0
 40
0.0
 41
1.0
 50
0.0
 71
     0
 42
3.5
  3
txt
  4

  0
ENDTAB
  0
TABLE
  2
VIEW
  5
6
330
0
100
AcDbSymbolTable
 70
     0
  0
ENDTAB
  0
TABLE
  2
UCS
  5
7
330
0
100
AcDbSymbolTable
 70
     0
  0
ENDTAB
  0
TABLE
  2
APPID
  5
9
330
0
100
AcDbSymbolTable
 70
     1
  0
APPID
  5
12
330
9
100
AcDbSymbolTableRecord
100
AcDbRegAppTableRecord
  2
ACAD
 70
     0
  0
ENDTAB
  0
TABLE
  2
DIMSTYLE
  5
A
330
0
100
AcDbSymbolTable
 70
     1
100
AcDbDimStyleTable
  0
DIMSTYLE
105
27
330
A
100
AcDbSymbolTableRecord
100
AcDbDimStyleTableRecord
  2
ISO-25
 70
     0
 41
2.5
 42
0.625
 43
3.75
 44
1.25
 73
     0
 74
     0
 77
     1
 78
     8
140
2.5
141
2.5
143
0.0393700787
147
0.625
171
     3
172
     1
178
     0
271
     2
272
     2
274
     3
278
    44
283
     0
284
     8
340
11
  0
ENDTAB
  0
TABLE
  2
BLOCK_RECORD
  5
1
330
0
100
AcDbSymbolTable
 70
     1
  0
BLOCK_RECORD
  5
1F
330
1
100
AcDbSymbolTableRecord
100
AcDbBlockTableRecord
  2
*Model_Space
340
22
  0
BLOCK_RECORD
  5
1B
330
1
100
AcDbSymbolTableRecord
100
AcDbBlockTableRecord
  2
*Paper_Space
340
1E
  0
BLOCK_RECORD
  5
23
330
1
100
AcDbSymbolTableRecord
100
AcDbBlockTableRecord
  2
*Paper_Space0
340
26
  0
ENDTAB
  0
ENDSEC
  0
SECTION
  2
BLOCKS
  0
BLOCK
  5
20
330
1F
100
AcDbEntity
  8
0
100
AcDbBlockBegin
  2
*Model_Space
 70
     0
 10
0.0
 20
0.0
 30
0.0
  3
*Model_Space
  1

  0
ENDBLK
  5
21
330
1F
100
AcDbEntity
  8
0
100
AcDbBlockEnd
  0
BLOCK
  5
1C
330
1B
100
AcDbEntity
 67
     1
  8
0
100
AcDbBlockBegin
  2
*Paper_Space
 70
     0
 10
0.0
 20
0.0
 30
0.0
  3
*Paper_Space
  1

  0
ENDBLK
  5
1D
330
1B
100
AcDbEntity
 67
     1
  8
0
100
AcDbBlockEnd
  0
BLOCK
  5
24
330
23
100
AcDbEntity
  8
0
100
AcDbBlockBegin
  2
*Paper_Space0
 70
     0
 10
0.0
 20
0.0
 30
0.0
  3
*Paper_Space0
  1

  0
ENDBLK
  5
25
330
23
100
AcDbEntity
  8
0
100
AcDbBlockEnd
  0
ENDSEC
  0
SECTION
  2
ENTITIES
  0
LINE
  5
73
330
1F
100
AcDbEntity
  8
0
  6
Continuous
 62
     7
370
    25
100
AcDbLine
 10
589.1977034979
 20
546.3369598754
 30
0.0
 11
589.1977034979
 21
545.5398767709
 31
0.0
  0
LINE
  5
74
330
1F
100
AcDbEntity
  8
0
  6
Continuous
 62
     7
370
    25
100
AcDbLine
 10
612.2977034979
 20
545.5398767709
 30
0.0
 11
612.2977034979
 21
546.3369598754
 31
0.0
  0
SPLINE
  5
75
330
1F
100
AcDbEntity
  8
0
  6
Continuous
 62
     7
370
    25
100
AcDbSpline
210
0.0
220
0.0
230
1.0
 70
    24
 71
     3
 72
    41
 73
    37
 74
     0
 42
0.00000001
 43
0.00000001
 40
0.0
 40
0.0
 40
0.0
 40
0.0
 40
0.0363374710680836
 40
0.0700686291170852
 40
0.101190228782661
 40
0.1297024682604437
 40
0.155604519796452
 40
0.178897219366109
 40
0.2034016039225563
 40
0.2241569372862595
 40
0.2433996006094263
 40
0.262835552210163
 40
0.2824640792909814
 40
0.3155991002097087
 40
0.3492637916673673
 40
0.3831237485015431
 40
0.4169836212041301
 40
0.4508444844397798
 40
0.4847045508949416
 40
0.5185645068107533
 40
0.5524246906607645
 40
0.5862855139150659
 40
0.6197475112870571
 40
0.6518378443285906
 40
0.682512238760787
 40
0.700240927471241
 40
0.717869148841116
 40
0.7388560147888562
 40
0.763984289280067
 40
0.7932524463397126
 40
0.8208085500896285
 40
0.8512390001534822
 40
0.8845433867084592
 40
0.9207207200217254
 40
0.9597726299318855
 40
0.9999999999999999
 40
0.9999999999999999
 40
0.9999999999999999
 40
0.9999999999999999
 10
592.8477034978752
 20
543.6793853590276
 30
0.0
 10
592.8477034978752
 20
543.437420760814
 30
0.0
 10
592.8477034978752
 20
542.9708465278432
 30
0.0
 10
592.8477034978752
 20
541.3233679393627
 30
0.0
 10
592.8477034978752
 20
539.2196914062644
 30
0.0
 10
592.8477034978752
 20
536.7643973250221
 30
0.0
 10
592.8477034978752
 20
534.1202204188108
 30
0.0
 10
592.8477034978752
 20
531.2729062652193
 30
0.0
 10
592.8477034978752
 20
528.3326068141246
 30
0.0
 10
592.8477034978752
 20
525.3199012066267
 30
0.0
 10
592.8477034978752
 20
522.3529296403822
 30
0.0
 10
592.8477034978752
 20
519.2690019917476
 30
0.0
 10
592.8477034978752
 20
515.2484013123344
 30
0.0
 10
592.8477034978752
 20
510.1314923342617
 30
0.0
 10
592.8477034978752
 20
503.7890072800561
 30
0.0
 10
592.8477034978752
 20
497.0724115757278
 30
0.0
 10
592.8477034978752
 20
490.0820634387695
 30
0.0
 10
592.8477034978752
 20
482.9076726822601
 30
0.0
 10
592.8477034978752
 20
475.6229081089882
 30
0.0
 10
592.8477034978752
 20
468.3029743262344
 30
0.0
 10
592.8477034978752
 20
461.0255620031925
 30
0.0
 10
592.8477034978752
 20
453.8936268894112
 30
0.0
 10
592.8477034978752
 20
447.0724331146865
 30
0.0
 10
592.8477034978752
 20
440.7152914219126
 30
0.0
 10
592.8477034978752
 20
435.6406708516419
 30
0.0
 10
592.8477034978752
 20
431.660051169515
 30
0.0
 10
592.8477034978752
 20
428.3855248231847
 30
0.0
 10
592.8477034978752
 20
424.843689790782
 30
0.0
 10
592.8477034978752
 20
420.9061135559793
 30
0.0
 10
592.8477034978752
 20
416.9737366554578
 30
0.0
 10
592.8477034978752
 20
413.2024367012464
 30
0.0
 10
592.8477034978752
 20
409.7280198144759
 30
0.0
 10
592.8477034978752
 20
406.5266970785232
 30
0.0
 10
592.8477034978752
 20
403.822304439225
 30
0.0
 10
592.8477034978752
 20
401.7667246215245
 30
0.0
 10
592.8477034978752
 20
401.2365170336135
 30
0.0
 10
592.8477034978752
 20
400.9674825916047
 30
0.0
  0
SPLINE
  5
76
330
1F
100
AcDbEntity
  8
0
  6
Continuous
 62
     7
370
    25
100
AcDbSpline
210
0.0
220
0.0
230
1.0
 70
    24
 71
     3
 72
    42
 73
    38
 74
     0
 42
0.00000001
 43
0.00000001
 40
0.0
 40
0.0
 40
0.0
 40
0.0
 40
0.0346410723038494
 40
0.068370357277431
 40
0.0994894456750951
 40
0.1280001167985724
 40
0.153901338097465
 40
0.1771932453938797
 40
0.201696888272653
 40
0.2224516628174009
 40
0.241693657000442
 40
0.2611289718792815
 40
0.2807568417808428
 40
0.3138907322663835
 40
0.3475544105027519
 40
0.3814132993585462
 40
0.4152720850106705
 40
0.4491318665906139
 40
0.4829909293653015
 40
0.5168498212192392
 40
0.5507088785443867
 40
0.5845686618364708
 40
0.6180296518610975
 40
0.6501190477394362
 40
0.6807924999718441
 40
0.6985206970806901
 40
0.7161483938706624
 40
0.7371345388059344
 40
0.7622619962262648
 40
0.7915292085896783
 40
0.8190844696115908
 40
0.8495140968507182
 40
0.8828175889182936
 40
0.909687213586251
 40
0.9381747325679767
 40
0.9682796674526992
 40
1.0
 40
1.0
 40
1.0
 40
1.0
 10
608.6477034978752
 20
400.9643820709791
 30
0.0
 10
608.6477034978752
 20
401.1839685046613
 30
0.0
 10
608.6477034978752
 20
401.6173616396212
 30
0.0
 10
608.6477034978752
 20
403.2064180068692
 30
0.0
 10
608.6477034978752
 20
405.276227279071
 30
0.0
 10
608.6477034978752
 20
407.7027941597601
 30
0.0
 10
608.6477034978752
 20
410.3214584395298
 30
0.0
 10
608.6477034978752
 20
413.145988452904
 30
0.0
 10
608.6477034978752
 20
416.0661047244839
 30
0.0
 10
608.6477034978752
 20
419.0607750569326
 30
0.0
 10
608.6477034978752
 20
422.0118996854766
 30
0.0
 10
608.6477034978752
 20
425.0810422919632
 30
0.0
 10
608.6477034978752
 20
429.0847449060319
 30
0.0
 10
608.6477034978752
 20
434.1835356063499
 30
0.0
 10
608.6477034978752
 20
440.5080575780246
 30
0.0
 10
608.6477034978752
 20
447.2096949951406
 30
0.0
 10
608.6477034978752
 20
454.1888496497953
 30
0.0
 10
608.6477034978752
 20
461.3557897760947
 30
0.0
 10
608.6477034978752
 20
468.6367934962549
 30
0.0
 10
608.6477034978752
 20
475.9568156767381
 30
0.0
 10
608.6477034978752
 20
483.2381557364409
 30
0.0
 10
608.6477034978752
 20
490.3776780333789
 30
0.0
 10
608.6477034978752
 20
497.2099807751531
 30
0.0
 10
608.6477034978752
 20
503.5813464758009
 30
0.0
 10
608.6477034978752
 20
508.6701788129573
 30
0.0
 10
608.6477034978752
 20
512.6639404518191
 30
0.0
 10
608.6477034978752
 20
515.9506006139056
 30
0.0
 10
608.6477034978752
 20
519.5073049162811
 30
0.0
 10
608.6477034978752
 20
523.4641588233195
 30
0.0
 10
608.6477034978752
 20
527.4190166658345
 30
0.0
 10
608.6477034978752
 20
531.2155824779142
 30
0.0
 10
608.6477034978752
 20
534.7193056702341
 30
0.0
 10
608.6477034978752
 20
537.6488680760156
 30
0.0
 10
608.6477034978752
 20
539.9848446391276
 30
0.0
 10
608.6477034978752
 20
541.741627945738
 30
0.0
 10
608.6477034978752
 20
543.0831939756896
 30
0.0
 10
608.6477034978752
 20
543.477223109328
 30
0.0
 10
608.6477034978752
 20
543.6793853590276
 30
0.0
  0
LINE
  5
77
330
1F
100
AcDbEntity
  8
0
  6
Continuous
 62
     7
370
    25
100
AcDbLine
 10
608.6477034979
 20
543.679385359
 30
0.0
 11
608.6477034979
 21
545.3966723289
 31
0.0
  0
LINE
  5
78
330
1F
100
AcDbEntity
  8
0
  6
Continuous
 62
     7
370
    25
100
AcDbLine
 10
592.8477034979
 20
545.3966723289
 30
0.0
 11
592.8477034979
 21
543.679385359
 31
0.0
  0
SPLINE
  5
79
330
1F
100
AcDbEntity
  8
0
  6
Continuous
 62
     7
370
    25
100
AcDbSpline
210
0.0
220
0.0
230
1.0
 70
     8
 71
     3
 72
    10
 73
     6
 74
     0
 42
0.00000001
 43
0.00000001
 40
0.0
 40
0.0
 40
0.0
 40
0.0
 40
0.2622188185037926
 40
0.6688839550002181
 40
1.0
 40
1.0
 40
1.0
 40
1.0
 10
441.7257656258921
 20
398.1435365485663
 30
0.0
 10
441.7268931161725
 20
398.1110191506905
 30
0.0
 10
441.7297691880058
 20
398.0280717641469
 30
0.0
 10
441.7882655531612
 20
397.9139906983081
 30
0.0
 10
441.8503496000669
 20
397.8482368833488
 30
0.0
 10
441.8782129077583
 20
397.8187265844975
 30
0.0
  0
SPLINE
  5
7A
330
1F
100
AcDbEntity
  8
0
  6
Continuous
 62
     7
370
    25
100
AcDbSpline
210
0.0
220
0.0
230
1.0
 70
     8
 71
     3
 72
    17
 73
    13
 74
     0
 42
0.00000001
 43
0.00000001
 40
0.0
 40
0.0
 40
0.0
 40
0.0
 40
0.1727939157605183
 40
0.4670908646424579
 40
0.583603646444574
 40
0.6237329378319875
 40
0.6617158152047086
 40
0.7176264960717891
 40
0.7837734229449143
 40
0.8640117675634597
 40
0.9541263261861319
 40
1.0
 40
1.0
 40
1.0
 40
1.0
 10
442.730161779202
 20
404.2528462350464
 30
0.0
 10
442.6463681763323
 20
404.2468690649874
 30
0.0
 10
442.4198600481746
 20
404.2307117742712
 30
0.0
 10
442.2412556781464
 20
404.2139376313672
 30
0.0
 10
442.1592876951927
 20
404.2040203410983
 30
0.0
 10
442.0974567663375
 20
404.1914879511399
 30
0.0
 10
442.0288291802475
 20
404.1708667903786
 30
0.0
 10
441.9357095251496
 20
404.1247703487074
 30
0.0
 10
441.8334692841291
 20
404.0386567085346
 30
0.0
 10
441.7487706557
 20
403.9070198620214
 30
0.0
 10
441.7055786169498
 20
403.7652313959978
 30
0.0
 10
441.7206362561877
 20
403.6764935467291
 30
0.0
 10
441.7257157341575
 20
403.646559109908
 30
0.0
  0
LINE
  5
7B
330
1F
100
AcDbEntity
  8
0
  6
Continuous
 62
     7
370
    25
100
AcDbLine
 10
442.7301617792
 20
397.6393721344
 30
0.0
 11
446.2134824701
 21
397.397204606
 31
0.0
  0
LINE
  5
7C
330
1F
100
AcDbEntity
  8
0
  6
Continuous
 62
     7
370
    25
100
AcDbLine
 10
446.2134824701
 20
404.4950137634
 30
0.0
 11
442.7301617792
 21
404.252846235
 31
0.0
  0
ARC
  5
7D
330
1F
100
AcDbEntity
  8
0
  6
Continuous
 62
     7
370
    25
100
AcDbCircle
 10
499.1477034979
 20
400.9461091847
 30
0.0
 40
9.141196303513993
100
AcDbArc
 50
295.4997205711
 51
0.0
  0
ARC
  5
7E
330
1F
100
AcDbEntity
  8
0
  6
Continuous
 62
     7
370
    25
100
AcDbCircle
 10
499.1477034979
 20
400.9461091847
 30
0.0
 40
9.141196303513993
100
AcDbArc
 50
0.0
 51
64.5151708762
  0
SPLINE
  5
7F
330
1F
100
AcDbEntity
  8
0
  6
Continuous
 62
     7
370
    25
100
AcDbSpline
210
0.0
220
0.0
230
1.0
 70
     8
 71
     3
 72
    17
 73
    13
 74
     0
 42
0.00000001
 43
0.00000001
 40
0.0
 40
0.0
 40
0.0
 40
0.0
 40
0.1727939157605071
 40
0.4670908646424614
 40
0.5836036464445793
 40
0.6237329378319897
 40
0.6617158152047061
 40
0.7176264960718054
 40
0.7837734229449138
 40
0.8640117675634585
 40
0.9541263261861322
 40
1.0
 40
1.0
 40
1.0
 40
1.0
 10
758.7652452165486
 20
397.8847934231834
 30
0.0
 10
758.8490388194182
 20
397.8907705932423
 30
0.0
 10
759.0755469475758
 20
397.9069278839584
 30
0.0
 10
759.2541513176043
 20
397.9237020268625
 30
0.0
 10
759.3361193005577
 20
397.9336193171313
 30
0.0
 10
759.397950229413
 20
397.9461517070898
 30
0.0
 10
759.466577815503
 20
397.9667728678511
 30
0.0
 10
759.5596974706008
 20
398.0128693095225
 30
0.0
 10
759.6619377116215
 20
398.0989829496949
 30
0.0
 10
759.7466363400505
 20
398.2306197962083
 30
0.0
 10
759.7898283788007
 20
398.3724082622319
 30
0.0
 10
759.7747707395628
 20
398.4611461115006
 30
0.0
 10
759.769691261593
 20
398.4910805483217
 30
0.0
  0
SPLINE
  5
80
330
1F
100
AcDbEntity
  8
0
  6
Continuous
 62
     7
370
    25
100
AcDbSpline
210
0.0
220
0.0
230
1.0
 70
     8
 71
     3
 72
    10
 73
     6
 74
     0
 42
0.00000001
 43
0.00000001
 40
0.0
 40
0.0
 40
0.0
 40
0.0
 40
0.2622188185039399
 40
0.668883955000206
 40
1.0
 40
1.0
 40
1.0
 40
1.0
 10
759.7696413698585
 20
403.9941031096635
 30
0.0
 10
759.7685138795779
 20
404.0266205075392
 30
0.0
 10
759.7656378077446
 20
404.1095678940829
 30
0.0
 10
759.7071414425893
 20
404.2236489599215
 30
0.0
 10
759.6450573956837
 20
404.2894027748808
 30
0.0
 10
759.6171940879922
 20
404.3189130737322
 30
0.0
  0
LINE
  5
81
330
1F
100
AcDbEntity
  8
0
  6
Continuous
 62
     7
370
    25
100
AcDbLine
 10
755.2819245257
 20
397.6426258948
 30
0.0
 11
758.7652452165
 21
397.8847934232
 31
0.0
  0
LINE
  5
82
330
1F
100
AcDbEntity
  8
0
  6
Continuous
 62
     7
370
    25
100
AcDbLine
 10
758.7652452165
 20
404.4982675239
 30
0.0
 11
755.2819245257
 21
404.7404350523
 31
0.0
  0
ARC
  5
83
330
1F
100
AcDbEntity
  8
0
  6
Continuous
 62
     7
370
    25
100
AcDbCircle
 10
710.4567187031
 20
398.2196359977
 30
0.0
 40
8.999995138923067
100
AcDbArc
 50
257.1419190681
 51
270.0
  0
ARC
  5
84
330
1F
100
AcDbEntity
  8
0
  6
Continuous
 62
     7
370
    25
100
AcDbCircle
 10
710.4567187031
 20
398.2196359977
 30
0.0
 40
8.999995138923058
100
AcDbArc
 50
270.0
 51
305.1719294169
  0
SPLINE
  5
85
330
1F
100
AcDbEntity
  8
0
  6
Continuous
 62
     7
370
    25
100
AcDbSpline
210
0.0
220
0.0
230
1.0
 70
     8
 71
     3
 72
    13
 73
     9
 74
     0
 42
0.00000001
 43
0.00000001
 40
0.0
 40
0.0
 40
0.0
 40
0.0
 40
0.0007186627104148
 40
0.1785341469948719
 40
0.3637571166060776
 40
0.5801125011165944
 40
0.9026350669060044
 40
1.0
 40
1.0
 40
1.0
 40
1.0
 10
690.9567313148658
 20
414.3942008311903
 30
0.0
 10
690.9557894054605
 20
414.3935086190645
 30
0.0
 10
690.7217950854694
 20
414.2215454719282
 30
0.0
 10
690.2073526435631
 20
413.9128252666927
 30
0.0
 10
689.3527146603284
 20
413.4991357189892
 30
0.0
 10
688.2241184820621
 20
413.1332182860588
 30
0.0
 10
687.1875180772585
 20
412.9311301099133
 30
0.0
 10
686.5001313131976
 20
412.9625985544976
 30
0.0
 10
686.3407377459433
 20
412.9698955638386
 30
0.0
  0
SPLINE
  5
86
330
1F
100
AcDbEntity
  8
0
  6
Continuous
 62
     7
370
    25
100
AcDbSpline
210
0.0
220
0.0
230
1.0
 70
     8
 71
     3
 72
    14
 73
    10
 74
     0
 42
0.00000001
 43
0.00000001
 40
0.0
 40
0.0
 40
0.0
 40
0.0
 40
0.1325509017266857
 40
0.3457649518435262
 40
0.5395514630974912
 40
0.7110476518793796
 40
0.856402589898488
 40
0.9710118721765392
 40
1.0
 40
1.0
 40
1.0
 40
1.0
 10
515.1799013656059
 20
412.9638898775301
 30
0.0
 10
514.9614843351408
 20
412.9599183001461
 30
0.0
 10
514.3917337484846
 20
412.9495582630204
 30
0.0
 10
513.5098964208042
 20
413.0922772022584
 30
0.0
 10
512.5894587730425
 20
413.3401292079789
 30
0.0
 10
511.8070089569807
 20
413.6531957723461
 30
0.0
 10
511.1769805569123
 20
413.9818572095019
 30
0.0
 10
510.770175557746
 20
414.2304438946894
 30
0.0
 10
510.5786123925273
 20
414.368119834508
 30
0.0
 10
510.539941378087
 20
414.3959125902329
 30
0.0
  0
SPLINE
  5
87
330
1F
100
AcDbEntity
  8
0
  6
Continuous
 62
     7
370
    25
100
AcDbSpline
210
0.0
220
0.0
230
1.0
 70
     8
 71
     3
 72
    15
 73
    11
 74
     0
 42
0.00000001
 43
0.00000001
 40
0.0
 40
0.0
 40
0.0
 40
0.0
 40
0.031564644960758
 40
0.246476998307551
 40
0.4431799498000285
 40
0.6192216771883615
 40
0.7711727359126629
 40
0.8945780980974508
 40
0.9828401859282406
 40
1.0
 40
1.0
 40
1.0
 40
1.0
 10
686.3668030946088
 20
388.9372278237493
 30
0.0
 10
686.4198553326551
 20
388.9404805186339
 30
0.0
 10
686.8341212432449
 20
388.9658796470762
 30
0.0
 10
687.5804926969458
 20
388.8686358767571
 30
0.0
 10
688.5485938199458
 20
388.6648089634879
 30
0.0
 10
689.3836874770863
 20
388.3711280487288
 30
0.0
 10
690.0741578719358
 20
388.0471637992693
 30
0.0
 10
690.5990038734483
 20
387.7418366825184
 30
0.0
 10
690.9274262298807
 20
387.5221936971724
 30
0.0
 10
691.06003855664
 20
387.4243919543374
 30
0.0
 10
691.0816242312459
 20
387.4084724945984
 30
0.0
  0
SPLINE
  5
88
330
1F
100
AcDbEntity
  8
0
  6
Continuous
 62
     7
370
    25
100
AcDbSpline
210
0.0
220
0.0
230
1.0
 70
     8
 71
     3
 72
    13
 73
     9
 74
     0
 42
0.00000001
 43
0.00000001
 40
0.0
 40
0.0
 40
0.0
 40
0.0
 40
0.0165387202864407
 40
0.1335378340025712
 40
0.30279897206177
 40
0.5104471605131065
 40
0.771514847489708
 40
1.0
 40
1.0
 40
1.0
 40
1.0
 10
510.4137830891498
 20
387.4084809495415
 30
0.0
 10
510.4345502952872
 20
387.4238019927616
 30
0.0
 10
510.6022299995111
 20
387.5475079924298
 30
0.0
 10
511.0418007198503
 20
387.8360445154909
 30
0.0
 10
511.7671672724098
 20
388.2275455728991
 30
0.0
 10
512.7719343730081
 20
388.6194883654319
 30
0.0
 10
513.9190976534162
 20
388.9022041621897
 30
0.0
 10
514.744773431125
 20
388.9198131466569
 30
0.0
 10
515.1301346031521
 20
388.9280316497009
 30
0.0
  0
LINE
  5
89
330
1F
100
AcDbEntity
  8
0
  6
Continuous
 62
     7
370
    25
100
AcDbLine
 10
592.8477034979
 20
412.9461091847
 30
0.0
 11
515.1792912935
 21
412.9461091847
 31
0.0
  0
LINE
  5
8A
330
1F
100
AcDbEntity
  8
0
  6
Continuous
 62
     7
370
    25
100
AcDbLine
 10
686.338853548
 20
412.9461091847
 30
0.0
 11
609.219379987
 21
412.9461091847
 31
0.0
  0
LINE
  5
8B
330
1F
100
AcDbEntity
  8
0
  6
Continuous
 62
     7
370
    25
100
AcDbLine
 10
608.6153117678
 20
388.9461091847
 30
0.0
 11
686.3677160135
 21
388.9461091847
 31
0.0
  0
LINE
  5
8C
330
1F
100
AcDbEntity
  8
0
  6
Continuous
 62
     7
370
    25
100
AcDbLine
 10
515.1276909822
 20
388.9461091847
 30
0.0
 11
592.2760270087
 21
388.9461091847
 31
0.0
  0
ARC
  5
8D
330
1F
100
AcDbEntity
  8
0
  6
Continuous
 62
     7
370
    25
100
AcDbCircle
 10
600.7476152684
 20
545.5433726554
 30
0.0
 40
11.54125714343667
100
AcDbArc
 50
313.5202435082
 51
226.1148034924
  0
LWPOLYLINE
  5
8E
330
1F
100
AcDbEntity
  8
0
  6
Continuous
 62
     7
370
    25
100
AcDbPolyline
 90
        3
 70
   128
 43
0.0
 10
590.9343602376
 20
541.8121013187
 10
591.7877080045
 20
540.0757400135
 10
592.8376824452
 20
538.6475722679
  0
ARC
  5
8F
330
1F
100
AcDbEntity
  8
0
  6
Continuous
 62
     7
370
    25
100
AcDbCircle
 10
600.7439838922
 20
545.5379790482
 30
0.0
 40
10.49337319931336
100
AcDbArc
 50
319.645473084
 51
200.7977095079
  0
ARC
  5
90
330
1F
100
AcDbEntity
  8
0
  6
Continuous
 62
     7
370
    25
100
AcDbCircle
 10
600.7477034979
 20
546.3205335125
 30
0.0
 40
11.55001168074743
100
AcDbArc
 50
0.081485769
 51
179.918514231
  0
SPLINE
  5
91
330
1F
100
AcDbEntity
  8
0
  6
Continuous
 62
     7
370
    25
100
AcDbSpline
210
0.0
220
0.0
230
1.0
 70
     8
 71
     3
 72
     9
 73
     5
 74
     0
 42
0.00000001
 43
0.00000001
 40
0.0
 40
0.0
 40
0.0
 40
0.0
 40
0.7403514143772566
 40
1.0
 40
1.0
 40
1.0
 40
1.0
 10
590.9343602376308
 20
541.8121013186615
 30
0.0
 10
590.627445646664
 20
542.7170118109872
 30
0.0
 10
590.2128930639221
 20
543.9392833900682
 30
0.0
 10
590.3109156570682
 20
545.2095137805636
 30
0.0
 10
590.3363670847377
 20
545.5393273048707
 30
0.0
  0
ARC
  5
92
330
1F
100
AcDbEntity
  8
0
  6
Continuous
 62
     7
370
    25
100
AcDbCircle
 10
600.7477034979
 20
400.9461091847
 30
0.0
 40
9.925000000000127
100
AcDbArc
 50
143.0781877423
 51
247.9957718913
  0
ARC
  5
93
330
1F
100
AcDbEntity
  8
0
  6
Continuous
 62
     7
370
    25
100
AcDbCircle
 10
600.7477034979
 20
400.9461091847
 30
0.0
 40
9.924999999999985
100
AcDbArc
 50
247.9957718913
 51
36.9465697594
  0
ARC
  5
94
330
1F
100
AcDbEntity
  8
0
  6
Continuous
 62
     7
370
    25
100
AcDbCircle
 10
600.7477034979
 20
400.9461091847
 30
0.0
 40
9.725000000000007
100
AcDbArc
 50
247.9957718913
 51
34.8704944932
  0
ARC
  5
95
330
1F
100
AcDbEntity
  8
0
  6
Continuous
 62
     7
370
    25
100
AcDbCircle
 10
600.7477034979
 20
400.9461091847
 30
0.0
 40
9.725000000000126
100
AcDbArc
 50
144.5678239022
 51
247.9957718913
  0
ARC
  5
96
330
1F
100
AcDbEntity
  8
0
  6
Continuous
 62
     7
370
    25
100
AcDbCircle
 10
600.7477034979
 20
400.9461091847
 30
0.0
 40
14.22500000000013
100
AcDbArc
 50
123.7397267611
 51
247.9957718913
  0
ARC
  5
97
330
1F
100
AcDbEntity
  8
0
  6
Continuous
 62
     7
370
    25
100
AcDbCircle
 10
600.7477034979
 20
400.9461091847
 30
0.0
 40
14.22500000000003
100
AcDbArc
 50
247.9957718913
 51
56.0185933574
  0
LINE
  5
98
330
1F
100
AcDbEntity
  8
0
  6
Continuous
 62
     7
370
    25
100
AcDbLine
 10
611.925749062
 20
392.1482729527
 30
0.0
 11
612.1163612048
 21
391.9982490146
 31
0.0
  0
SPLINE
  5
99
330
1F
100
AcDbEntity
  8
0
  6
Continuous
 62
     7
370
    25
100
AcDbSpline
210
0.0
220
0.0
230
1.0
 70
     8
 71
     3
 72
    11
 73
     7
 74
     0
 42
0.00000001
 43
0.00000001
 40
0.0
 40
0.0
 40
0.0
 40
0.0
 40
0.1446702591042513
 40
0.3907520209323637
 40
0.59623148113546
 40
1.0
 40
1.0
 40
1.0
 40
1.0
 10
606.6774991631742
 20
387.7495905889019
 30
0.0
 10
606.9620271354273
 20
387.9235070295274
 30
0.0
 10
607.7305325688048
 20
388.3932525118989
 30
0.0
 10
608.8570141727229
 20
389.1834776759616
 30
0.0
 10
610.4199929333192
 20
390.3888875727939
 30
0.0
 10
611.4402220641031
 20
391.3567890906793
 30
0.0
 10
612.1163612048015
 20
391.99824901457
 30
0.0
  0
LINE
  5
9A
330
1F
100
AcDbEntity
  8
0
  6
Continuous
 62
     7
370
    25
100
AcDbLine
 10
606.5780774824
 20
387.9708494878
 30
0.0
 11
606.6774991632
 21
387.7495905889
 31
0.0
  0
LINE
  5
9B
330
1F
100
AcDbEntity
  8
0
  6
Continuous
 62
     7
370
    25
100
AcDbLine
 10
609.0694210238
 20
412.4829910173
 30
0.0
 11
609.2113260107
 21
412.679722168
 31
0.0
  0
LINE
  5
9C
330
1F
100
AcDbEntity
  8
0
  6
Continuous
 62
     7
370
    25
100
AcDbLine
 10
589.3790457909
 20
409.8939693548
 30
0.0
 11
589.5696579337
 21
409.7439454167
 31
0.0
  0
LINE
  5
9D
330
1F
100
AcDbEntity
  8
0
  6
Continuous
 62
     7
370
    25
100
AcDbLine
 10
587.3143004276
 20
395.5744928886
 30
0.0
 11
587.5395310405
 21
395.6645558775
 31
0.0
  0
SPLINE
  5
9E
330
1F
100
AcDbEntity
  8
0
  6
Continuous
 62
     7
370
    25
100
AcDbSpline
210
0.0
220
0.0
230
1.0
 70
     8
 71
     3
 72
    11
 73
     7
 74
     0
 42
0.00000001
 43
0.00000001
 40
0.0
 40
0.0
 40
0.0
 40
0.0
 40
0.1446702591042552
 40
0.3907520209323657
 40
0.5962314811354689
 40
1.0
 40
1.0
 40
1.0
 40
1.0
 10
586.3542853197503
 20
402.4090147972005
 30
0.0
 10
586.3626373893411
 20
402.0756481248291
 30
0.0
 10
586.3851961936994
 20
401.1752301553921
 30
0.0
 10
586.5063104585282
 20
399.8045558874718
 30
0.0
 10
586.7687366708599
 20
397.8482716268037
 30
0.0
 10
587.0968494083182
 20
396.4807765229214
 30
0.0
 10
587.314300427568
 20
395.5744928886382
 30
0.0
  0
LINE
  5
9F
330
1F
100
AcDbEntity
  8
0
  6
Continuous
 62
     7
370
    25
100
AcDbLine
 10
586.3542853198
 20
402.4090147972
 30
0.0
 11
586.5956119874
 21
402.384487049
 31
0.0
  0
LINE
  5
A0
330
1F
100
AcDbEntity
  8
0
  6
Continuous
 62
     7
370
    25
100
AcDbLine
 10
598.7175766047
 20
386.8667196455
 30
0.0
 11
598.6829581345
 21
386.6266327185
 31
0.0
  0
SPLINE
  5
A1
330
1F
100
AcDbEntity
  8
0
  6
Continuous
 62
     7
370
    25
100
AcDbSpline
210
0.0
220
0.0
230
1.0
 70
     8
 71
     3
 72
    11
 73
     7
 74
     0
 42
0.00000001
 43
0.00000001
 40
0.0
 40
0.0
 40
0.0
 40
0.0
 40
0.1446702591042556
 40
0.390752020932366
 40
0.5962314811354781
 40
1.0
 40
1.0
 40
1.0
 40
1.0
 10
592.2840809850492
 20
389.2124962014016
 30
0.0
 10
592.5769610268932
 20
389.0530459696558
 30
0.0
 10
593.3680252646288
 20
388.6223734825904
 30
0.0
 10
594.615621133376
 20
388.0419243787326
 30
0.0
 10
596.4410261063038
 20
387.2910500148971
 30
0.0
 10
597.789367974546
 20
386.8914564288999
 30
0.0
 10
598.6829581344944
 20
386.6266327185075
 30
0.0
  0
LINE
  5
A2
330
1F
100
AcDbEntity
  8
0
  6
Continuous
 62
     7
370
    25
100
AcDbLine
 10
592.284080985
 20
389.2124962014
 30
0.0
 11
592.4259859719
 21
389.4092273521
 31
0.0
  0
LINE
  5
A3
330
1F
100
AcDbEntity
  8
0
  6
Continuous
 62
     7
370
    25
100
AcDbLine
 10
613.9558759552
 20
406.2276624919
 30
0.0
 11
614.1811065682
 21
406.3177254808
 31
0.0
  0
SPLINE
  5
A4
330
1F
100
AcDbEntity
  8
0
  6
Continuous
 62
     7
370
    25
100
AcDbSpline
210
0.0
220
0.0
230
1.0
 70
     8
 71
     3
 72
    11
 73
     7
 74
     0
 42
0.00000001
 43
0.00000001
 40
0.0
 40
0.0
 40
0.0
 40
0.0
 40
0.144670259104255
 40
0.3907520209323573
 40
0.5962314811354761
 40
1.0
 40
1.0
 40
1.0
 40
1.0
 10
615.1411216760002
 20
399.4832035722009
 30
0.0
 10
615.1327696064094
 20
399.8165702445723
 30
0.0
 10
615.1102108020513
 20
400.7169882140093
 30
0.0
 10
614.9890965372223
 20
402.0876624819296
 30
0.0
 10
614.7266703248908
 20
404.0439467425975
 30
0.0
 10
614.3985575874324
 20
405.41144184648
 30
0.0
 10
614.1811065681825
 20
406.3177254807632
 30
0.0
  0
LINE
  5
A5
330
1F
100
AcDbEntity
  8
0
  6
Continuous
 62
     7
370
    25
100
AcDbLine
 10
614.8997950083
 20
399.5077313204
 30
0.0
 11
615.141121676
 21
399.4832035722
 31
0.0
  0
SPLINE
  5
A6
330
1F
100
AcDbEntity
  8
0
  6
Continuous
 62
     7
370
    25
100
AcDbSpline
210
0.0
220
0.0
230
1.0
 70
     8
 71
     3
 72
     9
 73
     5
 74
     0
 42
0.00000001
 43
0.00000001
 40
0.0
 40
0.0
 40
0.0
 40
0.0
 40
0.5862283062032525
 40
1.0
 40
1.0
 40
1.0
 40
1.0
 10
587.314300427568
 20
395.5744928886382
 30
0.0
 10
587.4026125140012
 20
395.2536468334795
 30
0.0
 10
587.5532570419075
 20
394.7063411988596
 30
0.0
 10
587.7252223414355
 20
394.1641255658338
 30
0.0
 10
587.7963767146955
 20
393.9397720849537
 30
0.0
  0
SPLINE
  5
A7
330
1F
100
AcDbEntity
  8
0
  6
Continuous
 62
     7
370
    25
100
AcDbSpline
210
0.0
220
0.0
230
1.0
 70
     8
 71
     3
 72
     9
 73
     5
 74
     0
 42
0.00000001
 43
0.00000001
 40
0.0
 40
0.0
 40
0.0
 40
0.0
 40
0.5863847898283611
 40
1.0
 40
1.0
 40
1.0
 40
1.0
 10
590.8146706040939
 20
390.0759443961128
 30
0.0
 10
591.0991178314493
 20
389.9017256259069
 30
0.0
 10
591.5842041302236
 20
389.6046190617055
 30
0.0
 10
592.0793012753234
 20
389.3272289646816
 30
0.0
 10
592.2840809850493
 20
389.2124962014016
 30
0.0
  0
ARC
  5
A8
330
1F
100
AcDbEntity
  8
0
  6
Continuous
 62
     7
370
    25
100
AcDbCircle
 10
600.7477034979
 20
400.9461091847
 30
0.0
 40
14.72500000000008
100
AcDbArc
 50
208.4122563286
 51
227.579287454
  0
SPLINE
  5
A9
330
1F
100
AcDbEntity
  8
0
  6
Continuous
 62
     7
370
    25
100
AcDbSpline
210
0.0
220
0.0
230
1.0
 70
     8
 71
     3
 72
     9
 73
     5
 74
     0
 42
0.00000001
 43
0.00000001
 40
0.0
 40
0.0
 40
0.0
 40
0.0
 40
0.586384789828367
 40
1.0
 40
1.0
 40
1.0
 40
1.0
 10
605.1950259012248
 20
386.9087679677655
 30
0.0
 10
605.4881273957168
 20
387.0679971075886
 30
0.0
 10
605.9879723773336
 20
387.3395408832542
 30
0.0
 10
606.4757478206643
 20
387.6296125397397
 30
0.0
 10
606.6774991631742
 20
387.7495905889019
 30
0.0
  0
ARC
  5
AA
330
1F
100
AcDbEntity
  8
0
  6
Continuous
 62
     7
370
    25
100
AcDbCircle
 10
600.7477034979
 20
400.9461091847
 30
0.0
 40
14.725
100
AcDbArc
 50
268.4122563286
 51
287.579287454
  0
SPLINE
  5
AB
330
1F
100
AcDbEntity
  8
0
  6
Continuous
 62
     7
370
    25
100
AcDbSpline
210
0.0
220
0.0
230
1.0
 70
     8
 71
     3
 72
     9
 73
     5
 74
     0
 42
0.00000001
 43
0.00000001
 40
0.0
 40
0.0
 40
0.0
 40
0.0
 40
0.5862283062032848
 40
0.9999999999999999
 40
0.9999999999999999
 40
0.9999999999999999
 40
0.9999999999999999
 10
598.6829581344944
 20
386.6266327185075
 30
0.0
 10
599.0049750121824
 20
386.5426902012406
 30
0.0
 10
599.5542778593507
 20
386.3994993720386
 30
0.0
 10
600.109833021644
 20
386.2773178734863
 30
0.0
 10
600.3397060221436
 20
386.2267626278797
 30
0.0
  0
SPLINE
  5
AC
330
1F
100
AcDbEntity
  8
0
  6
Continuous
 62
     7
370
    25
100
AcDbSpline
210
0.0
220
0.0
230
1.0
 70
     8
 71
     3
 72
     9
 73
     5
 74
     0
 42
0.00000001
 43
0.00000001
 40
0.0
 40
0.0
 40
0.0
 40
0.0
 40
0.5862283062032712
 40
1.0
 40
1.0
 40
1.0
 40
1.0
 10
614.1811065681825
 20
406.3177254807632
 30
0.0
 10
614.0927944817493
 20
406.6385715359219
 30
0.0
 10
613.942149953843
 20
407.1858771705417
 30
0.0
 10
613.7701846543151
 20
407.7280928035674
 30
0.0
 10
613.6990302810551
 20
407.9524462844476
 30
0.0
  0
SPLINE
  5
AD
330
1F
100
AcDbEntity
  8
0
  6
Continuous
 62
     7
370
    25
100
AcDbSpline
210
0.0
220
0.0
230
1.0
 70
     8
 71
     3
 72
     9
 73
     5
 74
     0
 42
0.00000001
 43
0.00000001
 40
0.0
 40
0.0
 40
0.0
 40
0.0
 40
0.5863847898283674
 40
0.9999999999999999
 40
0.9999999999999999
 40
0.9999999999999999
 40
0.9999999999999999
 10
610.6807363916568
 20
411.8162739732885
 30
0.0
 10
610.3962891643014
 20
411.9904927434944
 30
0.0
 10
609.9112028655269
 20
412.2875993076959
 30
0.0
 10
609.4161057204273
 20
412.5649894047197
 30
0.0
 10
609.2113260107013
 20
412.6797221679997
 30
0.0
  0
ARC
  5
AE
330
1F
100
AcDbEntity
  8
0
  6
Continuous
 62
     7
370
    25
100
AcDbCircle
 10
600.7477034979
 20
400.9461091847
 30
0.0
 40
14.72500000000001
100
AcDbArc
 50
28.4122563286
 51
47.579287454
  0
SPLINE
  5
AF
330
1F
100
AcDbEntity
  8
0
  6
Continuous
 62
     7
370
    25
100
AcDbSpline
210
0.0
220
0.0
230
1.0
 70
     8
 71
     3
 72
     9
 73
     5
 74
     0
 42
0.00000001
 43
0.00000001
 40
0.0
 40
0.0
 40
0.0
 40
0.0
 40
0.5862283062033025
 40
1.0
 40
1.0
 40
1.0
 40
1.0
 10
612.1163612048015
 20
391.99824901457
 30
0.0
 10
612.3500659960564
 20
392.2351525524618
 30
0.0
 10
612.7487243153183
 20
392.6392673578797
 30
0.0
 10
613.1323141780838
 20
393.0593014923531
 30
0.0
 10
613.2910328053234
 20
393.2330997276267
 30
0.0
  0
SPLINE
  5
B0
330
1F
100
AcDbEntity
  8
0
  6
Continuous
 62
     7
370
    25
100
AcDbSpline
210
0.0
220
0.0
230
1.0
 70
     8
 71
     3
 72
     9
 73
     5
 74
     0
 42
0.00000001
 43
0.00000001
 40
0.0
 40
0.0
 40
0.0
 40
0.0
 40
0.586384789828348
 40
1.0
 40
1.0
 40
1.0
 40
1.0
 10
615.1280587950062
 20
397.7789327563535
 30
0.0
 10
615.1367130621429
 20
398.1123806663822
 30
0.0
 10
615.1514717449852
 20
398.6810310062493
 30
0.0
 10
615.1441500432162
 20
399.2484927597587
 30
0.0
 10
615.1411216760002
 20
399.4832035722009
 30
0.0
  0
ARC
  5
B1
330
1F
100
AcDbEntity
  8
0
  6
Continuous
 62
     7
370
    25
100
AcDbCircle
 10
600.7477034979
 20
400.9461091847
 30
0.0
 40
14.72499999999992
100
AcDbArc
 50
328.4122563286
 51
347.579287454
  0
SPLINE
  5
B2
330
1F
100
AcDbEntity
  8
0
  6
Continuous
 62
     7
370
    25
100
AcDbSpline
210
0.0
220
0.0
230
1.0
 70
     8
 71
     3
 72
     9
 73
     5
 74
     0
 42
0.00000001
 43
0.00000001
 40
0.0
 40
0.0
 40
0.0
 40
0.0
 40
0.5862283062032698
 40
1.0
 40
1.0
 40
1.0
 40
1.0
 10
589.3790457909491
 20
409.8939693548314
 30
0.0
 10
589.1453409996943
 20
409.6570658169396
 30
0.0
 10
588.7466826804322
 20
409.2529510115217
 30
0.0
 10
588.3630928176668
 20
408.8329168770483
 30
0.0
 10
588.2043741904272
 20
408.6591186417747
 30
0.0
  0
SPLINE
  5
B3
330
1F
100
AcDbEntity
  8
0
  6
Continuous
 62
     7
370
    25
100
AcDbSpline
210
0.0
220
0.0
230
1.0
 70
     8
 71
     3
 72
     9
 73
     5
 74
     0
 42
0.00000001
 43
0.00000001
 40
0.0
 40
0.0
 40
0.0
 40
0.0
 40
0.5863847898283805
 40
1.0
 40
1.0
 40
1.0
 40
1.0
 10
586.3673482007443
 20
404.1132856130479
 30
0.0
 10
586.3586939336077
 20
403.7798377030192
 30
0.0
 10
586.3439352507653
 20
403.2111873631521
 30
0.0
 10
586.3512569525343
 20
402.6437256096427
 30
0.0
 10
586.3542853197503
 20
402.4090147972005
 30
0.0
  0
ARC
  5
B4
330
1F
100
AcDbEntity
  8
0
  6
Continuous
 62
     7
370
    25
100
AcDbCircle
 10
600.7477034979
 20
400.9461091847
 30
0.0
 40
14.72500000000011
100
AcDbArc
 50
148.4122563286
 51
167.579287454
  0
SPLINE
  5
B5
330
1F
100
AcDbEntity
  8
0
  6
Continuous
 62
     7
370
    25
100
AcDbSpline
210
0.0
220
0.0
230
1.0
 70
    24
 71
     3
 72
    12
 73
     8
 74
     0
 42
0.00000001
 43
0.00000001
 40
0.0
 40
0.0
 40
0.0
 40
0.0
 40
0.3013828945620879
 40
0.4108442493795642
 40
0.6247185195336448
 40
0.6986171054378582
 40
1.0
 40
1.0
 40
1.0
 40
1.0
 10
612.2218735831877
 20
391.7634355164241
 30
0.0
 10
611.6866769466075
 20
391.3453576755096
 30
0.0
 10
610.9570985120195
 20
390.7754352285759
 30
0.0
 10
609.8423927075261
 20
389.9046640686985
 30
0.0
 10
609.1322644153124
 20
389.3499354271319
 30
0.0
 10
608.0813832669246
 20
388.5290219692614
 30
0.0
 10
607.414972709671
 20
388.0084441705675
 30
0.0
 10
606.8797884462156
 20
387.5903759951271
 30
0.0
  0
ARC
  5
B6
330
1F
100
AcDbEntity
  8
0
  6
Continuous
 62
     7
370
    25
100
AcDbCircle
 10
607.0057973812
 20
387.9585921001
 30
0.0
 40
0.3891803587949399
100
AcDbArc
 50
212.4816830812
 51
251.1083035305
  0
ARC
  5
B7
330
1F
100
AcDbEntity
  8
0
  6
Continuous
 62
     7
370
    25
100
AcDbCircle
 10
611.834105856
 20
391.7303063532
 30
0.0
 40
0.3891803587990768
100
AcDbArc
 50
4.8832402523
 51
43.5098607013
  0
ARC
  5
B8
330
1F
100
AcDbEntity
  8
0
  6
Continuous
 62
     7
370
    25
100
AcDbCircle
 10
598.3097853086
 20
386.7371016902
 30
0.0
 40
0.3891803588381009
100
AcDbArc
 50
304.8832402544
 51
343.5098606992
  0
SPLINE
  5
B9
330
1F
100
AcDbEntity
  8
0
  6
Continuous
 62
     7
370
    25
100
AcDbSpline
210
0.0
220
0.0
230
1.0
 70
    24
 71
     3
 72
    12
 73
     8
 74
     0
 42
0.00000001
 43
0.00000001
 40
0.0
 40
0.0
 40
0.0
 40
0.0
 40
0.3013828945620938
 40
0.4108442493795599
 40
0.6247185195336513
 40
0.6986171054378643
 40
0.9999999999999999
 40
0.9999999999999999
 40
0.9999999999999999
 40
0.9999999999999999
 10
598.5323598691416
 20
386.4178495693384
 30
0.0
 10
597.9026955198601
 20
386.6723045321796
 30
0.0
 10
597.0443389853345
 20
387.0191767671193
 30
0.0
 10
595.7328761377512
 20
387.5491547316178
 30
0.0
 10
594.897402895841
 20
387.8867795518377
 30
0.0
 10
593.6610304128226
 20
388.3864125937642
 30
0.0
 10
592.8769915358807
 20
388.703252166349
 30
0.0
 10
592.2473417437078
 20
388.9577012464871
 30
0.0
  0
ARC
  5
BA
330
1F
100
AcDbEntity
  8
0
  6
Continuous
 62
     7
370
    25
100
AcDbCircle
 10
592.6292307122
 20
389.0326823601
 30
0.0
 40
0.389180358796489
100
AcDbArc
 50
152.4816830813
 51
191.1083035305
  0
SPLINE
  5
BB
330
1F
100
AcDbEntity
  8
0
  6
Continuous
 62
     7
370
    25
100
AcDbSpline
210
0.0
220
0.0
230
1.0
 70
    24
 71
     3
 72
    12
 73
     8
 74
     0
 42
0.00000001
 43
0.00000001
 40
0.0
 40
0.0
 40
0.0
 40
0.0
 40
0.3013828945620958
 40
0.4108442493795545
 40
0.6247185195336477
 40
0.6986171054378628
 40
1.0
 40
1.0
 40
1.0
 40
1.0
 10
614.4372172119215
 20
406.2916951317864
 30
0.0
 10
614.5316849246226
 20
405.6191623280307
 30
0.0
 10
614.66046302456
 20
404.7023676461573
 30
0.0
 10
614.8572200676502
 20
403.3016185217814
 30
0.0
 10
614.9825650173467
 20
402.409265059995
 30
0.0
 10
615.1680563519774
 20
401.0887185601978
 30
0.0
 10
615.2856846716655
 20
400.2513011889192
 30
0.0
 10
615.380150200383
 20
399.5787839333408
 30
0.0
  0
ARC
  5
BC
330
1F
100
AcDbEntity
  8
0
  6
Continuous
 62
     7
370
    25
100
AcDbCircle
 10
615.1242701669
 20
399.8720189247
 30
0.0
 40
0.3891803587968686
100
AcDbArc
 50
272.4816830813
 51
311.1083035304
  0
ARC
  5
BD
330
1F
100
AcDbEntity
  8
0
  6
Continuous
 62
     7
370
    25
100
AcDbCircle
 10
614.2720240453
 20
405.9393138477
 30
0.0
 40
0.3891803587992088
100
AcDbArc
 50
64.8832402523
 51
103.5098607013
  0
ARC
  5
BE
330
1F
100
AcDbEntity
  8
0
  6
Continuous
 62
     7
370
    25
100
AcDbCircle
 10
587.2233829505
 20
395.9529045217
 30
0.0
 40
0.3891803588373608
100
AcDbArc
 50
244.8832402543
 51
283.5098606993
  0
SPLINE
  5
BF
330
1F
100
AcDbEntity
  8
0
  6
Continuous
 62
     7
370
    25
100
AcDbSpline
210
0.0
220
0.0
230
1.0
 70
    24
 71
     3
 72
    12
 73
     8
 74
     0
 42
0.00000001
 43
0.00000001
 40
0.0
 40
0.0
 40
0.0
 40
0.0
 40
0.3013828945621477
 40
0.4108442493795744
 40
0.6247185195336611
 40
0.6986171054378603
 40
1.0
 40
1.0
 40
1.0
 40
1.0
 10
587.0581897838292
 20
395.6005232376151
 30
0.0
 10
586.9637220711279
 20
396.2730560413709
 30
0.0
 10
586.8349439711905
 20
397.1898507232443
 30
0.0
 10
586.6381869281004
 20
398.5905998476202
 30
0.0
 10
586.5128419784038
 20
399.4829533094064
 30
0.0
 10
586.3273506437732
 20
400.8034998092036
 30
0.0
 10
586.209722324085
 20
401.6409171804822
 30
0.0
 10
586.1152567953676
 20
402.3134344360606
 30
0.0
  0
ARC
  5
C0
330
1F
100
AcDbEntity
  8
0
  6
Continuous
 62
     7
370
    25
100
AcDbCircle
 10
586.3711368288
 20
402.0201994447
 30
0.0
 40
0.3891803587979988
100
AcDbArc
 50
92.4816830814
 51
131.1083035304
  0
ARC
  5
C1
330
1F
100
AcDbEntity
  8
0
  6
Continuous
 62
     7
370
    25
100
AcDbCircle
 10
589.6613011398
 20
410.1619120162
 30
0.0
 40
0.3891803588375304
100
AcDbArc
 50
184.8832402543
 51
223.5098606993
  0
SPLINE
  5
C2
330
1F
100
AcDbEntity
  8
0
  6
Continuous
 62
     7
370
    25
100
AcDbSpline
210
0.0
220
0.0
230
1.0
 70
    24
 71
     3
 72
    11
 73
     7
 74
     0
 42
0.00000001
 43
0.00000001
 40
0.0
 40
0.0
 40
0.0
 40
0.0
 40
0.446701266790119
 40
0.6089418144248329
 40
0.925940254400788
 40
0.9999999999999999
 40
0.9999999999999999
 40
0.9999999999999999
 40
0.9999999999999999
 10
589.273533412563
 20
410.1287828529772
 30
0.0
 10
589.8087367199465
 20
410.5468659049018
 30
0.0
 10
590.5383242481533
 20
411.1167954554685
 30
0.0
 10
591.6529873313043
 20
411.9875332428518
 30
0.0
 10
592.3205077413562
 20
412.5089780216985
 30
0.0
 10
592.7909932945828
 20
412.8765057130742
 30
0.0
 10
592.8800952279147
 20
412.9461091847007
 30
0.0
  0
LINE
  5
C3
330
1F
100
AcDbEntity
  8
0
  6
Continuous
 62
     7
370
    25
100
AcDbLine
 10
608.6477034979
 20
413.1771305534
 30
0.0
 11
609.248065252
 21
412.9345171229
 31
0.0
  0
ARC
  5
C4
330
1F
100
AcDbEntity
  8
0
  6
Continuous
 62
     7
370
    25
100
AcDbCircle
 10
608.8661762835
 20
412.8595360093
 30
0.0
 40
0.389180358796812
100
AcDbArc
 50
332.4816830813
 51
11.1083035304
  0
LINE
  5
C5
330
1F
100
AcDbEntity
  8
0
  6
Continuous
 62
     7
370
    25
100
AcDbLine
 10
592.2473417437
 20
388.9577012465
 30
0.0
 11
590.6273330974
 21
389.612366292
 31
0.0
  0
LINE
  5
C6
330
1F
100
AcDbEntity
  8
0
  6
Continuous
 62
     7
370
    25
100
AcDbLine
 10
590.8146706041
 20
390.0759443961
 30
0.0
 11
590.6273330974
 21
389.612366292
 31
0.0
  0
LINE
  5
C7
330
1F
100
AcDbEntity
  8
0
  6
Continuous
 62
     7
370
    25
100
AcDbLine
 10
586.1152567954
 20
402.3134344361
 30
0.0
 11
585.8722090326
 21
404.0437356009
 31
0.0
  0
LINE
  5
C8
330
1F
100
AcDbEntity
  8
0
  6
Continuous
 62
     7
370
    25
100
AcDbLine
 10
585.8722090326
 20
404.0437356009
 30
0.0
 11
586.3673482007
 21
404.113285613
 31
0.0
  0
LINE
  5
C9
330
1F
100
AcDbEntity
  8
0
  6
Continuous
 62
     7
370
    25
100
AcDbLine
 10
606.8797884462
 20
387.5903759951
 30
0.0
 11
605.5028275627
 21
386.5147398758
 31
0.0
  0
LINE
  5
CA
330
1F
100
AcDbEntity
  8
0
  6
Continuous
 62
     7
370
    25
100
AcDbLine
 10
605.5028275627
 20
386.5147398758
 30
0.0
 11
605.1950259012
 21
386.9087679678
 31
0.0
  0
LINE
  5
CB
330
1F
100
AcDbEntity
  8
0
  6
Continuous
 62
     7
370
    25
100
AcDbLine
 10
609.248065252
 20
412.9345171229
 30
0.0
 11
610.8680738984
 21
412.2798520774
 31
0.0
  0
LINE
  5
CC
330
1F
100
AcDbEntity
  8
0
  6
Continuous
 62
     7
370
    25
100
AcDbLine
 10
610.8680738984
 20
412.2798520774
 30
0.0
 11
610.6807363917
 21
411.8162739733
 31
0.0
  0
LINE
  5
CD
330
1F
100
AcDbEntity
  8
0
  6
Continuous
 62
     7
370
    25
100
AcDbLine
 10
615.3801502004
 20
399.5787839333
 30
0.0
 11
615.6231979631
 21
397.8484827685
 31
0.0
  0
LINE
  5
CE
330
1F
100
AcDbEntity
  8
0
  6
Continuous
 62
     7
370
    25
100
AcDbLine
 10
615.6231979631
 20
397.8484827685
 30
0.0
 11
615.128058795
 21
397.7789327564
 31
0.0
  0
LINE
  5
CF
330
1F
100
AcDbEntity
  8
0
  6
Continuous
 62
     7
370
    25
100
AcDbLine
 10
614.1941694492
 20
408.0219962966
 30
0.0
 11
614.4372172119
 21
406.2916951318
 31
0.0
  0
LINE
  5
D0
330
1F
100
AcDbEntity
  8
0
  6
Continuous
 62
     7
370
    25
100
AcDbLine
 10
613.6990302811
 20
407.9524462844
 30
0.0
 11
614.1941694492
 21
408.0219962966
 31
0.0
  0
LINE
  5
D1
330
1F
100
AcDbEntity
  8
0
  6
Continuous
 62
     7
370
    25
100
AcDbLine
 10
588.2043741904
 20
408.6591186418
 30
0.0
 11
587.896572529
 21
409.0531467337
 31
0.0
  0
LINE
  5
D2
330
1F
100
AcDbEntity
  8
0
  6
Continuous
 62
     7
370
    25
100
AcDbLine
 10
587.896572529
 20
409.0531467337
 30
0.0
 11
589.2735334126
 21
410.128782853
 31
0.0
  0
LINE
  5
D3
330
1F
100
AcDbEntity
  8
0
  6
Continuous
 62
     7
370
    25
100
AcDbLine
 10
613.5988344668
 20
392.8390716357
 30
0.0
 11
612.2218735832
 21
391.7634355164
 31
0.0
  0
LINE
  5
D4
330
1F
100
AcDbEntity
  8
0
  6
Continuous
 62
     7
370
    25
100
AcDbLine
 10
613.5988344668
 20
392.8390716357
 30
0.0
 11
613.2910328053
 21
393.2330997276
 31
0.0
  0
LINE
  5
D5
330
1F
100
AcDbEntity
  8
0
  6
Continuous
 62
     7
370
    25
100
AcDbLine
 10
600.3397060221
 20
386.2267626279
 30
0.0
 11
600.1523685154
 21
385.7631845238
 31
0.0
  0
LINE
  5
D6
330
1F
100
AcDbEntity
  8
0
  6
Continuous
 62
     7
370
    25
100
AcDbLine
 10
600.1523685154
 20
385.7631845238
 30
0.0
 11
598.5323598691
 21
386.4178495693
 31
0.0
  0
LINE
  5
D7
330
1F
100
AcDbEntity
  8
0
  6
Continuous
 62
     7
370
    25
100
AcDbLine
 10
587.7963767147
 20
393.939772085
 30
0.0
 11
587.3012375466
 21
393.8702220728
 31
0.0
  0
LINE
  5
D8
330
1F
100
AcDbEntity
  8
0
  6
Continuous
 62
     7
370
    25
100
AcDbLine
 10
587.3012375466
 20
393.8702220728
 30
0.0
 11
587.0581897838
 21
395.6005232376
 31
0.0
  0
ARC
  5
D9
330
1F
100
AcDbEntity
  8
0
  6
Continuous
 62
     7
370
    25
100
AcDbCircle
 10
586.1001473447
 20
406.0155370359
 30
0.0
 40
0.500000000000027
100
AcDbArc
 50
160.9095821328
 51
187.9957718913
  0
LINE
  5
DA
330
1F
100
AcDbEntity
  8
0
  6
Continuous
 62
     7
370
    25
100
AcDbLine
 10
586.1001473447
 20
406.0155370359
 30
0.0
 11
585.6276455333
 21
406.1790669666
 31
0.0
  0
LINE
  5
DB
330
1F
100
AcDbEntity
  8
0
  6
Continuous
 62
     7
370
    25
100
AcDbLine
 10
585.6050081765
 20
405.9459870238
 30
0.0
 11
586.1001473447
 21
406.0155370359
 31
0.0
  0
ARC
  5
DC
330
1F
100
AcDbEntity
  8
0
  6
Continuous
 62
     7
370
    25
100
AcDbCircle
 10
586.6905765619
 20
407.4765902011
 30
0.0
 40
0.5000000000000193
100
AcDbArc
 50
127.9957718913
 51
155.0819616499
  0
LINE
  5
DD
330
1F
100
AcDbEntity
  8
0
  6
Continuous
 62
     7
370
    25
100
AcDbLine
 10
586.6905765619
 20
407.4765902011
 30
0.0
 11
586.3827749004
 21
407.870618293
 31
0.0
  0
LINE
  5
DE
330
1F
100
AcDbEntity
  8
0
  6
Continuous
 62
     7
370
    25
100
AcDbLine
 10
586.6905765619
 20
407.4765902011
 30
0.0
 11
586.2371208543
 21
407.687250879
 31
0.0
  0
LINE
  5
DF
330
1F
100
AcDbEntity
  8
0
  6
Continuous
 62
     7
370
    25
100
AcDbLine
 10
588.2043741904
 20
408.6591186418
 30
0.0
 11
586.6905765619
 21
407.4765902011
 31
0.0
  0
LINE
  5
E0
330
1F
100
AcDbEntity
  8
0
  6
Continuous
 62
     7
370
    25
100
AcDbLine
 10
586.3827749004
 20
407.870618293
 30
0.0
 11
587.896572529
 21
409.0531467337
 31
0.0
  0
LINE
  5
E1
330
1F
100
AcDbEntity
  8
0
  6
Continuous
 62
     7
370
    25
100
AcDbLine
 10
603.6812282727
 20
385.7262395271
 30
0.0
 11
605.1950259012
 21
386.9087679678
 31
0.0
  0
ARC
  5
E2
330
1F
100
AcDbEntity
  8
0
  6
Continuous
 62
     7
370
    25
100
AcDbCircle
 10
600.7477034979
 20
400.9461091847
 30
0.0
 40
15.49999999999989
100
AcDbArc
 50
275.0819616499
 51
280.9095821328
  0
LINE
  5
E3
330
1F
100
AcDbEntity
  8
0
  6
Continuous
 62
     7
370
    25
100
AcDbLine
 10
600.3397060221
 20
386.2267626279
 30
0.0
 11
602.1207045068
 21
385.5070396457
 31
0.0
  0
ARC
  5
E4
330
1F
100
AcDbEntity
  8
0
  6
Continuous
 62
     7
370
    25
100
AcDbCircle
 10
613.431829425
 20
409.8546977073
 30
0.0
 40
0.5000000000000228
100
AcDbArc
 50
7.9957718913
 51
35.0819616499
  0
LINE
  5
E5
330
1F
100
AcDbEntity
  8
0
  6
Continuous
 62
     7
370
    25
100
AcDbLine
 10
613.431829425
 20
409.8546977073
 30
0.0
 11
613.9269685931
 21
409.9242477195
 31
0.0
  0
LINE
  5
E6
330
1F
100
AcDbEntity
  8
0
  6
Continuous
 62
     7
370
    25
100
AcDbLine
 10
613.8409947775
 20
410.1420715306
 30
0.0
 11
613.431829425
 21
409.8546977073
 31
0.0
  0
ARC
  5
E7
330
1F
100
AcDbEntity
  8
0
  6
Continuous
 62
     7
370
    25
100
AcDbCircle
 10
589.0336721195
 20
390.7956673783
 30
0.0
 40
0.5000000000000148
100
AcDbArc
 50
220.9095821328
 51
247.9957718913
  0
LINE
  5
E8
330
1F
100
AcDbEntity
  8
0
  6
Continuous
 62
     7
370
    25
100
AcDbLine
 10
589.0336721195
 20
390.7956673783
 30
0.0
 11
588.6558001395
 21
390.4682337716
 31
0.0
  0
LINE
  5
E9
330
1F
100
AcDbEntity
  8
0
  6
Continuous
 62
     7
370
    25
100
AcDbLine
 10
589.0336721195
 20
390.7956673783
 30
0.0
 11
588.8463346128
 21
390.3320892742
 31
0.0
  0
LINE
  5
EA
330
1F
100
AcDbEntity
  8
0
  6
Continuous
 62
     7
370
    25
100
AcDbLine
 10
605.5028275627
 20
386.5147398758
 30
0.0
 11
603.9890299341
 21
385.3322114351
 31
0.0
  0
LINE
  5
EB
330
1F
100
AcDbEntity
  8
0
  6
Continuous
 62
     7
370
    25
100
AcDbLine
 10
603.9890299341
 20
385.3322114351
 30
0.0
 11
603.6812282727
 21
385.7262395271
 31
0.0
  0
LINE
  5
EC
330
1F
100
AcDbEntity
  8
0
  6
Continuous
 62
     7
370
    25
100
AcDbLine
 10
615.1126320953
 20
394.0216000764
 30
0.0
 11
613.5988344668
 21
392.8390716357
 31
0.0
  0
LINE
  5
ED
330
1F
100
AcDbEntity
  8
0
  6
Continuous
 62
     7
370
    25
100
AcDbLine
 10
613.2910328053
 20
393.2330997276
 30
0.0
 11
614.8048304339
 21
394.4156281683
 31
0.0
  0
LINE
  5
EE
330
1F
100
AcDbEntity
  8
0
  6
Continuous
 62
     7
370
    25
100
AcDbLine
 10
615.1126320953
 20
394.0216000764
 30
0.0
 11
614.8048304339
 21
394.4156281683
 31
0.0
  0
LINE
  5
EF
330
1F
100
AcDbEntity
  8
0
  6
Continuous
 62
     7
370
    25
100
AcDbLine
 10
610.8680738984
 20
412.2798520774
 30
0.0
 11
612.649072383
 21
411.5601290952
 31
0.0
  0
LINE
  5
F0
330
1F
100
AcDbEntity
  8
0
  6
Continuous
 62
     7
370
    25
100
AcDbLine
 10
612.649072383
 20
411.5601290952
 30
0.0
 11
612.4617348763
 21
411.0965509911
 31
0.0
  0
LINE
  5
F1
330
1F
100
AcDbEntity
  8
0
  6
Continuous
 62
     7
370
    25
100
AcDbLine
 10
612.4617348763
 20
411.0965509911
 30
0.0
 11
610.6807363917
 21
411.8162739733
 31
0.0
  0
LINE
  5
F2
330
1F
100
AcDbEntity
  8
0
  6
Continuous
 62
     7
370
    25
100
AcDbLine
 10
589.0336721195
 20
390.7956673783
 30
0.0
 11
590.8146706041
 21
390.0759443961
 31
0.0
  0
LINE
  5
F3
330
1F
100
AcDbEntity
  8
0
  6
Continuous
 62
     7
370
    25
100
AcDbLine
 10
590.6273330974
 20
389.612366292
 30
0.0
 11
588.8463346128
 21
390.3320892742
 31
0.0
  0
LINE
  5
F4
330
1F
100
AcDbEntity
  8
0
  6
Continuous
 62
     7
370
    25
100
AcDbLine
 10
603.7758581041
 20
385.2352759897
 30
0.0
 11
603.6812282727
 21
385.7262395271
 31
0.0
  0
ARC
  5
F5
330
1F
100
AcDbEntity
  8
0
  6
Continuous
 62
     7
370
    25
100
AcDbCircle
 10
603.6812282727
 20
385.7262395271
 30
0.0
 40
0.5000000000000463
100
AcDbArc
 50
280.9095821328
 51
307.9957718913
  0
LINE
  5
F6
330
1F
100
AcDbEntity
  8
0
  6
Continuous
 62
     7
370
    25
100
AcDbLine
 10
585.8722090326
 20
404.0437356009
 30
0.0
 11
585.6050081765
 21
405.9459870238
 31
0.0
  0
LINE
  5
F7
330
1F
100
AcDbEntity
  8
0
  6
Continuous
 62
     7
370
    25
100
AcDbLine
 10
586.1001473447
 20
406.0155370359
 30
0.0
 11
586.3673482007
 21
404.113285613
 31
0.0
  0
LINE
  5
F8
330
1F
100
AcDbEntity
  8
0
  6
Continuous
 62
     7
370
    25
100
AcDbLine
 10
587.7963767147
 20
393.939772085
 30
0.0
 11
588.0635775708
 21
392.0375206621
 31
0.0
  0
ARC
  5
F9
330
1F
100
AcDbEntity
  8
0
  6
Continuous
 62
     7
370
    25
100
AcDbCircle
 10
600.7477034979
 20
400.9461091847
 30
0.0
 40
15.50000000000004
100
AcDbArc
 50
215.0819616499
 51
220.9095821328
  0
ARC
  5
FA
330
1F
100
AcDbEntity
  8
0
  6
Continuous
 62
     7
370
    25
100
AcDbCircle
 10
600.7477034979
 20
400.9461091847
 30
0.0
 40
15.99999999999992
100
AcDbArc
 50
335.0819616499
 51
340.9095821328
  0
LINE
  5
FB
330
1F
100
AcDbEntity
  8
0
  6
Continuous
 62
     7
370
    25
100
AcDbLine
 10
615.2582861415
 20
394.2049674904
 30
0.0
 11
614.8048304339
 21
394.4156281683
 31
0.0
  0
ARC
  5
FC
330
1F
100
AcDbEntity
  8
0
  6
Continuous
 62
     7
370
    25
100
AcDbCircle
 10
600.7477034979
 20
400.9461091847
 30
0.0
 40
15.49999999999991
100
AcDbArc
 50
335.0819616499
 51
340.9095821328
  0
LINE
  5
FD
330
1F
100
AcDbEntity
  8
0
  6
Continuous
 62
     7
370
    25
100
AcDbLine
 10
615.8677614625
 20
395.7131514028
 30
0.0
 11
615.3952596511
 21
395.8766813335
 31
0.0
  0
ARC
  5
FE
330
1F
100
AcDbEntity
  8
0
  6
Continuous
 62
     7
370
    25
100
AcDbCircle
 10
614.8048304339
 20
394.4156281683
 30
0.0
 40
0.5000000000000463
100
AcDbArc
 50
307.9957718913
 51
335.0819616499
  0
LINE
  5
FF
330
1F
100
AcDbEntity
  8
0
  6
Continuous
 62
     7
370
    25
100
AcDbLine
 10
602.1207045068
 20
385.5070396457
 30
0.0
 11
601.9333670001
 21
385.0434615416
 31
0.0
  0
LINE
  5
100
330
1F
100
AcDbEntity
  8
0
  6
Continuous
 62
     7
370
    25
100
AcDbLine
 10
601.9333670001
 20
385.0434615416
 30
0.0
 11
600.1523685154
 21
385.7631845238
 31
0.0
  0
ARC
  5
101
330
1F
100
AcDbEntity
  8
0
  6
Continuous
 62
     7
370
    25
100
AcDbCircle
 10
600.7477034979
 20
400.9461091847
 30
0.0
 40
15.50000000000013
100
AcDbArc
 50
155.0819616499
 51
160.9095821328
  0
ARC
  5
102
330
1F
100
AcDbEntity
  8
0
  6
Continuous
 62
     7
370
    25
100
AcDbCircle
 10
600.7477034979
 20
400.9461091847
 30
0.0
 40
16.00000000000015
100
AcDbArc
 50
155.0819616499
 51
160.9095821328
  0
LINE
  5
103
330
1F
100
AcDbEntity
  8
0
  6
Continuous
 62
     7
370
    25
100
AcDbLine
 10
615.8903988192
 20
395.9462313456
 30
0.0
 11
615.3952596511
 21
395.8766813335
 31
0.0
  0
ARC
  5
104
330
1F
100
AcDbEntity
  8
0
  6
Continuous
 62
     7
370
    25
100
AcDbCircle
 10
615.3952596511
 20
395.8766813335
 30
0.0
 40
0.5000000000000083
100
AcDbArc
 50
340.9095821328
 51
7.9957718913
  0
ARC
  5
105
330
1F
100
AcDbEntity
  8
0
  6
Continuous
 62
     7
370
    25
100
AcDbCircle
 10
600.7477034979
 20
400.9461091847
 30
0.0
 40
15.99999999999992
100
AcDbArc
 50
275.0819616499
 51
280.9095821328
  0
LINE
  5
106
330
1F
100
AcDbEntity
  8
0
  6
Continuous
 62
     7
370
    25
100
AcDbLine
 10
602.1207045068
 20
385.5070396457
 30
0.0
 11
602.1649948619
 21
385.0090051445
 31
0.0
  0
LINE
  5
107
330
1F
100
AcDbEntity
  8
0
  6
Continuous
 62
     7
370
    25
100
AcDbLine
 10
613.6990302811
 20
407.9524462844
 30
0.0
 11
613.431829425
 21
409.8546977073
 31
0.0
  0
LINE
  5
108
330
1F
100
AcDbEntity
  8
0
  6
Continuous
 62
     7
370
    25
100
AcDbLine
 10
613.9269685931
 20
409.9242477195
 30
0.0
 11
614.1941694492
 21
408.0219962966
 31
0.0
  0
ARC
  5
109
330
1F
100
AcDbEntity
  8
0
  6
Continuous
 62
     7
370
    25
100
AcDbCircle
 10
600.7477034979
 20
400.9461091847
 30
0.0
 40
15.99999999999996
100
AcDbArc
 50
35.0819616499
 51
40.9095821328
  0
ARC
  5
10A
330
1F
100
AcDbEntity
  8
0
  6
Continuous
 62
     7
370
    25
100
AcDbCircle
 10
600.7477034979
 20
400.9461091847
 30
0.0
 40
15.49999999999999
100
AcDbArc
 50
35.0819616499
 51
40.9095821328
  0
LINE
  5
10B
330
1F
100
AcDbEntity
  8
0
  6
Continuous
 62
     7
370
    25
100
AcDbLine
 10
612.8396068562
 20
411.4239845978
 30
0.0
 11
612.4617348763
 21
411.0965509911
 31
0.0
  0
LINE
  5
10C
330
1F
100
AcDbEntity
  8
0
  6
Continuous
 62
     7
370
    25
100
AcDbLine
 10
615.3952596511
 20
395.8766813335
 30
0.0
 11
615.128058795
 21
397.7789327564
 31
0.0
  0
LINE
  5
10D
330
1F
100
AcDbEntity
  8
0
  6
Continuous
 62
     7
370
    25
100
AcDbLine
 10
615.6231979631
 20
397.8484827685
 30
0.0
 11
615.8903988192
 21
395.9462313456
 31
0.0
  0
ARC
  5
10E
330
1F
100
AcDbEntity
  8
0
  6
Continuous
 62
     7
370
    25
100
AcDbCircle
 10
602.1207045068
 20
385.5070396457
 30
0.0
 40
0.5000000000000018
100
AcDbArc
 50
247.9957718913
 51
275.0819616499
  0
LINE
  5
10F
330
1F
100
AcDbEntity
  8
0
  6
Continuous
 62
     7
370
    25
100
AcDbLine
 10
588.0635775708
 20
392.0375206621
 30
0.0
 11
587.5684384026
 21
391.9679706499
 31
0.0
  0
LINE
  5
110
330
1F
100
AcDbEntity
  8
0
  6
Continuous
 62
     7
370
    25
100
AcDbLine
 10
587.5684384026
 20
391.9679706499
 30
0.0
 11
587.3012375466
 21
393.8702220728
 31
0.0
  0
ARC
  5
111
330
1F
100
AcDbEntity
  8
0
  6
Continuous
 62
     7
370
    25
100
AcDbCircle
 10
600.7477034979
 20
400.9461091847
 30
0.0
 40
16.00000000000006
100
AcDbArc
 50
215.0819616499
 51
220.9095821328
  0
LINE
  5
112
330
1F
100
AcDbEntity
  8
0
  6
Continuous
 62
     7
370
    25
100
AcDbLine
 10
588.0635775708
 20
392.0375206621
 30
0.0
 11
587.6544122183
 21
391.7501468388
 31
0.0
  0
ARC
  5
113
330
1F
100
AcDbEntity
  8
0
  6
Continuous
 62
     7
370
    25
100
AcDbCircle
 10
612.4617348763
 20
411.0965509911
 30
0.0
 40
0.4999999999999917
100
AcDbArc
 50
40.9095821328
 51
67.9957718913
  0
ARC
  5
114
330
1F
100
AcDbEntity
  8
0
  6
Continuous
 62
     7
370
    25
100
AcDbCircle
 10
588.0635775708
 20
392.0375206621
 30
0.0
 40
0.4999999999999297
100
AcDbArc
 50
187.9957718913
 51
215.0819616499
  0
ARC
  5
115
330
1F
100
AcDbEntity
  8
0
  6
Continuous
 62
     7
370
    25
100
AcDbCircle
 10
600.7477034979
 20
400.9461091847
 30
0.0
 40
9.575000000000038
100
AcDbArc
 50
145.7240273608
 51
32.9683143588
  0
ARC
  5
116
330
1F
100
AcDbEntity
  8
0
  6
Continuous
 62
     7
370
    25
100
AcDbCircle
 10
600.7477034979
 20
400.9461091847
 30
0.0
 40
8.05000000000003
100
AcDbArc
 50
174.8640807062
 51
238.0532578356
  0
LWPOLYLINE
  5
117
330
1F
100
AcDbEntity
  8
0
  6
Continuous
 62
     7
370
    25
100
AcDbPolyline
 90
        3
 70
   128
 43
0.0
 10
608.7687064856
 20
400.2634591497
 10
608.7418520032
 20
401.8927293166
 10
608.7274232856
 20
402.0075101974
  0
ARC
  5
118
330
1F
100
AcDbEntity
  8
0
  6
Continuous
 62
     7
370
    25
100
AcDbCircle
 10
600.7477034979
 20
400.9461091847
 30
0.0
 40
8.250000000000014
100
AcDbArc
 50
166.1485615056
 51
14.7267435065
  0
SPLINE
  5
119
330
1F
100
AcDbEntity
  8
0
  6
Continuous
 62
     7
370
    25
100
AcDbSpline
210
0.0
220
0.0
230
1.0
 70
     8
 71
     3
 72
    19
 73
    15
 74
     0
 42
0.00000001
 43
0.00000001
 40
0.0
 40
0.0
 40
0.0
 40
0.0
 40
0.002911494948335
 40
0.1103449700018804
 40
0.217779251251235
 40
0.3251903449012483
 40
0.4325535863764742
 40
0.539872738902075
 40
0.6471708839500636
 40
0.7544802800170786
 40
0.8618784706644701
 40
0.9692754543929453
 40
0.9970885050516541
 40
1.0
 40
1.0
 40
1.0
 40
1.0
 10
592.8477034978752
 20
400.9461091846987
 30
0.0
 10
592.8477749893661
 20
400.9221404635049
 30
0.0
 10
592.8504844999667
 20
400.0137315986266
 30
0.0
 10
593.1756541159484
 20
398.2092628079905
 30
0.0
 10
594.5077193219475
 20
395.8583938184261
 30
0.0
 10
596.5446849443259
 20
394.0787515192173
 30
0.0
 10
599.0549811447062
 20
393.0748171392345
 30
0.0
 10
601.7553892259307
 20
392.958254809038
 30
0.0
 10
604.3416820856114
 20
393.7415501213846
 30
0.0
 10
606.5232757387311
 20
395.337170055287
 30
0.0
 10
608.0546327218199
 20
397.5630334292381
 30
0.0
 10
608.5865368189471
 20
399.5328156126101
 30
0.0
 10
608.6468813334585
 20
400.6691803864168
 30
0.0
 10
608.6476323323187
 20
400.9221385631903
 30
0.0
 10
608.6477034978752
 20
400.9461091847005
 30
0.0
  0
ARC
  5
11A
330
1F
100
AcDbEntity
  8
0
  6
Continuous
 62
     7
370
    25
100
AcDbCircle
 10
600.739829428
 20
545.3898122529
 30
0.0
 40
7.892128911588263
100
AcDbArc
 50
89.9428353169
 51
179.9501967774
  0
ARC
  5
11B
330
1F
100
AcDbEntity
  8
0
  6
Continuous
 62
     7
370
    25
100
AcDbCircle
 10
600.7555775678
 20
545.3898122529
 30
0.0
 40
7.892128911587936
100
AcDbArc
 50
0.0498032226
 51
90.0571646831
  0
SPLINE
  5
11C
330
1F
100
AcDbEntity
  8
0
  6
Continuous
 62
     7
370
    25
100
AcDbSpline
210
0.0
220
0.0
230
1.0
 70
     8
 71
     3
 72
    17
 73
    13
 74
     0
 42
0.00000001
 43
0.00000001
 40
0.0
 40
0.0
 40
0.0
 40
0.0
 40
0.0376671985718302
 40
0.148460433342745
 40
0.2592527213937427
 40
0.3701734624636365
 40
0.4815783269801208
 40
0.5929753207203718
 40
0.704836259729297
 40
0.8167489528367885
 40
0.9289020022658319
 40
1.0
 40
1.0
 40
1.0
 40
1.0
 10
593.8069990824935
 20
553.4806628265795
 30
0.0
 10
594.1174093064806
 20
553.7365385040299
 30
0.0
 10
595.3408514023739
 20
554.7450396773709
 30
0.0
 10
597.9136121794539
 20
555.9352692737166
 30
0.0
 10
601.5042444139914
 20
556.3195072931601
 30
0.0
 10
605.0338731665103
 20
555.4903394354684
 30
0.0
 10
608.0948821923974
 20
553.5418545216422
 30
0.0
 10
610.3418364001959
 20
550.6874023205323
 30
0.0
 10
611.5299771936737
 20
547.23834732805
 30
0.0
 10
611.4710178982856
 20
543.6178555886352
 30
0.0
 10
610.4860955376319
 20
540.5181561724462
 30
0.0
 10
609.1615878457793
 20
539.0631671313638
 30
0.0
 10
608.6477034978752
 20
538.4986584469799
 30
0.0
  0
LINE
  5
11D
330
1F
100
AcDbEntity
  8
0
  6
Continuous
 62
     7
370
    25
100
AcDbLine
 10
600.7477034979
 20
393.0461091847
 30
0.0
 11
601.3137374891
 21
393.0895135446
 31
0.0
  0
CIRCLE
  5
11E
330
1F
100
AcDbEntity
  8
0
  6
Continuous
 62
     7
370
    25
100
AcDbCircle
 10
702.3477034979
 20
400.9461091847
 30
0.0
 40
4.452105871057256
  0
CIRCLE
  5
11F
330
1F
100
AcDbEntity
  8
0
  6
Continuous
 62
     7
370
    25
100
AcDbCircle
 10
702.3477034979
 20
400.9461091847
 30
0.0
 40
5.074569253689106
  0
CIRCLE
  5
120
330
1F
100
AcDbEntity
  8
0
  6
Continuous
 62
     7
370
    25
100
AcDbCircle
 10
702.3477034979
 20
400.9461091847
 30
0.0
 40
5.32891433662752
  0
CIRCLE
  5
121
330
1F
100
AcDbEntity
  8
0
  6
Continuous
 62
     7
370
    25
100
AcDbCircle
 10
702.3477034979
 20
400.9461091847
 30
0.0
 40
5.925127771161385
  0
CIRCLE
  5
122
330
1F
100
AcDbEntity
  8
0
  6
Continuous
 62
     7
370
    25
100
AcDbCircle
 10
702.3477034979
 20
400.9461091847
 30
0.0
 40
7.150000000000034
  0
LINE
  5
123
330
1F
100
AcDbEntity
  8
0
  6
Continuous
 62
     7
370
    25
100
AcDbLine
 10
500.3110611073
 20
398.5447347714
 30
0.0
 11
499.1411305387
 21
398.2777844675
 31
0.0
  0
LINE
  5
124
330
1F
100
AcDbEntity
  8
0
  6
Continuous
 62
     7
370
    25
100
AcDbLine
 10
500.032987874
 20
399.763412447
 30
0.0
 11
500.3110611073
 21
398.5447347714
 31
0.0
  0
SPLINE
  5
125
330
1F
100
AcDbEntity
  8
0
  6
Continuous
 62
     7
370
    25
100
AcDbSpline
210
0.0
220
0.0
230
1.0
 70
     8
 71
     3
 72
    12
 73
     8
 74
     0
 42
0.00000001
 43
0.00000001
 40
0.0
 40
0.0
 40
0.0
 40
0.0
 40
0.2133534395476192
 40
0.4267919313634472
 40
0.6383539739091532
 40
0.8490950351927451
 40
1.0
 40
1.0
 40
1.0
 40
1.0
 10
500.5973505394531
 20
400.6614629923067
 30
0.0
 10
500.5177511885241
 20
400.6349905298442
 30
0.0
 10
500.3585207547881
 20
400.5820350518062
 30
0.0
 10
500.168634337521
 20
400.4080319166755
 30
0.0
 10
500.045472950799
 20
400.1877190232203
 30
0.0
 10
500.0020666939895
 20
399.9614162400372
 30
0.0
 10
500.0238840781833
 20
399.8217086086662
 30
0.0
 10
500.0329878740401
 20
399.763412447021
 30
0.0
  0
LINE
  5
126
330
1F
100
AcDbEntity
  8
0
  6
Continuous
 62
     7
370
    25
100
AcDbLine
 10
501.816028215
 20
400.9395362255
 30
0.0
 11
500.5973505395
 21
400.6614629923
 31
0.0
  0
LINE
  5
127
330
1F
100
AcDbEntity
  8
0
  6
Continuous
 62
     7
370
    25
100
AcDbLine
 10
501.5490779111
 20
402.1094667941
 30
0.0
 11
501.816028215
 21
400.9395362255
 31
0.0
  0
LINE
  5
128
330
1F
100
AcDbEntity
  8
0
  6
Continuous
 62
     7
370
    25
100
AcDbLine
 10
500.3304002356
 20
401.8313935609
 30
0.0
 11
501.5490779111
 21
402.1094667941
 31
0.0
  0
SPLINE
  5
129
330
1F
100
AcDbEntity
  8
0
  6
Continuous
 62
     7
370
    25
100
AcDbSpline
210
0.0
220
0.0
230
1.0
 70
     8
 71
     3
 72
    12
 73
     8
 74
     0
 42
0.00000001
 43
0.00000001
 40
0.0
 40
0.0
 40
0.0
 40
0.0
 40
0.2133534395476129
 40
0.4267919313634567
 40
0.638353973909148
 40
0.8490950351927568
 40
1.0
 40
1.0
 40
1.0
 40
1.0
 10
499.4323496902692
 20
402.3957562262785
 30
0.0
 10
499.4588221527316
 20
402.3161568753496
 30
0.0
 10
499.5117776307696
 20
402.1569264416134
 30
0.0
 10
499.6857807659004
 20
401.9670400243466
 30
0.0
 10
499.9060936593556
 20
401.8438786376245
 30
0.0
 10
500.1323964425387
 20
401.8004723808149
 30
0.0
 10
500.2721040739098
 20
401.8222897650088
 30
0.0
 10
500.330400235555
 20
401.8313935608655
 30
0.0
  0
LINE
  5
12A
330
1F
100
AcDbEntity
  8
0
  6
Continuous
 62
     7
370
    25
100
AcDbLine
 10
499.154276457
 20
403.6144339019
 30
0.0
 11
499.4323496903
 21
402.3957562263
 31
0.0
  0
LINE
  5
12B
330
1F
100
AcDbEntity
  8
0
  6
Continuous
 62
     7
370
    25
100
AcDbLine
 10
497.9843458885
 20
403.347483598
 30
0.0
 11
499.154276457
 21
403.6144339019
 31
0.0
  0
LINE
  5
12C
330
1F
100
AcDbEntity
  8
0
  6
Continuous
 62
     7
370
    25
100
AcDbLine
 10
498.2624191217
 20
402.1288059224
 30
0.0
 11
497.9843458885
 21
403.347483598
 31
0.0
  0
SPLINE
  5
12D
330
1F
100
AcDbEntity
  8
0
  6
Continuous
 62
     7
370
    25
100
AcDbSpline
210
0.0
220
0.0
230
1.0
 70
     8
 71
     3
 72
    12
 73
     8
 74
     0
 42
0.00000001
 43
0.00000001
 40
0.0
 40
0.0
 40
0.0
 40
0.0
 40
0.2133534395476191
 40
0.4267919313634471
 40
0.6383539739091529
 40
0.8490950351927449
 40
1.0
 40
1.0
 40
1.0
 40
1.0
 10
497.6980564562973
 20
401.2307553770947
 30
0.0
 10
497.7776558072263
 20
401.2572278395572
 30
0.0
 10
497.9368862409625
 20
401.3101833175951
 30
0.0
 10
498.1267726582294
 20
401.4841864527259
 30
0.0
 10
498.2499340449513
 20
401.7044993461809
 30
0.0
 10
498.2933403017609
 20
401.9308021293642
 30
0.0
 10
498.2715229175671
 20
402.0705097607352
 30
0.0
 10
498.2624191217103
 20
402.1288059223804
 30
0.0
  0
LINE
  5
12E
330
1F
100
AcDbEntity
  8
0
  6
Continuous
 62
     7
370
    25
100
AcDbLine
 10
496.4793787807
 20
400.9526821439
 30
0.0
 11
497.6980564563
 21
401.2307553771
 31
0.0
  0
LINE
  5
12F
330
1F
100
AcDbEntity
  8
0
  6
Continuous
 62
     7
370
    25
100
AcDbLine
 10
496.7463290846
 20
399.7827515753
 30
0.0
 11
496.4793787807
 21
400.9526821439
 31
0.0
  0
LINE
  5
130
330
1F
100
AcDbEntity
  8
0
  6
Continuous
 62
     7
370
    25
100
AcDbLine
 10
497.9650067602
 20
400.0608248085
 30
0.0
 11
496.7463290846
 21
399.7827515753
 31
0.0
  0
SPLINE
  5
131
330
1F
100
AcDbEntity
  8
0
  6
Continuous
 62
     7
370
    25
100
AcDbSpline
210
0.0
220
0.0
230
1.0
 70
     8
 71
     3
 72
    12
 73
     8
 74
     0
 42
0.00000001
 43
0.00000001
 40
0.0
 40
0.0
 40
0.0
 40
0.0
 40
0.2133534395476136
 40
0.4267919313634576
 40
0.6383539739091477
 40
0.8490950351927566
 40
1.0
 40
1.0
 40
1.0
 40
1.0
 10
498.8630573054812
 20
399.4964621431228
 30
0.0
 10
498.8365848430187
 20
399.5760614940518
 30
0.0
 10
498.7836293649808
 20
399.7352919277879
 30
0.0
 10
498.60962622985
 20
399.9251783450548
 30
0.0
 10
498.3893133363949
 20
400.0483397317768
 30
0.0
 10
498.1630105532117
 20
400.0917459885863
 30
0.0
 10
498.0233029218407
 20
400.0699286043925
 30
0.0
 10
497.9650067601955
 20
400.0608248085358
 30
0.0
  0
LINE
  5
132
330
1F
100
AcDbEntity
  8
0
  6
Continuous
 62
     7
370
    25
100
AcDbLine
 10
499.1411305387
 20
398.2777844675
 30
0.0
 11
498.8630573055
 21
399.4964621431
 31
0.0
  0
CIRCLE
  5
133
330
1F
100
AcDbEntity
  8
0
  6
Continuous
 62
     7
370
    25
100
AcDbCircle
 10
499.1477034979
 20
400.9461091847
 30
0.0
 40
4.197433366238944
  0
LINE
  5
134
330
1F
100
AcDbEntity
  8
0
  6
Continuous
 62
     7
370
    25
100
AcDbLine
 10
702.3411305387
 20
403.6144339019
 30
0.0
 11
703.5110611073
 21
403.347483598
 31
0.0
  0
LINE
  5
135
330
1F
100
AcDbEntity
  8
0
  6
Continuous
 62
     7
370
    25
100
AcDbLine
 10
702.0630573055
 20
402.3957562263
 30
0.0
 11
702.3411305387
 21
403.6144339019
 31
0.0
  0
LINE
  5
136
330
1F
100
AcDbEntity
  8
0
  6
Continuous
 62
     7
370
    25
100
AcDbLine
 10
699.9463290846
 20
402.1094667941
 30
0.0
 11
701.1650067602
 21
401.8313935609
 31
0.0
  0
LINE
  5
137
330
1F
100
AcDbEntity
  8
0
  6
Continuous
 62
     7
370
    25
100
AcDbLine
 10
699.6793787807
 20
400.9395362255
 30
0.0
 11
699.9463290846
 21
402.1094667941
 31
0.0
  0
LINE
  5
138
330
1F
100
AcDbEntity
  8
0
  6
Continuous
 62
     7
370
    25
100
AcDbLine
 10
700.8980564563
 20
400.6614629923
 30
0.0
 11
699.6793787807
 21
400.9395362255
 31
0.0
  0
SPLINE
  5
139
330
1F
100
AcDbEntity
  8
0
  6
Continuous
 62
     7
370
    25
100
AcDbSpline
210
0.0
220
0.0
230
1.0
 70
     8
 71
     3
 72
    12
 73
     8
 74
     0
 42
0.00000001
 43
0.00000001
 40
0.0
 40
0.0
 40
0.0
 40
0.0
 40
0.2133534395476283
 40
0.4267919313634483
 40
0.638353973909151
 40
0.8490950351927613
 40
1.0
 40
1.0
 40
1.0
 40
1.0
 10
701.4624191217104
 20
399.763412447021
 30
0.0
 10
701.4730944794514
 20
399.846616321175
 30
0.0
 10
701.4944494506111
 20
400.0130572382862
 30
0.0
 10
701.4200351347005
 20
400.259626603953
 30
0.0
 10
701.2749513822005
 20
400.4661628064994
 30
0.0
 10
701.0898753300146
 20
400.6034359200871
 30
0.0
 10
700.9545316575977
 20
400.6443786954333
 30
0.0
 10
700.8980564562974
 20
400.6614629923067
 30
0.0
  0
LINE
  5
13A
330
1F
100
AcDbEntity
  8
0
  6
Continuous
 62
     7
370
    25
100
AcDbLine
 10
701.1843458885
 20
398.5447347714
 30
0.0
 11
701.4624191217
 21
399.763412447
 31
0.0
  0
LINE
  5
13B
330
1F
100
AcDbEntity
  8
0
  6
Continuous
 62
     7
370
    25
100
AcDbLine
 10
702.354276457
 20
398.2777844675
 30
0.0
 11
701.1843458885
 21
398.5447347714
 31
0.0
  0
LINE
  5
13C
330
1F
100
AcDbEntity
  8
0
  6
Continuous
 62
     7
370
    25
100
AcDbLine
 10
702.6323496903
 20
399.4964621431
 30
0.0
 11
702.354276457
 21
398.2777844675
 31
0.0
  0
LINE
  5
13D
330
1F
100
AcDbEntity
  8
0
  6
Continuous
 62
     7
370
    25
100
AcDbLine
 10
704.7490779111
 20
399.7827515753
 30
0.0
 11
703.5304002356
 21
400.0608248085
 31
0.0
  0
LINE
  5
13E
330
1F
100
AcDbEntity
  8
0
  6
Continuous
 62
     7
370
    25
100
AcDbLine
 10
705.016028215
 20
400.9526821439
 30
0.0
 11
704.7490779111
 21
399.7827515753
 31
0.0
  0
LINE
  5
13F
330
1F
100
AcDbEntity
  8
0
  6
Continuous
 62
     7
370
    25
100
AcDbLine
 10
703.7973505395
 20
401.2307553771
 30
0.0
 11
705.016028215
 21
400.9526821439
 31
0.0
  0
SPLINE
  5
140
330
1F
100
AcDbEntity
  8
0
  6
Continuous
 62
     7
370
    25
100
AcDbSpline
210
0.0
220
0.0
230
1.0
 70
     8
 71
     3
 72
    12
 73
     8
 74
     0
 42
0.00000001
 43
0.00000001
 40
0.0
 40
0.0
 40
0.0
 40
0.0
 40
0.2133534395476283
 40
0.4267919313634483
 40
0.638353973909151
 40
0.8490950351927613
 40
1.0
 40
1.0
 40
1.0
 40
1.0
 10
703.2329878740402
 20
402.1288059223804
 30
0.0
 10
703.222312516299
 20
402.0456020482264
 30
0.0
 10
703.2009575451393
 20
401.8791611311153
 30
0.0
 10
703.2753718610501
 20
401.6325917654483
 30
0.0
 10
703.4204556135502
 20
401.4260555629018
 30
0.0
 10
703.605531665736
 20
401.2887824493145
 30
0.0
 10
703.7408753381529
 20
401.2478396739679
 30
0.0
 10
703.7973505394532
 20
401.2307553770947
 30
0.0
  0
LINE
  5
141
330
1F
100
AcDbEntity
  8
0
  6
Continuous
 62
     7
370
    25
100
AcDbLine
 10
703.5110611073
 20
403.347483598
 30
0.0
 11
703.232987874
 21
402.1288059224
 31
0.0
  0
CIRCLE
  5
142
330
1F
100
AcDbEntity
  8
0
  6
Continuous
 62
     7
370
    25
100
AcDbCircle
 10
702.3477034979
 20
400.9461091847
 30
0.0
 40
4.197433366238833
  0
SPLINE
  5
143
330
1F
100
AcDbEntity
  8
0
  6
Continuous
 62
     7
370
    25
100
AcDbSpline
210
0.0
220
0.0
230
1.0
 70
     8
 71
     3
 72
    12
 73
     8
 74
     0
 42
0.00000001
 43
0.00000001
 40
0.0
 40
0.0
 40
0.0
 40
0.0
 40
0.2133534395476022
 40
0.4267919313634371
 40
0.6383539739091579
 40
0.8490950351927478
 40
1.0
 40
1.0
 40
1.0
 40
1.0
 10
703.530400235555
 20
400.0608248085358
 30
0.0
 10
703.4471963614011
 20
400.0715001662769
 30
0.0
 10
703.2807554442899
 20
400.0928551374365
 30
0.0
 10
703.0341860786228
 20
400.0184408215258
 30
0.0
 10
702.8276498760764
 20
399.8733570690258
 30
0.0
 10
702.690376762489
 20
399.6882810168399
 30
0.0
 10
702.6494339871425
 20
399.5529373444231
 30
0.0
 10
702.6323496902693
 20
399.4964621431228
 30
0.0
  0
SPLINE
  5
144
330
1F
100
AcDbEntity
  8
0
  6
Continuous
 62
     7
370
    25
100
AcDbSpline
210
0.0
220
0.0
230
1.0
 70
     8
 71
     3
 72
    12
 73
     8
 74
     0
 42
0.00000001
 43
0.00000001
 40
0.0
 40
0.0
 40
0.0
 40
0.0
 40
0.2133534395476022
 40
0.4267919313634371
 40
0.6383539739091579
 40
0.8490950351927478
 40
1.0
 40
1.0
 40
1.0
 40
1.0
 10
701.1650067601955
 20
401.8313935608656
 30
0.0
 10
701.2482106343496
 20
401.8207182031245
 30
0.0
 10
701.4146515514608
 20
401.7993632319647
 30
0.0
 10
701.6612209171276
 20
401.8737775478755
 30
0.0
 10
701.867757119674
 20
402.0188613003756
 30
0.0
 10
702.0050302332617
 20
402.2039373525612
 30
0.0
 10
702.0459730086079
 20
402.3392810249782
 30
0.0
 10
702.0630573054813
 20
402.3957562262785
 30
0.0
  0
SPLINE
  5
145
330
1F
100
AcDbEntity
  8
0
  6
Continuous
 62
     7
370
    25
100
AcDbSpline
210
0.0
220
0.0
230
1.0
 70
     8
 71
     3
 72
    11
 73
     7
 74
     0
 42
0.00000001
 43
0.00000001
 40
0.0
 40
0.0
 40
0.0
 40
0.0
 40
0.220038642438222
 40
0.6637869905998096
 40
0.8890365590789573
 40
1.0
 40
1.0
 40
1.0
 40
1.0
 10
492.4701133532834
 20
395.171212166578
 30
0.0
 10
492.2658918902818
 20
395.4362307778368
 30
0.0
 10
491.6498203273983
 20
396.2357081081416
 30
0.0
 10
491.1262709763811
 20
397.4988773786693
 30
0.0
 10
490.87464177662
 20
398.6654471919936
 30
0.0
 10
490.8953489713422
 20
399.176726990653
 30
0.0
 10
490.9021831553684
 20
399.3454693181253
 30
0.0
  0
SPLINE
  5
146
330
1F
100
AcDbEntity
  8
0
  6
Continuous
 62
     7
370
    25
100
AcDbSpline
210
0.0
220
0.0
230
1.0
 70
     8
 71
     3
 72
     9
 73
     5
 74
     0
 42
0.00000001
 43
0.00000001
 40
0.0
 40
0.0
 40
0.0
 40
0.0
 40
0.9209630919903041
 40
0.9999999999999999
 40
0.9999999999999999
 40
0.9999999999999999
 40
0.9999999999999999
 10
490.830070990036
 20
395.4915354422116
 30
0.0
 10
491.3444925279089
 20
395.4347083832931
 30
0.0
 10
491.9030616414236
 20
395.3730044350972
 30
0.0
 10
492.4285781530929
 20
395.185992974209
 30
0.0
 10
492.4701133532834
 20
395.171212166578
 30
0.0
  0
SPLINE
  5
147
330
1F
100
AcDbEntity
  8
0
  6
Continuous
 62
     7
370
    25
100
AcDbSpline
210
0.0
220
0.0
230
1.0
 70
     8
 71
     3
 72
    10
 73
     6
 74
     0
 42
0.00000001
 43
0.00000001
 40
0.0
 40
0.0
 40
0.0
 40
0.0
 40
0.2596150688488838
 40
0.6297606444810658
 40
0.9999999999999999
 40
0.9999999999999999
 40
0.9999999999999999
 40
0.9999999999999999
 10
443.6549100360988
 20
398.0830930112006
 30
0.0
 10
447.7327302548218
 20
397.7833388741022
 30
0.0
 10
457.6244930881871
 20
397.0562109789382
 30
0.0
 10
473.3540657708603
 20
396.2303641090478
 30
0.0
 10
485.0042440321249
 20
395.7378324597822
 30
0.0
 10
490.830070990036
 20
395.4915354422115
 30
0.0
  0
SPLINE
  5
148
330
1F
100
AcDbEntity
  8
0
  6
Continuous
 62
     7
370
    25
100
AcDbSpline
210
0.0
220
0.0
230
1.0
 70
     8
 71
     3
 72
    11
 73
     7
 74
     0
 42
0.00000001
 43
0.00000001
 40
0.0
 40
0.0
 40
0.0
 40
0.0
 40
0.0614641195413936
 40
0.4999988937835383
 40
0.9375097801832719
 40
1.0
 40
1.0
 40
1.0
 40
1.0
 10
443.654910036099
 20
403.8091253582026
 30
0.0
 10
443.6432408398966
 20
403.6926683857506
 30
0.0
 10
443.5483141536272
 20
402.7453131184193
 30
0.0
 10
443.4646113263611
 20
400.9480689199713
 30
0.0
 10
443.5481812498812
 20
399.1488708957298
 30
0.0
 10
443.6430529549265
 20
398.2014960712972
 30
0.0
 10
443.6549100360988
 20
398.0830930112006
 30
0.0
  0
SPLINE
  5
149
330
1F
100
AcDbEntity
  8
0
  6
Continuous
 62
     7
370
    25
100
AcDbSpline
210
0.0
220
0.0
230
1.0
 70
     8
 71
     3
 72
    10
 73
     6
 74
     0
 42
0.00000001
 43
0.00000001
 40
0.0
 40
0.0
 40
0.0
 40
0.0
 40
0.2594618540778874
 40
0.6296073956705975
 40
1.0
 40
1.0
 40
1.0
 40
1.0
 10
490.830070990036
 20
406.4006829271898
 30
0.0
 10
486.7472027519405
 20
406.2332986176642
 30
0.0
 10
476.8397577928759
 20
405.8271256194366
 30
0.0
 10
461.1084612314066
 20
405.0403422617059
 30
0.0
 10
449.4740542811953
 20
404.2196222638647
 30
0.0
 10
443.654910036099
 20
403.8091253582026
 30
0.0
  0
SPLINE
  5
14A
330
1F
100
AcDbEntity
  8
0
  6
Continuous
 62
     7
370
    25
100
AcDbSpline
210
0.0
220
0.0
230
1.0
 70
     8
 71
     3
 72
     9
 73
     5
 74
     0
 42
0.00000001
 43
0.00000001
 40
0.0
 40
0.0
 40
0.0
 40
0.0
 40
0.0790369080192171
 40
1.0
 40
1.0
 40
1.0
 40
1.0
 10
492.4701133532826
 20
406.7210062028232
 30
0.0
 10
492.4285781530872
 20
406.7062253951904
 30
0.0
 10
491.9030616414179
 20
406.5192139343026
 30
0.0
 10
491.3444925279034
 20
406.4575099861072
 30
0.0
 10
490.830070990036
 20
406.4006829271898
 30
0.0
  0
SPLINE
  5
14B
330
1F
100
AcDbEntity
  8
0
  6
Continuous
 62
     7
370
    25
100
AcDbSpline
210
0.0
220
0.0
230
1.0
 70
     8
 71
     3
 72
    11
 73
     7
 74
     0
 42
0.00000001
 43
0.00000001
 40
0.0
 40
0.0
 40
0.0
 40
0.0
 40
0.0728838064943358
 40
0.4140719411595976
 40
0.9209668754550482
 40
1.0
 40
1.0
 40
1.0
 40
1.0
 10
490.902183155372
 20
402.5467490512612
 30
0.0
 10
490.8944680062345
 20
402.6571954855003
 30
0.0
 10
490.8506362288698
 20
403.2846705258312
 30
0.0
 10
491.1951279403079
 20
404.6676625562962
 30
0.0
 10
491.8348172897943
 20
405.9375940740737
 30
0.0
 10
492.3946060392271
 20
406.6278947402469
 30
0.0
 10
492.4701133532826
 20
406.7210062028232
 30
0.0
  0
SPLINE
  5
14C
330
1F
100
AcDbEntity
  8
0
  6
Continuous
 62
     7
370
    25
100
AcDbSpline
210
0.0
220
0.0
230
1.0
 70
     8
 71
     3
 72
    10
 73
     6
 74
     0
 42
0.00000001
 43
0.00000001
 40
0.0
 40
0.0
 40
0.0
 40
0.0
 40
0.3880207377811392
 40
0.9790637766506863
 40
1.0
 40
1.0
 40
1.0
 40
1.0
 10
490.9021831553684
 20
399.3454693181253
 30
0.0
 10
490.9754976861277
 20
399.7563091799811
 30
0.0
 10
491.160486771451
 20
400.7929507498295
 30
0.0
 10
491.06477984562
 20
401.8867200714001
 30
0.0
 10
490.9075616943722
 20
402.52491594012
 30
0.0
 10
490.902183155372
 20
402.5467490512612
 30
0.0
  0
ARC
  5
14D
330
1F
100
AcDbEntity
  8
0
  6
Continuous
 62
     7
370
    25
100
AcDbCircle
 10
499.1477034979
 20
400.9461091847
 30
0.0
 40
8.39944365426445
100
AcDbArc
 50
190.985757993
 51
169.0142420071
  0
SPLINE
  5
14E
330
1F
100
AcDbEntity
  8
0
  6
Continuous
 62
     7
370
    25
100
AcDbSpline
210
0.0
220
0.0
230
1.0
 70
     8
 71
     3
 72
     9
 73
     5
 74
     0
 42
0.00000001
 43
0.00000001
 40
0.0
 40
0.0
 40
0.0
 40
0.0
 40
0.6817923421274332
 40
1.0
 40
1.0
 40
1.0
 40
1.0
 10
492.4701133532826
 20
406.7210062028232
 30
0.0
 10
492.6123769139256
 20
406.9109165579283
 30
0.0
 10
492.821038044086
 20
407.1894623018019
 30
0.0
 10
493.0504638779664
 20
407.4223666747448
 30
0.0
 10
493.1234689352209
 20
407.4964786297672
 30
0.0
  0
ARC
  5
14F
330
1F
100
AcDbEntity
  8
0
  6
Continuous
 62
     7
370
    25
100
AcDbCircle
 10
499.1477034979
 20
400.9461091847
 30
0.0
 40
8.899367501836336
100
AcDbArc
 50
227.3959191961
 51
132.6040808039
  0
LINE
  5
150
330
1F
100
AcDbEntity
  8
0
  6
Continuous
 62
     7
370
    25
100
AcDbLine
 10
493.1234689352
 20
394.3957397396
 30
0.0
 11
492.4701133533
 21
395.1712121666
 31
0.0
  0
SPLINE
  5
151
330
1F
100
AcDbEntity
  8
0
  6
Continuous
 62
     7
370
    25
100
AcDbSpline
210
0.0
220
0.0
230
1.0
 70
     8
 71
     3
 72
    10
 73
     6
 74
     0
 42
0.00000001
 43
0.00000001
 40
0.0
 40
0.0
 40
0.0
 40
0.0
 40
0.3702896688583039
 40
0.7405318123903297
 40
1.0
 40
1.0
 40
1.0
 40
1.0
 10
443.6433905729206
 20
404.2519849390358
 30
0.0
 10
449.4634544191389
 20
404.5721759535621
 30
0.0
 10
461.1028351276425
 20
405.2125168872677
 30
0.0
 10
476.8217035344173
 20
406.0817512191309
 30
0.0
 10
486.7188773504271
 20
406.6304922207401
 30
0.0
 10
490.7969456708913
 20
406.8565975045719
 30
0.0
  0
ARC
  5
152
330
1F
100
AcDbEntity
  8
0
  6
Continuous
 62
     7
370
    25
100
AcDbCircle
 10
483.5818564634
 20
406.1032111379
 30
0.0
 40
7.254316183435178
100
AcDbArc
 50
2.3501399449
 51
5.9611177313
  0
ARC
  5
153
330
1F
100
AcDbEntity
  8
0
  6
Continuous
 62
     7
370
    25
100
AcDbCircle
 10
447.9039131141
 20
404.141228115
 30
0.0
 40
4.261961918898772
100
AcDbArc
 50
178.5108705386
 51
184.4691613065
  0
SPLINE
  5
154
330
1F
100
AcDbEntity
  8
0
  6
Continuous
 62
     7
370
    25
100
AcDbSpline
210
0.0
220
0.0
230
1.0
 70
     8
 71
     3
 72
    10
 73
     6
 74
     0
 42
0.00000001
 43
0.00000001
 40
0.0
 40
0.0
 40
0.0
 40
0.0
 40
0.3702717503651154
 40
0.740512215137175
 40
1.0
 40
1.0
 40
1.0
 40
1.0
 10
490.7969456708913
 20
395.0356208648295
 30
0.0
 10
484.977273609222
 20
395.3581493504974
 30
0.0
 10
473.3384212109252
 20
396.0031790702404
 30
0.0
 10
457.6192816269706
 20
396.8719935577193
 30
0.0
 10
447.7217842032719
 20
397.4160484684862
 30
0.0
 10
443.6433905729239
 20
397.6402334303654
 30
0.0
  0
ARC
  5
155
330
1F
100
AcDbEntity
  8
0
  6
Continuous
 62
     7
370
    25
100
AcDbCircle
 10
447.903913117
 20
397.7509902543
 30
0.0
 40
4.261961921793893
100
AcDbArc
 50
175.530838696
 51
181.4891294598
  0
ARC
  5
156
330
1F
100
AcDbEntity
  8
0
  6
Continuous
 62
     7
370
    25
100
AcDbCircle
 10
483.5818564633
 20
395.7890072315
 30
0.0
 40
7.254316183531111
100
AcDbArc
 50
354.0388822687
 51
357.6498600551
  0
SPLINE
  5
157
330
1F
100
AcDbEntity
  8
0
  6
Continuous
 62
     7
370
    25
100
AcDbSpline
210
0.0
220
0.0
230
1.0
 70
     8
 71
     3
 72
    12
 73
     8
 74
     0
 42
0.00000001
 43
0.00000001
 40
0.0
 40
0.0
 40
0.0
 40
0.0
 40
0.1224290494151403
 40
0.3423522449770492
 40
0.5614228816909422
 40
0.7807229538533544
 40
0.9999999999999999
 40
0.9999999999999999
 40
0.9999999999999999
 40
0.9999999999999999
 10
441.7191826032513
 20
398.1937673808569
 30
0.0
 10
441.7281866791154
 20
398.191408696416
 30
0.0
 10
441.7533650628464
 20
398.1848130320912
 30
0.0
 10
441.9693527464912
 20
398.167805064352
 30
0.0
 10
442.4052508762201
 20
398.1422940901975
 30
0.0
 10
442.9891764896504
 20
398.1127419076382
 30
0.0
 10
443.4330066212185
 20
398.0929756307592
 30
0.0
 10
443.6549100360988
 20
398.0830930112006
 30
0.0
  0
SPLINE
  5
158
330
1F
100
AcDbEntity
  8
0
  6
Continuous
 62
     7
370
    25
100
AcDbSpline
210
0.0
220
0.0
230
1.0
 70
     8
 71
     3
 72
    11
 73
     7
 74
     0
 42
0.00000001
 43
0.00000001
 40
0.0
 40
0.0
 40
0.0
 40
0.0
 40
0.0800485240044431
 40
0.5000005853538783
 40
0.9209248322279701
 40
1.0
 40
1.0
 40
1.0
 40
1.0
 10
441.7191826032513
 20
398.1937673808569
 30
0.0
 10
441.7194688476654
 20
398.3400118059575
 30
0.0
 10
441.7212567928701
 20
399.2534864647907
 30
0.0
 10
441.7224924896998
 20
400.947896052549
 30
0.0
 10
441.7212547916052
 20
402.640522904404
 30
0.0
 10
441.7194655696371
 20
403.5539862800476
 30
0.0
 10
441.7191826032513
 20
403.698450988539
 30
0.0
  0
SPLINE
  5
159
330
1F
100
AcDbEntity
  8
0
  6
Continuous
 62
     7
370
    25
100
AcDbSpline
210
0.0
220
0.0
230
1.0
 70
     8
 71
     3
 72
    12
 73
     8
 74
     0
 42
0.00000001
 43
0.00000001
 40
0.0
 40
0.0
 40
0.0
 40
0.0
 40
0.1130367476169301
 40
0.332859469354799
 40
0.5544127937945015
 40
0.7774207483513266
 40
0.9999999999999999
 40
0.9999999999999999
 40
0.9999999999999999
 40
0.9999999999999999
 10
443.654910036099
 20
403.8091253582026
 30
0.0
 10
443.5408391961121
 20
403.8041101125012
 30
0.0
 10
443.2049346335042
 20
403.7893417114453
 30
0.0
 10
442.6708667771095
 20
403.7637495073362
 30
0.0
 10
442.1543411392223
 20
403.735874244465
 30
0.0
 10
441.7974464220678
 20
403.7124323708745
 30
0.0
 10
441.7452538045493
 20
403.7031084591148
 30
0.0
 10
441.7191826032513
 20
403.698450988539
 30
0.0
  0
SPLINE
  5
15A
330
1F
100
AcDbEntity
  8
0
  6
Continuous
 62
     7
370
    25
100
AcDbSpline
210
0.0
220
0.0
230
1.0
 70
     8
 71
     3
 72
     9
 73
     5
 74
     0
 42
0.00000001
 43
0.00000001
 40
0.0
 40
0.0
 40
0.0
 40
0.0
 40
0.5000106123815462
 40
1.0
 40
1.0
 40
1.0
 40
1.0
 10
493.6230767840639
 20
393.9639080503877
 30
0.0
 10
493.193355417243
 20
394.251748588481
 30
0.0
 10
492.3339309246824
 20
394.8274174462325
 30
0.0
 10
491.3092668394042
 20
394.9662207073192
 30
0.0
 10
490.7969456708913
 20
395.0356208648295
 30
0.0
  0
SPLINE
  5
15B
330
1F
100
AcDbEntity
  8
0
  6
Continuous
 62
     7
370
    25
100
AcDbSpline
210
0.0
220
0.0
230
1.0
 70
     8
 71
     3
 72
     9
 73
     5
 74
     0
 42
0.00000001
 43
0.00000001
 40
0.0
 40
0.0
 40
0.0
 40
0.0
 40
0.9838702326459283
 40
1.0
 40
1.0
 40
1.0
 40
1.0
 10
493.123468935221
 20
394.3957397396341
 30
0.0
 10
493.2848097501553
 20
394.2509073266168
 30
0.0
 10
493.4487956190035
 20
394.1037005017618
 30
0.0
 10
493.620310292286
 20
393.9661270777116
 30
0.0
 10
493.6230767840639
 20
393.9639080503877
 30
0.0
  0
SPLINE
  5
15C
330
1F
100
AcDbEntity
  8
0
  6
Continuous
 62
     7
370
    25
100
AcDbSpline
210
0.0
220
0.0
230
1.0
 70
     8
 71
     3
 72
     9
 73
     5
 74
     0
 42
0.00000001
 43
0.00000001
 40
0.0
 40
0.0
 40
0.0
 40
0.0
 40
0.5055561057107292
 40
1.0
 40
1.0
 40
1.0
 40
1.0
 10
490.7969456708913
 20
406.8565975045719
 30
0.0
 10
491.3150051882243
 20
406.9272535388419
 30
0.0
 10
492.3397371842996
 20
407.0670125754193
 30
0.0
 10
493.1984777530612
 20
407.643345850215
 30
0.0
 10
493.6230767840639
 20
407.9283103190136
 30
0.0
  0
SPLINE
  5
15D
330
1F
100
AcDbEntity
  8
0
  6
Continuous
 62
     7
370
    25
100
AcDbSpline
210
0.0
220
0.0
230
1.0
 70
     8
 71
     3
 72
     9
 73
     5
 74
     0
 42
0.00000001
 43
0.00000001
 40
0.0
 40
0.0
 40
0.0
 40
0.0
 40
0.0161297673533392
 40
1.0
 40
1.0
 40
1.0
 40
1.0
 10
493.6230767840639
 20
407.9283103190136
 30
0.0
 10
493.6203102922861
 20
407.9260912916897
 30
0.0
 10
493.4487956189995
 20
407.7885178676399
 30
0.0
 10
493.2848097501534
 20
407.6413110427848
 30
0.0
 10
493.1234689352209
 20
407.4964786297672
 30
0.0
  0
SPLINE
  5
15E
330
1F
100
AcDbEntity
  8
0
  6
Continuous
 62
     7
370
    25
100
AcDbSpline
210
0.0
220
0.0
230
1.0
 70
     8
 71
     3
 72
    12
 73
     8
 74
     0
 42
0.00000001
 43
0.00000001
 40
0.0
 40
0.0
 40
0.0
 40
0.0
 40
0.2230315344150386
 40
0.4461337558340284
 40
0.6675099896776968
 40
0.8870667292264973
 40
1.0
 40
1.0
 40
1.0
 40
1.0
 10
442.1915368683358
 20
404.1976140595874
 30
0.0
 10
442.2110706544617
 20
404.1957238122926
 30
0.0
 10
442.2501444176983
 20
404.1919427186132
 30
0.0
 10
442.5177335997543
 20
404.1988855548839
 30
0.0
 10
442.9052626835795
 20
404.2144743773737
 30
0.0
 10
443.3059847960425
 20
404.233811657438
 30
0.0
 10
443.5578442183004
 20
404.2473772586145
 30
0.0
 10
443.6433905729206
 20
404.2519849390358
 30
0.0
  0
ARC
  5
15F
330
1F
100
AcDbEntity
  8
0
  6
Continuous
 62
     7
370
    25
100
AcDbCircle
 10
442.2192824909
 20
403.6982844032
 30
0.0
 40
0.5000999153468912
100
AcDbArc
 50
93.1804119247
 51
179.9809145383
  0
SPLINE
  5
160
330
1F
100
AcDbEntity
  8
0
  6
Continuous
 62
     7
370
    25
100
AcDbSpline
210
0.0
220
0.0
230
1.0
 70
     8
 71
     3
 72
    12
 73
     8
 74
     0
 42
0.00000001
 43
0.00000001
 40
0.0
 40
0.0
 40
0.0
 40
0.0
 40
0.219044434010933
 40
0.4380981679380228
 40
0.6571027493691795
 40
0.8772791087289967
 40
1.0
 40
1.0
 40
1.0
 40
1.0
 10
443.6433905729239
 20
397.6402334303652
 30
0.0
 10
443.4769728321531
 20
397.6490622433151
 30
0.0
 10
443.144130285054
 20
397.6667202440574
 30
0.0
 10
442.7059718424108
 20
397.6862387334664
 30
0.0
 10
442.3790060156512
 20
397.6975445170985
 30
0.0
 10
442.217162138637
 20
397.6993683851755
 30
0.0
 10
442.1982908062249
 20
397.6958599558504
 30
0.0
 10
442.1915368683358
 20
397.6946043098139
 30
0.0
  0
ARC
  5
161
330
1F
100
AcDbEntity
  8
0
  6
Continuous
 62
     7
370
    25
100
AcDbCircle
 10
442.2192824909
 20
398.1939339662
 30
0.0
 40
0.5000999153470143
100
AcDbArc
 50
180.0190854623
 51
266.8195880753
  0
LINE
  5
162
330
1F
100
AcDbEntity
  8
0
  6
Continuous
 62
     7
370
    25
100
AcDbLine
 10
490.7969456709
 20
406.8565975046
 30
0.0
 11
490.7699594892
 21
406.9278877799
 31
0.0
  0
LINE
  5
163
330
1F
100
AcDbEntity
  8
0
  6
Continuous
 62
     7
370
    25
100
AcDbLine
 10
442.1868465077
 20
404.2020525127
 30
0.0
 11
442.1915368683
 21
404.1976140596
 31
0.0
  0
ELLIPSE
  5
164
330
1F
100
AcDbEntity
  8
0
  6
Continuous
 62
     7
370
    25
100
AcDbEllipse
 10
443.6866180504
 20
404.2853449627
 30
0.0
 11
1.499999304622804
 21
0.08287263343862605
 31
0.0
210
0.0
220
0.0
230
1.0
 40
0.0174284859
 41
2.255125316697616
 42
3.158083049619706
  0
LINE
  5
165
330
1F
100
AcDbEntity
  8
0
  6
Continuous
 62
     7
370
    25
100
AcDbLine
 10
446.2022327194
 20
404.4941045507
 30
0.0
 11
442.73726951
 21
404.2532132717
 31
0.0
  0
LINE
  5
166
330
1F
100
AcDbEntity
  8
0
  6
Continuous
 62
     7
370
    25
100
AcDbLine
 10
446.2022327194
 20
404.4940061595
 30
0.0
 11
446.2022327194
 21
404.4941045507
 31
0.0
  0
ELLIPSE
  5
167
330
1F
100
AcDbEntity
  8
0
  6
Continuous
 62
     7
370
    25
100
AcDbEllipse
 10
455.6517191404
 20
404.8236522109
 30
0.0
 11
14.49999327802044
 21
0.8011021232406962
 31
0.0
210
0.0
220
0.0
230
1.0
 40
0.0174284859
 41
1.543516838852419
 42
2.279642175407842
  0
ELLIPSE
  5
168
330
1F
100
AcDbEntity
  8
0
  6
Continuous
 62
     7
370
    25
100
AcDbEllipse
 10
456.9727290559
 20
405.7739357602
 30
0.0
 11
35.70262504606012
 21
1.972514619921981
 31
0.0
210
0.0
220
0.0
230
1.0
 40
0.0174284859
 41
4.68510949244221
 42
5.167309992307993
  0
ELLIPSE
  5
169
330
1F
100
AcDbEntity
  8
0
  6
Continuous
 62
     7
370
    25
100
AcDbEllipse
 10
475.992956528
 20
406.1463318199
 30
0.0
 11
7.499996523114079
 21
0.4143631671934714
 31
0.0
210
0.0
220
0.0
230
1.0
 40
0.0174284859
 41
1.834826681008047
 42
2.025717338718045
  0
LINE
  5
16A
330
1F
100
AcDbEntity
  8
0
  6
Continuous
 62
     7
370
    25
100
AcDbLine
 10
474.0483041269
 20
406.0139873687
 30
0.0
 11
474.0286858695
 21
406.1643779133
 31
0.0
  0
SPLINE
  5
16B
330
1F
100
AcDbEntity
  8
0
  6
Continuous
 62
     7
370
    25
100
AcDbSpline
210
0.0
220
0.0
230
1.0
 70
     8
 71
     3
 72
    10
 73
     6
 74
     0
 42
0.00000001
 43
0.00000001
 40
0.0
 40
0.0
 40
0.0
 40
0.0
 40
0.0186368637457324
 40
0.3939469944632895
 40
1.0
 40
1.0
 40
1.0
 40
1.0
 10
474.2320754126214
 20
406.0144737359757
 30
0.0
 10
474.2296192053728
 20
406.0143859854965
 30
0.0
 10
474.1776997688958
 20
406.0125311113033
 30
0.0
 10
474.0737009204178
 20
406.0098511299255
 30
0.0
 10
474.0580002630685
 20
406.012408211323
 30
0.0
 10
474.048304126925
 20
406.0139873687309
 30
0.0
  0
LINE
  5
16C
330
1F
100
AcDbEntity
  8
0
  6
Continuous
 62
     7
370
    25
100
AcDbLine
 10
490.7699594892
 20
406.9278877799
 30
0.0
 11
474.2320754126
 21
406.014473736
 31
0.0
  0
LINE
  5
16D
330
1F
100
AcDbEntity
  8
0
  6
Continuous
 62
     7
370
    25
100
AcDbLine
 10
474.2300096807
 20
395.8615409846
 30
0.0
 11
490.7639181041
 21
394.9483465224
 31
0.0
  0
SPLINE
  5
16E
330
1F
100
AcDbEntity
  8
0
  6
Continuous
 62
     7
370
    25
100
AcDbSpline
210
0.0
220
0.0
230
1.0
 70
     8
 71
     3
 72
    11
 73
     7
 74
     0
 42
0.00000001
 43
0.00000001
 40
0.0
 40
0.0
 40
0.0
 40
0.0
 40
0.4177469294495163
 40
0.8392770662410544
 40
0.9817832068819337
 40
1.0
 40
1.0
 40
1.0
 40
1.0
 10
474.0463042400532
 20
395.862890429884
 30
0.0
 10
474.0509412680851
 20
395.8639736210676
 30
0.0
 10
474.0602573180864
 20
395.8661498130507
 30
0.0
 10
474.1357537838364
 20
395.8649476361592
 30
0.0
 10
474.2060139844086
 20
395.8624771088194
 30
0.0
 10
474.2275668210661
 20
395.8616362858623
 30
0.0
 10
474.2300096806962
 20
395.8615409846038
 30
0.0
  0
LINE
  5
16F
330
1F
100
AcDbEntity
  8
0
  6
Continuous
 62
     7
370
    25
100
AcDbLine
 10
474.0286858695
 20
395.7278404561
 30
0.0
 11
474.0463042401
 21
395.8628904299
 31
0.0
  0
ELLIPSE
  5
170
330
1F
100
AcDbEntity
  8
0
  6
Continuous
 62
     7
370
    25
100
AcDbEllipse
 10
475.992956528
 20
395.7458865495
 30
0.0
 11
7.499996523114078
 21
-0.4143631671935282
 31
0.0
210
0.0
220
0.0
230
1.0
 40
0.0174284859
 41
4.25746796846177
 42
4.448358626171846
  0
ELLIPSE
  5
171
330
1F
100
AcDbEntity
  8
0
  6
Continuous
 62
     7
370
    25
100
AcDbEllipse
 10
456.9727290559
 20
396.1182826092
 30
0.0
 11
35.70262504606006
 21
-1.972514619921924
 31
0.0
210
0.0
220
0.0
230
1.0
 40
0.0174284859
 41
1.115875314871812
 42
1.598075814737372
  0
ELLIPSE
  5
172
330
1F
100
AcDbEntity
  8
0
  6
Continuous
 62
     7
370
    25
100
AcDbEllipse
 10
455.6517191404
 20
397.0685661585
 30
0.0
 11
14.49999327802044
 21
-0.8011021232407529
 31
0.0
210
0.0
220
0.0
230
1.0
 40
0.0174284859
 41
4.003543131772286
 42
4.739668468327163
  0
LINE
  5
173
330
1F
100
AcDbEntity
  8
0
  6
Continuous
 62
     7
370
    25
100
AcDbLine
 10
446.2022327194
 20
397.3981138187
 30
0.0
 11
446.2022327194
 21
397.3982122099
 31
0.0
  0
LINE
  5
174
330
1F
100
AcDbEntity
  8
0
  6
Continuous
 62
     7
370
    25
100
AcDbLine
 10
442.73726951
 20
397.6390050977
 30
0.0
 11
446.2022327194
 21
397.3981138187
 31
0.0
  0
ELLIPSE
  5
175
330
1F
100
AcDbEntity
  8
0
  6
Continuous
 62
     7
370
    25
100
AcDbEllipse
 10
443.6866180504
 20
397.6068734067
 30
0.0
 11
1.499999304622804
 21
-0.08287263343862605
 31
0.0
210
0.0
220
0.0
230
1.0
 40
0.0174284859
 41
3.125102257567249
 42
4.028059990480166
  0
LINE
  5
176
330
1F
100
AcDbEntity
  8
0
  6
Continuous
 62
     7
370
    25
100
AcDbLine
 10
442.1915368683
 20
397.6946043098
 30
0.0
 11
442.1868465077
 21
397.6901658567
 31
0.0
  0
LINE
  5
177
330
1F
100
AcDbEntity
  8
0
  6
Continuous
 62
     7
370
    25
100
AcDbLine
 10
490.7639181041
 20
394.9483465224
 30
0.0
 11
490.7969456709
 21
395.0356208648
 31
0.0
  0
SPLINE
  5
178
330
1F
100
AcDbEntity
  8
0
  6
Continuous
 62
     7
370
    25
100
AcDbSpline
210
0.0
220
0.0
230
1.0
 70
     8
 71
     3
 72
     9
 73
     5
 74
     0
 42
0.00000001
 43
0.00000001
 40
0.0
 40
0.0
 40
0.0
 40
0.0
 40
0.5001021276704727
 40
1.0
 40
1.0
 40
1.0
 40
1.0
 10
493.5898579180084
 20
407.9940017659737
 30
0.0
 10
493.1609101423011
 20
407.7074761318852
 30
0.0
 10
492.3031897848505
 20
407.1345418885874
 30
0.0
 10
491.2809666562354
 20
406.9967631021332
 30
0.0
 10
490.7699594891947
 20
406.9278877799326
 30
0.0
  0
LINE
  5
179
330
1F
100
AcDbEntity
  8
0
  6
Continuous
 62
     7
370
    25
100
AcDbLine
 10
493.589857918
 20
407.994001766
 30
0.0
 11
493.6230767841
 21
407.928310319
 31
0.0
  0
SPLINE
  5
17A
330
1F
100
AcDbEntity
  8
0
  6
Continuous
 62
     7
370
    25
100
AcDbSpline
210
0.0
220
0.0
230
1.0
 70
     8
 71
     3
 72
     9
 73
     5
 74
     0
 42
0.00000001
 43
0.00000001
 40
0.0
 40
0.0
 40
0.0
 40
0.0
 40
0.4007227371565278
 40
0.9999999999999999
 40
0.9999999999999999
 40
0.9999999999999999
 40
0.9999999999999999
 10
490.763918104143
 20
394.9483465223892
 30
0.0
 10
491.1726042275523
 20
394.8999392603236
 30
0.0
 10
492.1924767865921
 20
394.77913937158
 30
0.0
 10
493.061552830418
 20
394.2190320982263
 30
0.0
 10
493.5823703431649
 20
393.8833725445521
 30
0.0
  0
LINE
  5
17B
330
1F
100
AcDbEntity
  8
0
  6
Continuous
 62
     7
370
    25
100
AcDbLine
 10
493.6230767841
 20
393.9639080504
 30
0.0
 11
493.5823703432
 21
393.8833725446
 31
0.0
  0
ARC
  5
17C
330
1F
100
AcDbEntity
  8
0
  6
Continuous
 62
     7
370
    25
100
AcDbCircle
 10
499.1477034979
 20
400.9461091847
 30
0.0
 40
8.975658044222198
100
AcDbArc
 50
65.1648853947
 51
128.2586979829
  0
LWPOLYLINE
  5
17D
330
1F
100
AcDbEntity
  8
0
  6
Continuous
 62
     7
370
    25
100
AcDbPolyline
 90
        3
 70
   128
 43
0.0
 10
503.0830169221
 20
409.196768908
 10
502.978435358
 20
409.1305164967
 10
502.9175548153
 20
409.0917005304
  0
ARC
  5
17E
330
1F
100
AcDbEntity
  8
0
  6
Continuous
 62
     7
370
    25
100
AcDbCircle
 10
499.1477034979
 20
400.9461091847
 30
0.0
 40
9.141120151092181
100
AcDbArc
 50
295.4997164176
 51
64.5002794289
  0
LWPOLYLINE
  5
17F
330
1F
100
AcDbEntity
  8
0
  6
Continuous
 62
     7
370
    25
100
AcDbPolyline
 90
        3
 70
   128
 43
0.0
 10
502.9338477257
 20
392.7901117682
 10
502.978435358
 20
392.7617018727
 10
503.0830169224
 20
392.6954494612
  0
ARC
  5
180
330
1F
100
AcDbEntity
  8
0
  6
Continuous
 62
     7
370
    25
100
AcDbCircle
 10
499.1477034979
 20
400.9461091847
 30
0.0
 40
8.99195095466079
100
AcDbArc
 50
231.762407147
 51
294.9014811666
  0
LINE
  5
181
330
1F
100
AcDbEntity
  8
0
  6
Continuous
 62
     7
370
    25
100
AcDbLine
 10
441.7144922426
 20
398.1893289278
 30
0.0
 11
441.7191826033
 21
398.1937673809
 31
0.0
  0
LINE
  5
182
330
1F
100
AcDbEntity
  8
0
  6
Continuous
 62
     7
370
    25
100
AcDbLine
 10
441.7144922426
 20
403.7028894416
 30
0.0
 11
441.7144922426
 21
398.1893289278
 31
0.0
  0
LINE
  5
183
330
1F
100
AcDbEntity
  8
0
  6
Continuous
 62
     7
370
    25
100
AcDbLine
 10
441.7191826033
 20
403.6984509885
 30
0.0
 11
441.7144922426
 21
403.7028894416
 31
0.0
  0
ARC
  5
184
330
1F
100
AcDbEntity
  8
0
  6
Continuous
 62
     7
370
    25
100
AcDbCircle
 10
442.2145921302
 20
398.1894955131
 30
0.0
 40
0.5000999153470773
100
AcDbArc
 50
180.0190854617
 51
266.8195880753
  0
ARC
  5
185
330
1F
100
AcDbEntity
  8
0
  6
Continuous
 62
     7
370
    25
100
AcDbCircle
 10
442.2145921302
 20
403.7027228563
 30
0.0
 40
0.5000999153468376
100
AcDbArc
 50
93.1804119247
 51
179.9809145383
  0
LINE
  5
186
330
1F
100
AcDbEntity
  8
0
  6
Continuous
 62
     7
370
    25
100
AcDbLine
 10
442.73726951
 20
397.6390050977
 30
0.0
 11
442.7301617792
 21
397.6393721344
 31
0.0
  0
LINE
  5
187
330
1F
100
AcDbEntity
  8
0
  6
Continuous
 62
     7
370
    25
100
AcDbLine
 10
442.73726951
 20
404.2532132717
 30
0.0
 11
442.7301617792
 21
404.252846235
 31
0.0
  0
SPLINE
  5
188
330
1F
100
AcDbEntity
  8
0
  6
Continuous
 62
     7
370
    25
100
AcDbSpline
210
0.0
220
0.0
230
1.0
 70
     8
 71
     3
 72
    11
 73
     7
 74
     0
 42
0.00000001
 43
0.00000001
 40
0.0
 40
0.0
 40
0.0
 40
0.0
 40
0.1345990676765949
 40
0.4126978815969493
 40
0.6969472592954595
 40
1.0
 40
1.0
 40
1.0
 40
1.0
 10
502.9183334216992
 20
409.092507147521
 30
0.0
 10
502.4890274014509
 20
409.2833910326821
 30
0.0
 10
501.1727204747267
 20
409.868665332102
 30
0.0
 10
498.7969104238434
 20
410.4911332161255
 30
0.0
 10
495.7432210389623
 20
410.867635898626
 30
0.0
 10
493.5521911306016
 20
410.8947772269588
 30
0.0
 10
492.4216016130636
 20
410.9087823764038
 30
0.0
  0
ARC
  5
189
330
1F
100
AcDbEntity
  8
0
  6
Continuous
 62
     7
370
    25
100
AcDbCircle
 10
496.9141326061
 20
410.2889583318
 30
0.0
 40
4.535087272519577
100
AcDbArc
 50
149.0284626407
 51
172.1446266983
  0
SPLINE
  5
18A
330
1F
100
AcDbEntity
  8
0
  6
Continuous
 62
     7
370
    25
100
AcDbSpline
210
0.0
220
0.0
230
1.0
 70
     8
 71
     3
 72
    12
 73
     8
 74
     0
 42
0.00000001
 43
0.00000001
 40
0.0
 40
0.0
 40
0.0
 40
0.0
 40
0.1662426524176546
 40
0.3368059756191307
 40
0.6054181071254587
 40
0.8801435087136193
 40
1.0
 40
1.0
 40
1.0
 40
1.0
 10
493.0256442505647
 20
412.6227695663716
 30
0.0
 10
493.6633257711007
 20
412.4672843908887
 30
0.0
 10
494.9552622479014
 20
412.1522729575335
 30
0.0
 10
497.1394486302508
 20
411.4893078525347
 30
0.0
 10
499.5014229738106
 20
410.6371129357295
 30
0.0
 10
501.466960535703
 20
409.7944842571174
 30
0.0
 10
502.5807355204988
 20
409.2566261644221
 30
0.0
 10
502.9190509986562
 20
409.093248713595
 30
0.0
  0
LINE
  5
18B
330
1F
100
AcDbEntity
  8
0
  6
Continuous
 62
     7
370
    25
100
AcDbLine
 10
502.9190509987
 20
409.0932487136
 30
0.0
 11
502.9183334217
 21
409.0925071475
 31
0.0
  0
LINE
  5
18C
330
1F
100
AcDbEntity
  8
0
  6
Continuous
 62
     7
370
    25
100
AcDbLine
 10
493.0256442506
 20
412.6227695664
 30
0.0
 11
493.0415023275
 21
412.6922430979
 31
0.0
  0
ARC
  5
18D
330
1F
100
AcDbEntity
  8
0
  6
Continuous
 62
     7
370
    25
100
AcDbCircle
 10
482.319724091
 20
365.7206082857
 30
0.0
 40
48.17977797259056
100
AcDbArc
 50
64.4718479123
 51
77.1419190681
  0
LWPOLYLINE
  5
18E
330
1F
100
AcDbEntity
  8
0
  6
Continuous
 62
     7
370
    25
100
AcDbPolyline
 90
        3
 70
   128
 43
0.0
 10
502.9190509987
 20
409.0932487136
 10
502.978438849
 20
409.1307724172
 10
503.0830169218
 20
409.1967704471
  0
LINE
  5
18F
330
1F
100
AcDbEntity
  8
0
  6
Continuous
 62
     7
370
    25
100
AcDbLine
 10
493.589857918
 20
407.994001766
 30
0.0
 11
491.3919859978
 21
410.7811186403
 31
0.0
  0
ARC
  5
190
330
1F
100
AcDbEntity
  8
0
  6
Continuous
 62
     7
370
    25
100
AcDbCircle
 10
499.1477034979
 20
400.9461091847
 30
0.0
 40
12.52511736202734
100
AcDbArc
 50
127.8583068702
 51
128.2586979829
  0
LINE
  5
191
330
1F
100
AcDbEntity
  8
0
  6
Continuous
 62
     7
370
    25
100
AcDbLine
 10
492.4216016131
 20
410.9087823764
 30
0.0
 11
491.4609032642
 21
410.8350761227
 31
0.0
  0
LINE
  5
192
330
1F
100
AcDbEntity
  8
0
  6
Continuous
 62
     7
370
    25
100
AcDbLine
 10
502.9175548153
 20
409.0917005304
 30
0.0
 11
502.9183334217
 21
409.0925071475
 31
0.0
  0
ARC
  5
193
330
1F
100
AcDbEntity
  8
0
  6
Continuous
 62
     7
370
    25
100
AcDbCircle
 10
481.2300317842
 20
406.2227085729
 30
0.0
 40
6.834138728215801
100
AcDbArc
 50
31.8771071303
 51
46.9488007428
  0
SPLINE
  5
194
330
1F
100
AcDbEntity
  8
0
  6
Continuous
 62
     7
370
    25
100
AcDbSpline
210
0.0
220
0.0
230
1.0
 70
     8
 71
     3
 72
    16
 73
    12
 74
     0
 42
0.00000001
 43
0.00000001
 40
0.0
 40
0.0
 40
0.0
 40
0.0
 40
0.2861254310575663
 40
0.7591203623085422
 40
0.8520758313858444
 40
0.9266344548631253
 40
0.9604862301433728
 40
0.9835335436569236
 40
0.9930756629548354
 40
0.997224229202362
 40
1.0
 40
1.0
 40
1.0
 40
1.0
 10
487.0334645753157
 20
409.8318109536858
 30
0.0
 10
485.8053177381919
 20
409.3017436443338
 30
0.0
 10
482.5469171531077
 20
407.8954202482067
 30
0.0
 10
478.7493356985004
 20
406.8776082453221
 30
0.0
 10
475.9516740485959
 20
406.3156880275507
 30
0.0
 10
475.0865411097015
 20
406.1611855116577
 30
0.0
 10
474.5609549409673
 20
406.0726648458273
 30
0.0
 10
474.3272926822534
 20
406.0335554621789
 30
0.0
 10
474.2496425350925
 20
406.019235493209
 30
0.0
 10
474.2335608800574
 20
406.0155017545861
 30
0.0
 10
474.2325004921357
 20
406.0147679125029
 30
0.0
 10
474.2320754126214
 20
406.0144737359757
 30
0.0
  0
SPLINE
  5
195
330
1F
100
AcDbEntity
  8
0
  6
Continuous
 62
     7
370
    25
100
AcDbSpline
210
0.0
220
0.0
230
1.0
 70
     8
 71
     3
 72
    10
 73
     6
 74
     0
 42
0.00000001
 43
0.00000001
 40
0.0
 40
0.0
 40
0.0
 40
0.0
 40
0.5975855365574135
 40
0.979056356318184
 40
1.0
 40
1.0
 40
1.0
 40
1.0
 10
474.1220500929338
 20
406.0236006333152
 30
0.0
 10
474.1195309535804
 20
406.0198613355888
 30
0.0
 10
474.1154037127997
 20
406.0137350440651
 30
0.0
 10
474.1897748393552
 20
406.0133584852089
 30
0.0
 10
474.2299827914596
 20
406.0144185642092
 30
0.0
 10
474.2320754126214
 20
406.0144737359757
 30
0.0
  0
SPLINE
  5
196
330
1F
100
AcDbEntity
  8
0
  6
Continuous
 62
     7
370
    25
100
AcDbSpline
210
0.0
220
0.0
230
1.0
 70
     8
 71
     3
 72
    14
 73
    10
 74
     0
 42
0.00000001
 43
0.00000001
 40
0.0
 40
0.0
 40
0.0
 40
0.0
 40
0.0129036569231475
 40
0.0519665716781159
 40
0.1318891824261215
 40
0.228003200555217
 40
0.467944022940084
 40
0.7079115564493639
 40
1.0
 40
1.0
 40
1.0
 40
1.0
 10
474.1220500929338
 20
406.0236006333152
 30
0.0
 10
474.1555186693982
 20
406.0314456073765
 30
0.0
 10
474.2903058222308
 20
406.0630394733091
 30
0.0
 10
474.7295792672234
 20
406.1654215206029
 30
0.0
 10
475.5410066854492
 20
406.3678230294199
 30
0.0
 10
477.1944838672698
 20
406.834873710186
 30
0.0
 10
479.5387739395135
 20
407.6723307695763
 30
0.0
 10
482.6838681160107
 20
409.1172710099267
 30
0.0
 10
484.7571667902032
 20
410.4726418927214
 30
0.0
 10
485.8953676729503
 20
411.2167142998711
 30
0.0
  0
LINE
  5
197
330
1F
100
AcDbEntity
  8
0
  6
Continuous
 62
     7
370
    25
100
AcDbLine
 10
488.4741329374
 20
410.3559546357
 30
0.0
 11
490.5742154535
 21
410.4719455844
 31
0.0
  0
LINE
  5
198
330
1F
100
AcDbEntity
  8
0
  6
Continuous
 62
     7
370
    25
100
AcDbLine
 10
490.7699594892
 20
406.9278877799
 30
0.0
 11
490.5742154535
 21
410.4719455844
 31
0.0
  0
LINE
  5
199
330
1F
100
AcDbEntity
  8
0
  6
Continuous
 62
     7
370
    25
100
AcDbLine
 10
488.4741329374
 20
410.3559546357
 30
0.0
 11
487.0334645753
 21
409.8318109537
 31
0.0
  0
LWPOLYLINE
  5
19A
330
1F
100
AcDbEntity
  8
0
  6
Continuous
 62
     7
370
    25
100
AcDbPolyline
 90
        4
 70
   128
 43
0.0
 10
474.1025232789
 20
406.1746962096
 10
474.1047679145
 20
406.1573380627
 10
474.1137429485
 20
406.0879053165
 10
474.1220500929
 20
406.0236006333
  0
LINE
  5
19B
330
1F
100
AcDbEntity
  8
0
  6
Continuous
 62
     7
370
    25
100
AcDbLine
 10
475.8906475626
 20
406.6042237129
 30
0.0
 11
474.1025232789
 21
406.1746962096
 31
0.0
  0
ARC
  5
19C
330
1F
100
AcDbEntity
  8
0
  6
Continuous
 62
     7
370
    25
100
AcDbCircle
 10
467.7050891641
 20
437.0299173067
 30
0.0
 40
31.50755777528337
100
AcDbArc
 50
285.0579972479
 51
305.1719294169
  0
LINE
  5
19D
330
1F
100
AcDbEntity
  8
0
  6
Continuous
 62
     7
370
    25
100
AcDbLine
 10
485.895367673
 20
411.2167142999
 30
0.0
 11
485.8544477867
 21
411.2747823129
 31
0.0
  0
SPLINE
  5
19E
330
1F
100
AcDbEntity
  8
0
  6
Continuous
 62
     7
370
    25
100
AcDbSpline
210
0.0
220
0.0
230
1.0
 70
     8
 71
     3
 72
     9
 73
     5
 74
     0
 42
0.00000001
 43
0.00000001
 40
0.0
 40
0.0
 40
0.0
 40
0.0
 40
0.4998978730609698
 40
1.0
 40
1.0
 40
1.0
 40
1.0
 10
490.5742154534894
 20
410.4719455843766
 30
0.0
 10
490.7224103693852
 20
410.4919119223789
 30
0.0
 10
491.0188607523172
 20
410.5318527564535
 30
0.0
 10
491.2675939810937
 20
410.6980186990241
 30
0.0
 10
491.3919859978454
 20
410.7811186403285
 30
0.0
  0
ARC
  5
19F
330
1F
100
AcDbEntity
  8
0
  6
Continuous
 62
     7
370
    25
100
AcDbCircle
 10
474.020714778
 20
406.5133020731
 30
0.0
 40
0.5000763403864177
100
AcDbArc
 50
273.16262964
 51
281.6913635617
  0
SPLINE
  5
1A0
330
1F
100
AcDbEntity
  8
0
  6
Continuous
 62
     7
370
    25
100
AcDbSpline
210
0.0
220
0.0
230
1.0
 70
     8
 71
     3
 72
    12
 73
     8
 74
     0
 42
0.00000001
 43
0.00000001
 40
0.0
 40
0.0
 40
0.0
 40
0.0
 40
0.0460726725321132
 40
0.249457644274832
 40
0.4755636088397378
 40
0.7057929889265031
 40
1.0
 40
1.0
 40
1.0
 40
1.0
 10
502.9350819723464
 20
392.7888374245981
 30
0.0
 10
502.806746563171
 20
392.7263327252589
 30
0.0
 10
502.1118824042138
 20
392.3879048851454
 30
0.0
 10
500.7590834346915
 20
391.7723214690051
 30
0.0
 10
498.75121479061
 20
390.9648621637505
 30
0.0
 10
496.2559429756046
 20
390.0917420462225
 30
0.0
 10
494.3169967874698
 20
389.5943924065796
 30
0.0
 10
493.2292546470333
 20
389.3153809699131
 30
0.0
  0
LINE
  5
1A1
330
1F
100
AcDbEntity
  8
0
  6
Continuous
 62
     7
370
    25
100
AcDbLine
 10
492.7757945691
 20
391.2629834991
 30
0.0
 11
493.229254647
 21
389.3153809699
 31
0.0
  0
SPLINE
  5
1A2
330
1F
100
AcDbEntity
  8
0
  6
Continuous
 62
     7
370
    25
100
AcDbSpline
210
0.0
220
0.0
230
1.0
 70
     8
 71
     3
 72
    13
 73
     9
 74
     0
 42
0.00000001
 43
0.00000001
 40
0.0
 40
0.0
 40
0.0
 40
0.0
 40
0.2574896950994371
 40
0.4890886589321031
 40
0.7206004760683478
 40
0.9447506334961281
 40
0.9460032291293294
 40
1.0
 40
1.0
 40
1.0
 40
1.0
 10
492.7757945691463
 20
391.2629834991271
 30
0.0
 10
493.6945201451342
 20
391.2349205350123
 30
0.0
 10
495.4395929322723
 20
391.1816163533467
 30
0.0
 10
497.9341581781856
 20
391.3461804721858
 30
0.0
 10
500.2498079841873
 20
391.759554467192
 30
0.0
 10
501.7269165857891
 20
392.2591116537649
 30
0.0
 10
502.5981780303317
 20
392.6333545086869
 30
0.0
 10
502.7682244391544
 20
392.7123349271728
 30
0.0
 10
502.9344156112094
 20
392.7895247273483
 30
0.0
  0
LINE
  5
1A3
330
1F
100
AcDbEntity
  8
0
  6
Continuous
 62
     7
370
    25
100
AcDbLine
 10
502.9344156112
 20
392.7895247273
 30
0.0
 11
502.9350819723
 21
392.7888374246
 31
0.0
  0
ARC
  5
1A4
330
1F
100
AcDbEntity
  8
0
  6
Continuous
 62
     7
370
    25
100
AcDbCircle
 10
482.319724091
 20
436.1716100837
 30
0.0
 40
48.10950076354644
100
AcDbArc
 50
282.8580809319
 51
283.1066633214
  0
LWPOLYLINE
  5
1A5
330
1F
100
AcDbEntity
  8
0
  6
Continuous
 62
     7
370
    25
100
AcDbPolyline
 90
        3
 70
   128
 43
0.0
 10
502.9350819723
 20
392.7888374246
 10
502.978438849
 20
392.7614459522
 10
503.0830169221
 20
392.6954479222
  0
ARC
  5
1A6
330
1F
100
AcDbEntity
  8
0
  6
Continuous
 62
     7
370
    25
100
AcDbCircle
 10
482.319724091
 20
436.1716100837
 30
0.0
 40
48.17977797259051
100
AcDbArc
 50
282.8580809319
 51
295.5281512988
  0
LINE
  5
1A7
330
1F
100
AcDbEntity
  8
0
  6
Continuous
 62
     7
370
    25
100
AcDbLine
 10
493.0258630555
 20
389.2684902281
 30
0.0
 11
493.0415023275
 21
389.1999752715
 31
0.0
  0
LINE
  5
1A8
330
1F
100
AcDbEntity
  8
0
  6
Continuous
 62
     7
370
    25
100
AcDbLine
 10
486.6704752534
 20
392.5708679066
 30
0.0
 11
485.5409998359
 21
390.920696117
 31
0.0
  0
SPLINE
  5
1A9
330
1F
100
AcDbEntity
  8
0
  6
Continuous
 62
     7
370
    25
100
AcDbSpline
210
0.0
220
0.0
230
1.0
 70
     8
 71
     3
 72
    14
 73
    10
 74
     0
 42
0.00000001
 43
0.00000001
 40
0.0
 40
0.0
 40
0.0
 40
0.0
 40
0.2256458607195984
 40
0.4518169308148972
 40
0.8157761447763433
 40
0.8946140573305366
 40
0.963784618022165
 40
0.9940799143125669
 40
1.0
 40
1.0
 40
1.0
 40
1.0
 10
485.5409998358776
 20
390.9206961169704
 30
0.0
 10
484.6952522888064
 20
391.4657198394715
 30
0.0
 10
483.0017886474026
 20
392.5570358721988
 30
0.0
 10
479.8215665473502
 20
394.1224769570009
 30
0.0
 10
477.1502884841836
 20
395.0758557912368
 30
0.0
 10
475.1997599969328
 20
395.5973039373658
 30
0.0
 10
474.5556834864908
 20
395.7526846120081
 30
0.0
 10
474.2277325902641
 20
395.8282346728524
 30
0.0
 10
474.1351952576653
 20
395.8497554469976
 30
0.0
 10
474.1200682892792
 20
395.8532734225109
 30
0.0
  0
SPLINE
  5
1AA
330
1F
100
AcDbEntity
  8
0
  6
Continuous
 62
     7
370
    25
100
AcDbSpline
210
0.0
220
0.0
230
1.0
 70
     8
 71
     3
 72
    11
 73
     7
 74
     0
 42
0.00000001
 43
0.00000001
 40
0.0
 40
0.0
 40
0.0
 40
0.0
 40
0.019556121229622
 40
0.1681891996744901
 40
0.5898876540792871
 40
1.0
 40
1.0
 40
1.0
 40
1.0
 10
474.2300096806962
 20
395.8615409846038
 30
0.0
 10
474.2280509675481
 20
395.8615990983195
 30
0.0
 10
474.2112053777255
 20
395.8620988957605
 30
0.0
 10
474.1593048139663
 20
395.8629453131734
 30
0.0
 10
474.1100201819007
 20
395.8608560146518
 30
0.0
 10
474.1167501669771
 20
395.8557773734682
 30
0.0
 10
474.1200682892792
 20
395.8532734225109
 30
0.0
  0
SPLINE
  5
1AB
330
1F
100
AcDbEntity
  8
0
  6
Continuous
 62
     7
370
    25
100
AcDbSpline
210
0.0
220
0.0
230
1.0
 70
     8
 71
     3
 72
    17
 73
    13
 74
     0
 42
0.00000001
 43
0.00000001
 40
0.0
 40
0.0
 40
0.0
 40
0.0
 40
0.0068263121770692
 40
0.0088448507297278
 40
0.0223990310416142
 40
0.0309593028397551
 40
0.0563218912149141
 40
0.1198824177066685
 40
0.1957460556357062
 40
0.5558621944880033
 40
0.7780336097977197
 40
1.0
 40
1.0
 40
1.0
 40
1.0
 10
474.2300096806962
 20
395.8615409846038
 30
0.0
 10
474.2336298258578
 20
395.8605028015587
 30
0.0
 10
474.2383204469053
 20
395.859157628085
 30
0.0
 10
474.2818531596087
 20
395.85156764001
 30
0.0
 10
474.356385082041
 20
395.8398161332034
 30
0.0
 10
474.523217327543
 20
395.8140972379804
 30
0.0
 10
474.9047934446103
 20
395.7555826589581
 30
0.0
 10
475.5876944113446
 20
395.6463856743711
 30
0.0
 10
477.6926937282624
 20
395.2792134419466
 30
0.0
 10
480.5056283100485
 20
394.6450357579816
 30
0.0
 10
483.9044125246152
 20
393.632095466123
 30
0.0
 10
485.748738139379
 20
392.9245015454362
 30
0.0
 10
486.6704752533695
 20
392.5708679066092
 30
0.0
  0
LINE
  5
1AC
330
1F
100
AcDbEntity
  8
0
  6
Continuous
 62
     7
370
    25
100
AcDbLine
 10
490.7639181041
 20
394.9483465224
 30
0.0
 11
490.6205562752
 21
392.3526985529
 31
0.0
  0
LINE
  5
1AD
330
1F
100
AcDbEntity
  8
0
  6
Continuous
 62
     7
370
    25
100
AcDbLine
 10
490.6205562752
 20
392.3526985529
 30
0.0
 11
486.6704752534
 21
392.5708679066
 31
0.0
  0
LINE
  5
1AE
330
1F
100
AcDbEntity
  8
0
  6
Continuous
 62
     7
370
    25
100
AcDbLine
 10
493.5823703432
 20
393.8833725446
 30
0.0
 11
491.9734133499
 21
391.8415110436
 31
0.0
  0
LINE
  5
1AF
330
1F
100
AcDbEntity
  8
0
  6
Continuous
 62
     7
370
    25
100
AcDbLine
 10
502.9344156112
 20
392.7895247273
 30
0.0
 11
502.9338477257
 21
392.7901117682
 31
0.0
  0
ARC
  5
1B0
330
1F
100
AcDbEntity
  8
0
  6
Continuous
 62
     7
370
    25
100
AcDbCircle
 10
499.1477034979
 20
400.9461091847
 30
0.0
 40
11.5915549620673
100
AcDbArc
 50
231.762407147
 51
236.6533814372
  0
LWPOLYLINE
  5
1B1
330
1F
100
AcDbEntity
  8
0
  6
Continuous
 62
     7
370
    25
100
AcDbPolyline
 90
        4
 70
   128
 43
0.0
 10
474.1200682893
 20
395.8532734225
 10
474.117826043
 20
395.8359151675
 10
474.1088535601
 20
395.7664823059
 10
474.1025232789
 20
395.7175221598
  0
ARC
  5
1B2
330
1F
100
AcDbEntity
  8
0
  6
Continuous
 62
     7
370
    25
100
AcDbCircle
 10
467.7050891641
 20
364.8623010627
 30
0.0
 40
31.5778349843275
100
AcDbArc
 50
54.8280705831
 51
55.6099480104
  0
LINE
  5
1B3
330
1F
100
AcDbEntity
  8
0
  6
Continuous
 62
     7
370
    25
100
AcDbLine
 10
485.8949297016
 20
390.6748825593
 30
0.0
 11
485.8544477867
 21
390.6174360565
 31
0.0
  0
ARC
  5
1B4
330
1F
100
AcDbEntity
  8
0
  6
Continuous
 62
     7
370
    25
100
AcDbCircle
 10
467.7050891641
 20
364.8623010627
 30
0.0
 40
31.5075577752833
100
AcDbArc
 50
54.8280705831
 51
74.9420027521
  0
LINE
  5
1B5
330
1F
100
AcDbEntity
  8
0
  6
Continuous
 62
     7
370
    25
100
AcDbLine
 10
474.1025232789
 20
395.7175221598
 30
0.0
 11
475.8906475626
 21
395.2879946565
 31
0.0
  0
LINE
  5
1B6
330
1F
100
AcDbEntity
  8
0
  6
Continuous
 62
     7
370
    25
100
AcDbLine
 10
474.0286858695
 20
406.1643779133
 30
0.0
 11
474.1025232789
 21
406.1746962096
 31
0.0
  0
SPLINE
  5
1B7
330
1F
100
AcDbEntity
  8
0
  6
Continuous
 62
     7
370
    25
100
AcDbSpline
210
0.0
220
0.0
230
1.0
 70
     8
 71
     3
 72
    10
 73
     6
 74
     0
 42
0.00000001
 43
0.00000001
 40
0.0
 40
0.0
 40
0.0
 40
0.0
 40
0.0490769085761645
 40
0.5995805843665197
 40
1.0
 40
1.0
 40
1.0
 40
1.0
 10
491.9734133499064
 20
391.8415110435758
 30
0.0
 10
491.9544658115373
 20
391.8561337791772
 30
0.0
 10
491.7229806496305
 20
392.0347821213663
 30
0.0
 10
491.2771068748135
 20
392.2688341147874
 30
0.0
 10
490.815100297929
 20
392.3278484878052
 30
0.0
 10
490.6205562751754
 20
392.3526985529374
 30
0.0
  0
ARC
  5
1B8
330
1F
100
AcDbEntity
  8
0
  6
Continuous
 62
     7
370
    25
100
AcDbCircle
 10
474.0187148883
 20
395.3635757255
 30
0.0
 40
0.5000763405370933
100
AcDbArc
 50
78.3065203381
 51
86.8373700343
  0
SPLINE
  5
1B9
330
1F
100
AcDbEntity
  8
0
  6
Continuous
 62
     7
370
    25
100
AcDbSpline
210
0.0
220
0.0
230
1.0
 70
     8
 71
     3
 72
     9
 73
     5
 74
     0
 42
0.00000001
 43
0.00000001
 40
0.0
 40
0.0
 40
0.0
 40
0.0
 40
0.84589119077839
 40
1.0
 40
1.0
 40
1.0
 40
1.0
 10
474.1025232788687
 20
395.7175221598245
 30
0.0
 10
474.0816826827575
 20
395.7213369668168
 30
0.0
 10
474.0570452396227
 20
395.7258467749741
 30
0.0
 10
474.0324727124464
 20
395.7275742387253
 30
0.0
 10
474.0286858695437
 20
395.7278404561069
 30
0.0
  0
LINE
  5
1BA
330
1F
100
AcDbEntity
  8
0
  6
Continuous
 62
     7
370
    25
100
AcDbLine
 10
485.895367673
 20
411.2167142999
 30
0.0
 11
487.7341085223
 21
412.2136805355
 31
0.0
  0
LINE
  5
1BB
330
1F
100
AcDbEntity
  8
0
  6
Continuous
 62
     7
370
    25
100
AcDbLine
 10
488.4741329374
 20
410.3559546357
 30
0.0
 11
487.7341085223
 21
412.2136805355
 31
0.0
  0
LINE
  5
1BC
330
1F
100
AcDbEntity
  8
0
  6
Continuous
 62
     7
370
    25
100
AcDbLine
 10
491.4609032642
 20
410.8350761227
 30
0.0
 11
491.5827370108
 21
412.8310566316
 31
0.0
  0
LINE
  5
1BD
330
1F
100
AcDbEntity
  8
0
  6
Continuous
 62
     7
370
    25
100
AcDbLine
 10
491.5827370108
 20
412.8310566316
 30
0.0
 11
493.0256442506
 21
412.6227695664
 31
0.0
  0
ARC
  5
1BE
330
1F
100
AcDbEntity
  8
0
  6
Continuous
 62
     7
370
    25
100
AcDbCircle
 10
491.0386882927
 20
397.9742147089
 30
0.0
 40
6.929946387144284
100
AcDbArc
 50
234.8280705831
 51
282.8580809319
  0
LINE
  5
1BF
330
1F
100
AcDbEntity
  8
0
  6
Continuous
 62
     7
370
    25
100
AcDbLine
 10
492.5808570506
 20
391.2180417944
 30
0.0
 11
493.0258630555
 21
389.2684902281
 31
0.0
  0
ARC
  5
1C0
330
1F
100
AcDbEntity
  8
0
  6
Continuous
 62
     7
370
    25
100
AcDbCircle
 10
491.0386882927
 20
397.9742147089
 30
0.0
 40
8.929641777457114
100
AcDbArc
 50
234.8280705831
 51
282.8580809319
  0
LINE
  5
1C1
330
1F
100
AcDbEntity
  8
0
  6
Continuous
 62
     7
370
    25
100
AcDbLine
 10
487.0468180527
 20
392.3094879797
 30
0.0
 11
485.8949297016
 21
390.6748825593
 31
0.0
  0
ARC
  5
1C2
330
1F
100
AcDbEntity
  8
0
  6
Continuous
 62
     7
370
    25
100
AcDbCircle
 10
491.0386882927
 20
403.9180036605
 30
0.0
 40
6.929946387144355
100
AcDbArc
 50
86.5070253286
 51
111.7198462835
  0
ARC
  5
1C3
330
1F
100
AcDbEntity
  8
0
  6
Continuous
 62
     7
370
    25
100
AcDbCircle
 10
491.0386882927
 20
403.9180036605
 30
0.0
 40
8.92964177745711
100
AcDbArc
 50
86.5070253286
 51
111.7198462835
  0
ARC
  5
1C4
330
1F
100
AcDbEntity
  8
0
  6
Continuous
 62
     7
370
    25
100
AcDbCircle
 10
482.319724091
 20
436.1716100837
 30
0.0
 40
46.10980537323363
100
AcDbArc
 50
282.8580809319
 51
283.1066633214
  0
ARC
  5
1C5
330
1F
100
AcDbEntity
  8
0
  6
Continuous
 62
     7
370
    25
100
AcDbCircle
 10
467.7050891641
 20
364.8623010627
 30
0.0
 40
33.5775303746403
100
AcDbArc
 50
54.8280705831
 51
55.6099480104
  0
ARC
  5
1C6
330
1F
100
AcDbEntity
  8
0
  6
Continuous
 62
     7
370
    25
100
AcDbCircle
 10
491.0386882927
 20
403.9180036605
 30
0.0
 40
8.999918986501303
100
AcDbArc
 50
77.1419190681
 51
125.1719294169
  0
ARC
  5
1C7
330
1F
100
AcDbEntity
  8
0
  6
Continuous
 62
     7
370
    25
100
AcDbCircle
 10
491.0386882927
 20
397.9742147089
 30
0.0
 40
8.999918986501271
100
AcDbArc
 50
234.8280705831
 51
282.8580809319
  0
SPLINE
  5
1C8
330
1F
100
AcDbEntity
  8
0
  6
Continuous
 62
     7
370
    25
100
AcDbSpline
210
0.0
220
0.0
230
1.0
 70
     8
 71
     3
 72
    11
 73
     7
 74
     0
 42
0.00000001
 43
0.00000001
 40
0.0
 40
0.0
 40
0.0
 40
0.0
 40
0.2200386424382196
 40
0.6637869905998085
 40
0.8890365590789571
 40
1.0
 40
1.0
 40
1.0
 40
1.0
 10
709.0252936424671
 20
406.9664274916517
 30
0.0
 10
709.2295151054687
 20
406.7014088803929
 30
0.0
 10
709.8455866683522
 20
405.901931550088
 30
0.0
 10
710.3691360193694
 20
404.6387622795602
 30
0.0
 10
710.6207652191306
 20
403.4721924662361
 30
0.0
 10
710.6000580244083
 20
402.9609126675767
 30
0.0
 10
710.5932238403822
 20
402.7921703401044
 30
0.0
  0
SPLINE
  5
1C9
330
1F
100
AcDbEntity
  8
0
  6
Continuous
 62
     7
370
    25
100
AcDbSpline
210
0.0
220
0.0
230
1.0
 70
     8
 71
     3
 72
     9
 73
     5
 74
     0
 42
0.00000001
 43
0.00000001
 40
0.0
 40
0.0
 40
0.0
 40
0.0
 40
0.9209630919903089
 40
1.0
 40
1.0
 40
1.0
 40
1.0
 10
710.6653360057145
 20
406.6461042160181
 30
0.0
 10
710.1509144678416
 20
406.7029312749367
 30
0.0
 10
709.5923453543269
 20
406.7646352231328
 30
0.0
 10
709.0668288426576
 20
406.9516466840206
 30
0.0
 10
709.0252936424671
 20
406.9664274916517
 30
0.0
  0
SPLINE
  5
1CA
330
1F
100
AcDbEntity
  8
0
  6
Continuous
 62
     7
370
    25
100
AcDbSpline
210
0.0
220
0.0
230
1.0
 70
     8
 71
     3
 72
    10
 73
     6
 74
     0
 42
0.00000001
 43
0.00000001
 40
0.0
 40
0.0
 40
0.0
 40
0.0
 40
0.259615068848884
 40
0.6297606444810663
 40
1.0
 40
1.0
 40
1.0
 40
1.0
 10
757.8404969596518
 20
404.0545466470291
 30
0.0
 10
753.7626767409287
 20
404.3543007841275
 30
0.0
 10
743.8709139075635
 20
405.0814286792915
 30
0.0
 10
728.1413412248902
 20
405.9072755491818
 30
0.0
 10
716.4911629636255
 20
406.3998071984475
 30
0.0
 10
710.6653360057145
 20
406.6461042160181
 30
0.0
  0
SPLINE
  5
1CB
330
1F
100
AcDbEntity
  8
0
  6
Continuous
 62
     7
370
    25
100
AcDbSpline
210
0.0
220
0.0
230
1.0
 70
     8
 71
     3
 72
    11
 73
     7
 74
     0
 42
0.00000001
 43
0.00000001
 40
0.0
 40
0.0
 40
0.0
 40
0.0
 40
0.0614641195413843
 40
0.4999988937835336
 40
0.9375097801832716
 40
1.0
 40
1.0
 40
1.0
 40
1.0
 10
757.8404969596515
 20
398.3285143000271
 30
0.0
 10
757.852166155854
 20
398.4449712724792
 30
0.0
 10
757.9470928421231
 20
399.3923265398106
 30
0.0
 10
758.0307956693894
 20
401.1895707382587
 30
0.0
 10
757.9472257458692
 20
402.9887687624994
 30
0.0
 10
757.8523540408239
 20
403.9361435869326
 30
0.0
 10
757.8404969596518
 20
404.0545466470291
 30
0.0
  0
SPLINE
  5
1CC
330
1F
100
AcDbEntity
  8
0
  6
Continuous
 62
     7
370
    25
100
AcDbSpline
210
0.0
220
0.0
230
1.0
 70
     8
 71
     3
 72
    10
 73
     6
 74
     0
 42
0.00000001
 43
0.00000001
 40
0.0
 40
0.0
 40
0.0
 40
0.0
 40
0.2594618540778876
 40
0.6296073956705972
 40
1.0
 40
1.0
 40
1.0
 40
1.0
 10
710.6653360057145
 20
395.7369567310399
 30
0.0
 10
714.74820424381
 20
395.9043410405656
 30
0.0
 10
724.6556492028745
 20
396.3105140387933
 30
0.0
 10
740.386945764344
 20
397.0972973965237
 30
0.0
 10
752.0213527145554
 20
397.9180173943651
 30
0.0
 10
757.8404969596515
 20
398.3285143000271
 30
0.0
  0
SPLINE
  5
1CD
330
1F
100
AcDbEntity
  8
0
  6
Continuous
 62
     7
370
    25
100
AcDbSpline
210
0.0
220
0.0
230
1.0
 70
     8
 71
     3
 72
     9
 73
     5
 74
     0
 42
0.00000001
 43
0.00000001
 40
0.0
 40
0.0
 40
0.0
 40
0.0
 40
0.0790369080192203
 40
1.0
 40
1.0
 40
1.0
 40
1.0
 10
709.0252936424679
 20
395.4166334554066
 30
0.0
 10
709.0668288426633
 20
395.4314142630393
 30
0.0
 10
709.5923453543327
 20
395.618425723927
 30
0.0
 10
710.1509144678472
 20
395.6801296721225
 30
0.0
 10
710.6653360057145
 20
395.7369567310399
 30
0.0
  0
SPLINE
  5
1CE
330
1F
100
AcDbEntity
  8
0
  6
Continuous
 62
     7
370
    25
100
AcDbSpline
210
0.0
220
0.0
230
1.0
 70
     8
 71
     3
 72
    11
 73
     7
 74
     0
 42
0.00000001
 43
0.00000001
 40
0.0
 40
0.0
 40
0.0
 40
0.0
 40
0.0728838064943356
 40
0.4140719411595967
 40
0.9209668754550473
 40
0.9999999999999999
 40
0.9999999999999999
 40
0.9999999999999999
 40
0.9999999999999999
 10
710.5932238403784
 20
399.5908906069685
 30
0.0
 10
710.6009389895161
 20
399.4804441727294
 30
0.0
 10
710.6447707668805
 20
398.8529691323985
 30
0.0
 10
710.3002790554426
 20
397.4699771019334
 30
0.0
 10
709.6605897059562
 20
396.2000455841561
 30
0.0
 10
709.1008009565234
 20
395.5097449179829
 30
0.0
 10
709.0252936424679
 20
395.4166334554066
 30
0.0
  0
SPLINE
  5
1CF
330
1F
100
AcDbEntity
  8
0
  6
Continuous
 62
     7
370
    25
100
AcDbSpline
210
0.0
220
0.0
230
1.0
 70
     8
 71
     3
 72
    10
 73
     6
 74
     0
 42
0.00000001
 43
0.00000001
 40
0.0
 40
0.0
 40
0.0
 40
0.0
 40
0.3880207377811389
 40
0.9790637766506853
 40
1.0
 40
1.0
 40
1.0
 40
1.0
 10
710.5932238403822
 20
402.7921703401044
 30
0.0
 10
710.5199093096228
 20
402.3813304782486
 30
0.0
 10
710.3349202242995
 20
401.3446889084004
 30
0.0
 10
710.4306271501305
 20
400.250919586829
 30
0.0
 10
710.5878453013783
 20
399.6127237181096
 30
0.0
 10
710.5932238403784
 20
399.5908906069685
 30
0.0
  0
ARC
  5
1D0
330
1F
100
AcDbEntity
  8
0
  6
Continuous
 62
     7
370
    25
100
AcDbCircle
 10
702.3477034979
 20
401.1915304735
 30
0.0
 40
8.399443654264571
100
AcDbArc
 50
10.985757993
 51
349.0142420071
  0
SPLINE
  5
1D1
330
1F
100
AcDbEntity
  8
0
  6
Continuous
 62
     7
370
    25
100
AcDbSpline
210
0.0
220
0.0
230
1.0
 70
     8
 71
     3
 72
     9
 73
     5
 74
     0
 42
0.00000001
 43
0.00000001
 40
0.0
 40
0.0
 40
0.0
 40
0.0
 40
0.6817923421274396
 40
1.0
 40
1.0
 40
1.0
 40
1.0
 10
709.0252936424679
 20
395.4166334554066
 30
0.0
 10
708.8830300818249
 20
395.2267231003014
 30
0.0
 10
708.6743689516645
 20
394.9481773564278
 30
0.0
 10
708.4449431177841
 20
394.715272983485
 30
0.0
 10
708.3719380605296
 20
394.6411610284625
 30
0.0
  0
ARC
  5
1D2
330
1F
100
AcDbEntity
  8
0
  6
Continuous
 62
     7
370
    25
100
AcDbCircle
 10
702.3477034979
 20
401.1915304735
 30
0.0
 40
8.899367501836373
100
AcDbArc
 50
47.3959191961
 51
312.6040808039
  0
LINE
  5
1D3
330
1F
100
AcDbEntity
  8
0
  6
Continuous
 62
     7
370
    25
100
AcDbLine
 10
708.3719380605
 20
407.7418999186
 30
0.0
 11
709.0252936425
 21
406.9664274917
 31
0.0
  0
SPLINE
  5
1D4
330
1F
100
AcDbEntity
  8
0
  6
Continuous
 62
     7
370
    25
100
AcDbSpline
210
0.0
220
0.0
230
1.0
 70
     8
 71
     3
 72
    10
 73
     6
 74
     0
 42
0.00000001
 43
0.00000001
 40
0.0
 40
0.0
 40
0.0
 40
0.0
 40
0.3702896688583036
 40
0.7405318123903298
 40
1.0
 40
1.0
 40
1.0
 40
1.0
 10
757.8520164228299
 20
397.8856547191939
 30
0.0
 10
752.0319525766115
 20
397.5654637046676
 30
0.0
 10
740.3925718681079
 20
396.925122770962
 30
0.0
 10
724.6737034613332
 20
396.0558884390987
 30
0.0
 10
714.7765296453233
 20
395.5071474374896
 30
0.0
 10
710.6984613248593
 20
395.2810421536578
 30
0.0
  0
ARC
  5
1D5
330
1F
100
AcDbEntity
  8
0
  6
Continuous
 62
     7
370
    25
100
AcDbCircle
 10
717.9135505321
 20
396.0344285203
 30
0.0
 40
7.254316183210885
100
AcDbArc
 50
182.3501399448
 51
185.9611177314
  0
ARC
  5
1D6
330
1F
100
AcDbEntity
  8
0
  6
Continuous
 62
     7
370
    25
100
AcDbCircle
 10
753.5914938815
 20
397.9964115432
 30
0.0
 40
4.261961918981736
100
AcDbArc
 50
358.5108705387
 51
4.4691613064
  0
SPLINE
  5
1D7
330
1F
100
AcDbEntity
  8
0
  6
Continuous
 62
     7
370
    25
100
AcDbSpline
210
0.0
220
0.0
230
1.0
 70
     8
 71
     3
 72
    10
 73
     6
 74
     0
 42
0.00000001
 43
0.00000001
 40
0.0
 40
0.0
 40
0.0
 40
0.0
 40
0.3702717503651152
 40
0.7405122151371752
 40
1.0
 40
1.0
 40
1.0
 40
1.0
 10
710.6984613248593
 20
407.1020187934002
 30
0.0
 10
716.5181333865285
 20
406.7794903077323
 30
0.0
 10
728.1569857848253
 20
406.1344605879892
 30
0.0
 10
743.87612536878
 20
405.2656461005103
 30
0.0
 10
753.7736227924785
 20
404.7215911897436
 30
0.0
 10
757.8520164228266
 20
404.4974062278644
 30
0.0
  0
ARC
  5
1D8
330
1F
100
AcDbEntity
  8
0
  6
Continuous
 62
     7
370
    25
100
AcDbCircle
 10
753.5914938786
 20
404.3866494039
 30
0.0
 40
4.261961921936646
100
AcDbArc
 50
355.5308386961
 51
1.4891294597
  0
ARC
  5
1D9
330
1F
100
AcDbEntity
  8
0
  6
Continuous
 62
     7
370
    25
100
AcDbCircle
 10
717.9135505321
 20
406.3486324267
 30
0.0
 40
7.254316183251555
100
AcDbArc
 50
174.0388822686
 51
177.6498600552
  0
SPLINE
  5
1DA
330
1F
100
AcDbEntity
  8
0
  6
Continuous
 62
     7
370
    25
100
AcDbSpline
210
0.0
220
0.0
230
1.0
 70
     8
 71
     3
 72
    12
 73
     8
 74
     0
 42
0.00000001
 43
0.00000001
 40
0.0
 40
0.0
 40
0.0
 40
0.0
 40
0.1224290494151418
 40
0.3423522449770549
 40
0.561422881690945
 40
0.7807229538533551
 40
1.0
 40
1.0
 40
1.0
 40
1.0
 10
759.7762243924992
 20
403.9438722773728
 30
0.0
 10
759.7672203166351
 20
403.9462309618137
 30
0.0
 10
759.7420419329042
 20
403.9528266261385
 30
0.0
 10
759.5260542492592
 20
403.9698345938778
 30
0.0
 10
759.0901561195303
 20
403.9953455680322
 30
0.0
 10
758.5062305061001
 20
404.0248977505915
 30
0.0
 10
758.062400374532
 20
404.0446640274705
 30
0.0
 10
757.8404969596518
 20
404.0545466470291
 30
0.0
  0
SPLINE
  5
1DB
330
1F
100
AcDbEntity
  8
0
  6
Continuous
 62
     7
370
    25
100
AcDbSpline
210
0.0
220
0.0
230
1.0
 70
     8
 71
     3
 72
    11
 73
     7
 74
     0
 42
0.00000001
 43
0.00000001
 40
0.0
 40
0.0
 40
0.0
 40
0.0
 40
0.0800485240044431
 40
0.5000005853538783
 40
0.9209248322279601
 40
1.0
 40
1.0
 40
1.0
 40
1.0
 10
759.7762243924992
 20
403.9438722773728
 30
0.0
 10
759.7759381480851
 20
403.7976278522721
 30
0.0
 10
759.7741502028803
 20
402.8841531934392
 30
0.0
 10
759.7729145060505
 20
401.1897436056805
 30
0.0
 10
759.7741522041455
 20
399.4971167538259
 30
0.0
 10
759.7759414261134
 20
398.583653378182
 30
0.0
 10
759.7762243924992
 20
398.4391886696907
 30
0.0
  0
SPLINE
  5
1DC
330
1F
100
AcDbEntity
  8
0
  6
Continuous
 62
     7
370
    25
100
AcDbSpline
210
0.0
220
0.0
230
1.0
 70
     8
 71
     3
 72
    12
 73
     8
 74
     0
 42
0.00000001
 43
0.00000001
 40
0.0
 40
0.0
 40
0.0
 40
0.0
 40
0.1130367476169213
 40
0.3328594693547903
 40
0.5544127937945001
 40
0.777420748351324
 40
1.0
 40
1.0
 40
1.0
 40
1.0
 10
757.8404969596515
 20
398.3285143000271
 30
0.0
 10
757.9545677996384
 20
398.3335295457285
 30
0.0
 10
758.2904723622463
 20
398.3482979467844
 30
0.0
 10
758.824540218641
 20
398.3738901508937
 30
0.0
 10
759.3410658565283
 20
398.4017654137647
 30
0.0
 10
759.6979605736825
 20
398.4252072873552
 30
0.0
 10
759.7501531912012
 20
398.4345311991149
 30
0.0
 10
759.7762243924992
 20
398.4391886696907
 30
0.0
  0
SPLINE
  5
1DD
330
1F
100
AcDbEntity
  8
0
  6
Continuous
 62
     7
370
    25
100
AcDbSpline
210
0.0
220
0.0
230
1.0
 70
     8
 71
     3
 72
     9
 73
     5
 74
     0
 42
0.00000001
 43
0.00000001
 40
0.0
 40
0.0
 40
0.0
 40
0.0
 40
0.5000106123815453
 40
1.0
 40
1.0
 40
1.0
 40
1.0
 10
707.8723302116866
 20
408.173731607842
 30
0.0
 10
708.3020515785074
 20
407.8858910697487
 30
0.0
 10
709.161476071068
 20
407.3102222119972
 30
0.0
 10
710.1861401563463
 20
407.1714189509105
 30
0.0
 10
710.6984613248593
 20
407.1020187934002
 30
0.0
  0
SPLINE
  5
1DE
330
1F
100
AcDbEntity
  8
0
  6
Continuous
 62
     7
370
    25
100
AcDbSpline
210
0.0
220
0.0
230
1.0
 70
     8
 71
     3
 72
     9
 73
     5
 74
     0
 42
0.00000001
 43
0.00000001
 40
0.0
 40
0.0
 40
0.0
 40
0.0
 40
0.9838702326459176
 40
1.0
 40
1.0
 40
1.0
 40
1.0
 10
708.3719380605296
 20
407.7418999185957
 30
0.0
 10
708.2105972455947
 20
407.8867323316146
 30
0.0
 10
708.0466113767463
 20
408.0339391564713
 30
0.0
 10
707.8750967034645
 20
408.171512580518
 30
0.0
 10
707.8723302116866
 20
408.173731607842
 30
0.0
  0
SPLINE
  5
1DF
330
1F
100
AcDbEntity
  8
0
  6
Continuous
 62
     7
370
    25
100
AcDbSpline
210
0.0
220
0.0
230
1.0
 70
     8
 71
     3
 72
     9
 73
     5
 74
     0
 42
0.00000001
 43
0.00000001
 40
0.0
 40
0.0
 40
0.0
 40
0.0
 40
0.5055561057107348
 40
1.0
 40
1.0
 40
1.0
 40
1.0
 10
710.6984613248593
 20
395.2810421536578
 30
0.0
 10
710.1804018075262
 20
395.2103861193877
 30
0.0
 10
709.1556698114508
 20
395.0706270828104
 30
0.0
 10
708.2969292426893
 20
394.4942938080146
 30
0.0
 10
707.8723302116866
 20
394.2093293392161
 30
0.0
  0
SPLINE
  5
1E0
330
1F
100
AcDbEntity
  8
0
  6
Continuous
 62
     7
370
    25
100
AcDbSpline
210
0.0
220
0.0
230
1.0
 70
     8
 71
     3
 72
     9
 73
     5
 74
     0
 42
0.00000001
 43
0.00000001
 40
0.0
 40
0.0
 40
0.0
 40
0.0
 40
0.0161297673533347
 40
1.0
 40
1.0
 40
1.0
 40
1.0
 10
707.8723302116866
 20
394.2093293392161
 30
0.0
 10
707.8750967034644
 20
394.2115483665401
 30
0.0
 10
708.0466113767509
 20
394.34912179059
 30
0.0
 10
708.210597245597
 20
394.496328615445
 30
0.0
 10
708.3719380605296
 20
394.6411610284625
 30
0.0
  0
SPLINE
  5
1E1
330
1F
100
AcDbEntity
  8
0
  6
Continuous
 62
     7
370
    25
100
AcDbSpline
210
0.0
220
0.0
230
1.0
 70
     8
 71
     3
 72
    12
 73
     8
 74
     0
 42
0.00000001
 43
0.00000001
 40
0.0
 40
0.0
 40
0.0
 40
0.0
 40
0.2230315344150387
 40
0.4461337558340272
 40
0.6675099896776889
 40
0.8870667292264894
 40
1.0
 40
1.0
 40
1.0
 40
1.0
 10
759.3038701274146
 20
397.9400255986423
 30
0.0
 10
759.2843363412887
 20
397.9419158459371
 30
0.0
 10
759.2452625780522
 20
397.9456969396165
 30
0.0
 10
758.9776733959961
 20
397.9387541033458
 30
0.0
 10
758.590144312171
 20
397.9231652808559
 30
0.0
 10
758.1894221997079
 20
397.9038280007918
 30
0.0
 10
757.93756277745
 20
397.8902623996153
 30
0.0
 10
757.8520164228299
 20
397.8856547191939
 30
0.0
  0
ARC
  5
1E2
330
1F
100
AcDbEntity
  8
0
  6
Continuous
 62
     7
370
    25
100
AcDbCircle
 10
759.2761245049
 20
398.439355255
 30
0.0
 40
0.5000999153470272
100
AcDbArc
 50
273.1804119247
 51
359.9809145383
  0
SPLINE
  5
1E3
330
1F
100
AcDbEntity
  8
0
  6
Continuous
 62
     7
370
    25
100
AcDbSpline
210
0.0
220
0.0
230
1.0
 70
     8
 71
     3
 72
    12
 73
     8
 74
     0
 42
0.00000001
 43
0.00000001
 40
0.0
 40
0.0
 40
0.0
 40
0.0
 40
0.2190444340109217
 40
0.4380981679380284
 40
0.657102749369192
 40
0.8772791087290068
 40
0.9999999999999999
 40
0.9999999999999999
 40
0.9999999999999999
 40
0.9999999999999999
 10
757.8520164228266
 20
404.4974062278644
 30
0.0
 10
758.0184341635974
 20
404.4885774149146
 30
0.0
 10
758.3512767106965
 20
404.4709194141723
 30
0.0
 10
758.7894351533397
 20
404.4514009247633
 30
0.0
 10
759.1164009800992
 20
404.440095141131
 30
0.0
 10
759.2782448571134
 20
404.4382712730543
 30
0.0
 10
759.2971161895257
 20
404.4417797023792
 30
0.0
 10
759.3038701274147
 20
404.4430353484157
 30
0.0
  0
ARC
  5
1E4
330
1F
100
AcDbEntity
  8
0
  6
Continuous
 62
     7
370
    25
100
AcDbCircle
 10
759.2761245049
 20
403.943705692
 30
0.0
 40
0.5000999153471427
100
AcDbArc
 50
0.0190854624
 51
86.8195880753
  0
LINE
  5
1E5
330
1F
100
AcDbEntity
  8
0
  6
Continuous
 62
     7
370
    25
100
AcDbLine
 10
710.6984613249
 20
395.2810421537
 30
0.0
 11
710.7254475066
 21
395.2097518783
 31
0.0
  0
LINE
  5
1E6
330
1F
100
AcDbEntity
  8
0
  6
Continuous
 62
     7
370
    25
100
AcDbLine
 10
759.3085604881
 20
397.9355871456
 30
0.0
 11
759.3038701274
 21
397.9400255986
 31
0.0
  0
ELLIPSE
  5
1E7
330
1F
100
AcDbEntity
  8
0
  6
Continuous
 62
     7
370
    25
100
AcDbEllipse
 10
757.8087889453
 20
397.8522946956
 30
0.0
 11
1.499999304622861
 21
0.0828726334386829
 31
0.0
210
0.0
220
0.0
230
1.0
 40
0.0174284859
 41
5.39671797028522
 42
6.299675703199956
  0
LINE
  5
1E8
330
1F
100
AcDbEntity
  8
0
  6
Continuous
 62
     7
370
    25
100
AcDbLine
 10
755.2931742763
 20
397.6435351076
 30
0.0
 11
758.7581374858
 21
397.8844263865
 31
0.0
  0
LINE
  5
1E9
330
1F
100
AcDbEntity
  8
0
  6
Continuous
 62
     7
370
    25
100
AcDbLine
 10
755.2931742763
 20
397.6436334988
 30
0.0
 11
755.2931742763
 21
397.6435351076
 31
0.0
  0
ELLIPSE
  5
1EA
330
1F
100
AcDbEntity
  8
0
  6
Continuous
 62
     7
370
    25
100
AcDbEllipse
 10
745.8436878554
 20
397.3139874473
 30
0.0
 11
14.4999932780205
 21
0.8011021232406961
 31
0.0
210
0.0
220
0.0
230
1.0
 40
0.0174284859
 41
4.685109492442218
 42
5.421234828998173
  0
ELLIPSE
  5
1EB
330
1F
100
AcDbEntity
  8
0
  6
Continuous
 62
     7
370
    25
100
AcDbEllipse
 10
744.5226779398
 20
396.363703898
 30
0.0
 11
35.70262504606023
 21
1.972514619921924
 31
0.0
210
0.0
220
0.0
230
1.0
 40
0.0174284859
 41
1.543516838852419
 42
2.025717338718061
  0
ELLIPSE
  5
1EC
330
1F
100
AcDbEntity
  8
0
  6
Continuous
 62
     7
370
    25
100
AcDbEllipse
 10
725.5024504678
 20
395.9913078383
 30
0.0
 11
7.499996523114078
 21
0.4143631671935282
 31
0.0
210
0.0
220
0.0
230
1.0
 40
0.0174284859
 41
4.976419334597871
 42
5.167309992307915
  0
LINE
  5
1ED
330
1F
100
AcDbEntity
  8
0
  6
Continuous
 62
     7
370
    25
100
AcDbLine
 10
727.4471028688
 20
396.1236522895
 30
0.0
 11
727.4667211262
 21
395.9732617449
 31
0.0
  0
SPLINE
  5
1EE
330
1F
100
AcDbEntity
  8
0
  6
Continuous
 62
     7
370
    25
100
AcDbSpline
210
0.0
220
0.0
230
1.0
 70
     8
 71
     3
 72
    10
 73
     6
 74
     0
 42
0.00000001
 43
0.00000001
 40
0.0
 40
0.0
 40
0.0
 40
0.0
 40
0.0186368637457247
 40
0.3939469944632844
 40
1.0
 40
1.0
 40
1.0
 40
1.0
 10
727.263331583129
 20
396.1231659222539
 30
0.0
 10
727.2657877903777
 20
396.1232536727333
 30
0.0
 10
727.3177072268547
 20
396.125108546926
 30
0.0
 10
727.4217060753325
 20
396.1277885283046
 30
0.0
 10
727.4374067326819
 20
396.1252314469068
 30
0.0
 10
727.4471028688254
 20
396.1236522894989
 30
0.0
  0
LINE
  5
1EF
330
1F
100
AcDbEntity
  8
0
  6
Continuous
 62
     7
370
    25
100
AcDbLine
 10
710.7254475066
 20
395.2097518783
 30
0.0
 11
727.2633315831
 21
396.1231659223
 31
0.0
  0
LINE
  5
1F0
330
1F
100
AcDbEntity
  8
0
  6
Continuous
 62
     7
370
    25
100
AcDbLine
 10
727.2653973151
 20
406.2760986736
 30
0.0
 11
710.7314888916
 21
407.1892931358
 31
0.0
  0
SPLINE
  5
1F1
330
1F
100
AcDbEntity
  8
0
  6
Continuous
 62
     7
370
    25
100
AcDbSpline
210
0.0
220
0.0
230
1.0
 70
     8
 71
     3
 72
    11
 73
     7
 74
     0
 42
0.00000001
 43
0.00000001
 40
0.0
 40
0.0
 40
0.0
 40
0.0
 40
0.4177469294495279
 40
0.8392770662410627
 40
0.9817832068819611
 40
0.9999999999999999
 40
0.9999999999999999
 40
0.9999999999999999
 40
0.9999999999999999
 10
727.4491027556973
 20
406.2747492283457
 30
0.0
 10
727.4444657276653
 20
406.2736660371621
 30
0.0
 10
727.4351496776638
 20
406.271489845179
 30
0.0
 10
727.3596532119143
 20
406.2726920220703
 30
0.0
 10
727.2893930113418
 20
406.2751625494104
 30
0.0
 10
727.2678401746842
 20
406.2760033723674
 30
0.0
 10
727.2653973150542
 20
406.2760986736259
 30
0.0
  0
LINE
  5
1F2
330
1F
100
AcDbEntity
  8
0
  6
Continuous
 62
     7
370
    25
100
AcDbLine
 10
727.4667211262
 20
406.4097992021
 30
0.0
 11
727.4491027557
 21
406.2747492283
 31
0.0
  0
ELLIPSE
  5
1F3
330
1F
100
AcDbEntity
  8
0
  6
Continuous
 62
     7
370
    25
100
AcDbEllipse
 10
725.5024504678
 20
406.3917531088
 30
0.0
 11
7.499996523114079
 21
-0.4143631671934714
 31
0.0
210
0.0
220
0.0
230
1.0
 40
0.0174284859
 41
1.115875314871741
 42
1.306765972581967
  0
ELLIPSE
  5
1F4
330
1F
100
AcDbEntity
  8
0
  6
Continuous
 62
     7
370
    25
100
AcDbEllipse
 10
744.5226779398
 20
406.019357049
 30
0.0
 11
35.70262504606012
 21
-1.972514619921981
 31
0.0
210
0.0
220
0.0
230
1.0
 40
0.0174284859
 41
4.257467968461778
 42
4.739668468327169
  0
ELLIPSE
  5
1F5
330
1F
100
AcDbEntity
  8
0
  6
Continuous
 62
     7
370
    25
100
AcDbEllipse
 10
745.8436878554
 20
405.0690734997
 30
0.0
 11
14.4999932780205
 21
-0.8011021232406961
 31
0.0
210
0.0
220
0.0
230
1.0
 40
0.0174284859
 41
0.8619504781819405
 42
1.598075814737363
  0
LINE
  5
1F6
330
1F
100
AcDbEntity
  8
0
  6
Continuous
 62
     7
370
    25
100
AcDbLine
 10
755.2931742763
 20
404.7395258395
 30
0.0
 11
755.2931742763
 21
404.7394274483
 31
0.0
  0
LINE
  5
1F7
330
1F
100
AcDbEntity
  8
0
  6
Continuous
 62
     7
370
    25
100
AcDbLine
 10
758.7581374858
 20
404.4986345605
 30
0.0
 11
755.2931742763
 21
404.7395258395
 31
0.0
  0
ELLIPSE
  5
1F8
330
1F
100
AcDbEntity
  8
0
  6
Continuous
 62
     7
370
    25
100
AcDbEllipse
 10
757.8087889453
 20
404.5307662515
 30
0.0
 11
1.499999304622861
 21
-0.08287263343873974
 31
0.0
210
0.0
220
0.0
230
1.0
 40
0.0174284859
 41
6.266694911159968
 42
7.169652644073456
  0
LINE
  5
1F9
330
1F
100
AcDbEntity
  8
0
  6
Continuous
 62
     7
370
    25
100
AcDbLine
 10
759.3038701274
 20
404.4430353484
 30
0.0
 11
759.3085604881
 21
404.4474738015
 31
0.0
  0
LINE
  5
1FA
330
1F
100
AcDbEntity
  8
0
  6
Continuous
 62
     7
370
    25
100
AcDbLine
 10
710.7314888916
 20
407.1892931358
 30
0.0
 11
710.6984613249
 21
407.1020187934
 31
0.0
  0
SPLINE
  5
1FB
330
1F
100
AcDbEntity
  8
0
  6
Continuous
 62
     7
370
    25
100
AcDbSpline
210
0.0
220
0.0
230
1.0
 70
     8
 71
     3
 72
     9
 73
     5
 74
     0
 42
0.00000001
 43
0.00000001
 40
0.0
 40
0.0
 40
0.0
 40
0.0
 40
0.5001021276704777
 40
1.0
 40
1.0
 40
1.0
 40
1.0
 10
707.9055490777421
 20
394.143637892256
 30
0.0
 10
708.3344968534494
 20
394.4301635263445
 30
0.0
 10
709.1922172108999
 20
395.0030977696424
 30
0.0
 10
710.214440339515
 20
395.1408765560964
 30
0.0
 10
710.7254475065558
 20
395.209751878297
 30
0.0
  0
LINE
  5
1FC
330
1F
100
AcDbEntity
  8
0
  6
Continuous
 62
     7
370
    25
100
AcDbLine
 10
707.9055490777
 20
394.1436378923
 30
0.0
 11
707.8723302117
 21
394.2093293392
 31
0.0
  0
SPLINE
  5
1FD
330
1F
100
AcDbEntity
  8
0
  6
Continuous
 62
     7
370
    25
100
AcDbSpline
210
0.0
220
0.0
230
1.0
 70
     8
 71
     3
 72
     9
 73
     5
 74
     0
 42
0.00000001
 43
0.00000001
 40
0.0
 40
0.0
 40
0.0
 40
0.0
 40
0.4007227371565347
 40
1.0
 40
1.0
 40
1.0
 40
1.0
 10
710.7314888916075
 20
407.1892931358404
 30
0.0
 10
710.3228027681982
 20
407.2377003979061
 30
0.0
 10
709.3029302091584
 20
407.3585002866498
 30
0.0
 10
708.4338541653325
 20
407.9186075600035
 30
0.0
 10
707.9130366525857
 20
408.2542671136776
 30
0.0
  0
LINE
  5
1FE
330
1F
100
AcDbEntity
  8
0
  6
Continuous
 62
     7
370
    25
100
AcDbLine
 10
707.8723302117
 20
408.1737316078
 30
0.0
 11
707.9130366526
 21
408.2542671137
 31
0.0
  0
ARC
  5
1FF
330
1F
100
AcDbEntity
  8
0
  6
Continuous
 62
     7
370
    25
100
AcDbCircle
 10
702.3477034979
 20
401.1915304735
 30
0.0
 40
8.975658044222099
100
AcDbArc
 50
245.1648853947
 51
308.2586979829
  0
LWPOLYLINE
  5
200
330
1F
100
AcDbEntity
  8
0
  6
Continuous
 62
     7
370
    25
100
AcDbPolyline
 90
        3
 70
   128
 43
0.0
 10
698.4123900736
 20
392.9408707502
 10
698.5169716378
 20
393.0071231615
 10
698.5778521805
 20
393.0459391278
  0
ARC
  5
201
330
1F
100
AcDbEntity
  8
0
  6
Continuous
 62
     7
370
    25
100
AcDbCircle
 10
702.3477034979
 20
401.1915304735
 30
0.0
 40
9.141120151092208
100
AcDbArc
 50
115.4997164176
 51
244.5002794289
  0
LWPOLYLINE
  5
202
330
1F
100
AcDbEntity
  8
0
  6
Continuous
 62
     7
370
    25
100
AcDbPolyline
 90
        3
 70
   128
 43
0.0
 10
698.5615592701
 20
409.34752789
 10
698.5169716378
 20
409.3759377856
 10
698.4123900733
 20
409.442190197
  0
ARC
  5
203
330
1F
100
AcDbEntity
  8
0
  6
Continuous
 62
     7
370
    25
100
AcDbCircle
 10
702.3477034979
 20
401.1915304735
 30
0.0
 40
8.991950954660865
100
AcDbArc
 50
51.762407147
 51
114.9014811666
  0
LINE
  5
204
330
1F
100
AcDbEntity
  8
0
  6
Continuous
 62
     7
370
    25
100
AcDbLine
 10
759.7809147532
 20
403.9483107304
 30
0.0
 11
759.7762243925
 21
403.9438722774
 31
0.0
  0
LINE
  5
205
330
1F
100
AcDbEntity
  8
0
  6
Continuous
 62
     7
370
    25
100
AcDbLine
 10
759.7809147532
 20
398.4347502166
 30
0.0
 11
759.7809147532
 21
403.9483107304
 31
0.0
  0
LINE
  5
206
330
1F
100
AcDbEntity
  8
0
  6
Continuous
 62
     7
370
    25
100
AcDbLine
 10
759.7762243925
 20
398.4391886697
 30
0.0
 11
759.7809147532
 21
398.4347502166
 31
0.0
  0
ARC
  5
207
330
1F
100
AcDbEntity
  8
0
  6
Continuous
 62
     7
370
    25
100
AcDbCircle
 10
759.2808148656
 20
403.9481441451
 30
0.0
 40
0.5000999153470272
100
AcDbArc
 50
0.0190854617
 51
86.8195880753
  0
ARC
  5
208
330
1F
100
AcDbEntity
  8
0
  6
Continuous
 62
     7
370
    25
100
AcDbCircle
 10
759.2808148656
 20
398.434916802
 30
0.0
 40
0.5000999153470272
100
AcDbArc
 50
273.1804119247
 51
359.9809145383
  0
LINE
  5
209
330
1F
100
AcDbEntity
  8
0
  6
Continuous
 62
     7
370
    25
100
AcDbLine
 10
758.7581374858
 20
397.8844263865
 30
0.0
 11
758.7652452165
 21
397.8847934232
 31
0.0
  0
LINE
  5
20A
330
1F
100
AcDbEntity
  8
0
  6
Continuous
 62
     7
370
    25
100
AcDbLine
 10
758.7581374858
 20
404.4986345605
 30
0.0
 11
758.7652452165
 21
404.4982675239
 31
0.0
  0
SPLINE
  5
20B
330
1F
100
AcDbEntity
  8
0
  6
Continuous
 62
     7
370
    25
100
AcDbSpline
210
0.0
220
0.0
230
1.0
 70
     8
 71
     3
 72
    12
 73
     8
 74
     0
 42
0.00000001
 43
0.00000001
 40
0.0
 40
0.0
 40
0.0
 40
0.0
 40
0.1662426524176563
 40
0.3368059756191322
 40
0.6054181071254606
 40
0.8801435087136193
 40
1.0
 40
1.0
 40
1.0
 40
1.0
 10
708.4697627451858
 20
389.514870091858
 30
0.0
 10
707.8320812246496
 20
389.6703552673411
 30
0.0
 10
706.540144747849
 20
389.9853667006964
 30
0.0
 10
704.3559583654996
 20
390.6483318056948
 30
0.0
 10
701.99398402194
 20
391.5005267225002
 30
0.0
 10
700.0284464600475
 20
392.3431554011122
 30
0.0
 10
698.9146714752517
 20
392.8810134938075
 30
0.0
 10
698.5763559970942
 20
393.0443909446347
 30
0.0
  0
LINE
  5
20C
330
1F
100
AcDbEntity
  8
0
  6
Continuous
 62
     7
370
    25
100
AcDbLine
 10
708.4697627452
 20
389.5148700919
 30
0.0
 11
708.4539046682
 21
389.4453965603
 31
0.0
  0
ARC
  5
20D
330
1F
100
AcDbEntity
  8
0
  6
Continuous
 62
     7
370
    25
100
AcDbCircle
 10
719.1756829047
 20
436.4170313725
 30
0.0
 40
48.17977797259056
100
AcDbArc
 50
244.4718479123
 51
257.1419190681
  0
LWPOLYLINE
  5
20E
330
1F
100
AcDbEntity
  8
0
  6
Continuous
 62
     7
370
    25
100
AcDbPolyline
 90
        3
 70
   128
 43
0.0
 10
698.5763559971
 20
393.0443909446
 10
698.5169681467
 20
393.0068672411
 10
698.4123900739
 20
392.9408692112
  0
SPLINE
  5
20F
330
1F
100
AcDbEntity
  8
0
  6
Continuous
 62
     7
370
    25
100
AcDbSpline
210
0.0
220
0.0
230
1.0
 70
     8
 71
     3
 72
    11
 73
     7
 74
     0
 42
0.00000001
 43
0.00000001
 40
0.0
 40
0.0
 40
0.0
 40
0.0
 40
0.1345990676765938
 40
0.4126978815969493
 40
0.6969472592954603
 40
1.0
 40
1.0
 40
1.0
 40
1.0
 10
698.5770735740513
 20
393.0451325107087
 30
0.0
 10
699.0063795942997
 20
392.8542486255475
 30
0.0
 10
700.3226865210238
 20
392.2689743261276
 30
0.0
 10
702.6984965719072
 20
391.6465064421041
 30
0.0
 10
705.7521859567883
 20
391.2700037596039
 30
0.0
 10
707.9432158651489
 20
391.2428624312709
 30
0.0
 10
709.0738053826868
 20
391.2288572818259
 30
0.0
  0
ARC
  5
210
330
1F
100
AcDbEntity
  8
0
  6
Continuous
 62
     7
370
    25
100
AcDbCircle
 10
704.5812743897
 20
391.8486813264
 30
0.0
 40
4.535087272520163
100
AcDbArc
 50
329.0284626407
 51
352.1446266983
  0
LINE
  5
211
330
1F
100
AcDbEntity
  8
0
  6
Continuous
 62
     7
370
    25
100
AcDbLine
 10
698.5763559971
 20
393.0443909446
 30
0.0
 11
698.5770735741
 21
393.0451325107
 31
0.0
  0
LINE
  5
212
330
1F
100
AcDbEntity
  8
0
  6
Continuous
 62
     7
370
    25
100
AcDbLine
 10
707.9055490777
 20
394.1436378923
 30
0.0
 11
710.1034209979
 21
391.3565210179
 31
0.0
  0
ARC
  5
213
330
1F
100
AcDbEntity
  8
0
  6
Continuous
 62
     7
370
    25
100
AcDbCircle
 10
702.3477034979
 20
401.1915304735
 30
0.0
 40
12.52511736202734
100
AcDbArc
 50
307.8583068702
 51
308.2586979829
  0
LINE
  5
214
330
1F
100
AcDbEntity
  8
0
  6
Continuous
 62
     7
370
    25
100
AcDbLine
 10
709.0738053827
 20
391.2288572818
 30
0.0
 11
710.0345037316
 21
391.3025635356
 31
0.0
  0
LINE
  5
215
330
1F
100
AcDbEntity
  8
0
  6
Continuous
 62
     7
370
    25
100
AcDbLine
 10
698.5778521805
 20
393.0459391278
 30
0.0
 11
698.5770735741
 21
393.0451325107
 31
0.0
  0
LINE
  5
216
330
1F
100
AcDbEntity
  8
0
  6
Continuous
 62
     7
370
    25
100
AcDbLine
 10
713.0212740583
 20
391.7816850226
 30
0.0
 11
710.9211915423
 21
391.6656940739
 31
0.0
  0
LINE
  5
217
330
1F
100
AcDbEntity
  8
0
  6
Continuous
 62
     7
370
    25
100
AcDbLine
 10
710.7254475066
 20
395.2097518783
 30
0.0
 11
710.9211915423
 21
391.6656940739
 31
0.0
  0
SPLINE
  5
218
330
1F
100
AcDbEntity
  8
0
  6
Continuous
 62
     7
370
    25
100
AcDbSpline
210
0.0
220
0.0
230
1.0
 70
     8
 71
     3
 72
    16
 73
    12
 74
     0
 42
0.00000001
 43
0.00000001
 40
0.0
 40
0.0
 40
0.0
 40
0.0
 40
0.2861254310575657
 40
0.7591203623085431
 40
0.8520758313858445
 40
0.9266344548631255
 40
0.9604862301433732
 40
0.9835335436569241
 40
0.9930756629548354
 40
0.997224229202362
 40
1.0
 40
1.0
 40
1.0
 40
1.0
 10
714.4619424204349
 20
392.3058287045438
 30
0.0
 10
715.6900892575586
 20
392.8358960138958
 30
0.0
 10
718.9484898426429
 20
394.242219410023
 30
0.0
 10
722.7460712972498
 20
395.2600314129076
 30
0.0
 10
725.5437329471546
 20
395.8219516306791
 30
0.0
 10
726.408865886049
 20
395.9764541465719
 30
0.0
 10
726.9344520547832
 20
396.0649748124025
 30
0.0
 10
727.1681143134972
 20
396.1040841960509
 30
0.0
 10
727.2457644606579
 20
396.1184041650208
 30
0.0
 10
727.2618461156931
 20
396.1221379036435
 30
0.0
 10
727.2629065036148
 20
396.1228717457268
 30
0.0
 10
727.263331583129
 20
396.1231659222539
 30
0.0
  0
LINE
  5
219
330
1F
100
AcDbEntity
  8
0
  6
Continuous
 62
     7
370
    25
100
AcDbLine
 10
713.0212740583
 20
391.7816850226
 30
0.0
 11
714.4619424204
 21
392.3058287045
 31
0.0
  0
ARC
  5
21A
330
1F
100
AcDbEntity
  8
0
  6
Continuous
 62
     7
370
    25
100
AcDbCircle
 10
720.2653752116
 20
395.9149310854
 30
0.0
 40
6.834138728207467
100
AcDbArc
 50
211.8771071303
 51
226.9488007428
  0
SPLINE
  5
21B
330
1F
100
AcDbEntity
  8
0
  6
Continuous
 62
     7
370
    25
100
AcDbSpline
210
0.0
220
0.0
230
1.0
 70
     8
 71
     3
 72
    10
 73
     6
 74
     0
 42
0.00000001
 43
0.00000001
 40
0.0
 40
0.0
 40
0.0
 40
0.0
 40
0.5975855365574142
 40
0.9790563563181776
 40
1.0
 40
1.0
 40
1.0
 40
1.0
 10
727.3733569028167
 20
396.1140390249145
 30
0.0
 10
727.37587604217
 20
396.1177783226408
 30
0.0
 10
727.3800032829505
 20
396.1239046141644
 30
0.0
 10
727.3056321563956
 20
396.1242811730209
 30
0.0
 10
727.2654242042909
 20
396.1232210940206
 30
0.0
 10
727.263331583129
 20
396.1231659222539
 30
0.0
  0
SPLINE
  5
21C
330
1F
100
AcDbEntity
  8
0
  6
Continuous
 62
     7
370
    25
100
AcDbSpline
210
0.0
220
0.0
230
1.0
 70
     8
 71
     3
 72
    14
 73
    10
 74
     0
 42
0.00000001
 43
0.00000001
 40
0.0
 40
0.0
 40
0.0
 40
0.0
 40
0.0129036569231474
 40
0.0519665716781159
 40
0.1318891824261216
 40
0.2280032005552184
 40
0.4679440229400843
 40
0.7079115564493654
 40
1.0
 40
1.0
 40
1.0
 40
1.0
 10
727.3733569028167
 20
396.1140390249145
 30
0.0
 10
727.3398883263524
 20
396.1061940508532
 30
0.0
 10
727.2051011735197
 20
396.0746001849206
 30
0.0
 10
726.7658277285271
 20
395.9722181376267
 30
0.0
 10
725.9544003103013
 20
395.76981662881
 30
0.0
 10
724.3009231284807
 20
395.3027659480436
 30
0.0
 10
721.9566330562369
 20
394.4653088886535
 30
0.0
 10
718.8115388797398
 20
393.0203686483029
 30
0.0
 10
716.7382402055473
 20
391.6649977655082
 30
0.0
 10
715.6000393228002
 20
390.9209253583587
 30
0.0
  0
LWPOLYLINE
  5
21D
330
1F
100
AcDbEntity
  8
0
  6
Continuous
 62
     7
370
    25
100
AcDbPolyline
 90
        4
 70
   128
 43
0.0
 10
727.3928837169
 20
395.9629434487
 10
727.3906390812
 20
395.9803015955
 10
727.3816640473
 20
396.0497343417
 10
727.3733569028
 20
396.1140390249
  0
LINE
  5
21E
330
1F
100
AcDbEntity
  8
0
  6
Continuous
 62
     7
370
    25
100
AcDbLine
 10
725.6047594331
 20
395.5334159454
 30
0.0
 11
727.3928837169
 21
395.9629434487
 31
0.0
  0
ARC
  5
21F
330
1F
100
AcDbEntity
  8
0
  6
Continuous
 62
     7
370
    25
100
AcDbCircle
 10
733.7903178317
 20
365.1077223515
 30
0.0
 40
31.50755777528338
100
AcDbArc
 50
105.0579972479
 51
125.1719294169
  0
LINE
  5
220
330
1F
100
AcDbEntity
  8
0
  6
Continuous
 62
     7
370
    25
100
AcDbLine
 10
715.6000393228
 20
390.9209253584
 30
0.0
 11
715.640959209
 21
390.8628573453
 31
0.0
  0
SPLINE
  5
221
330
1F
100
AcDbEntity
  8
0
  6
Continuous
 62
     7
370
    25
100
AcDbSpline
210
0.0
220
0.0
230
1.0
 70
     8
 71
     3
 72
     9
 73
     5
 74
     0
 42
0.00000001
 43
0.00000001
 40
0.0
 40
0.0
 40
0.0
 40
0.0
 40
0.4998978730609676
 40
1.0
 40
1.0
 40
1.0
 40
1.0
 10
710.9211915422611
 20
391.6656940738531
 30
0.0
 10
710.7729966263652
 20
391.6457277358509
 30
0.0
 10
710.4765462434333
 20
391.6057869017763
 30
0.0
 10
710.2278130146567
 20
391.4396209592057
 30
0.0
 10
710.1034209979051
 20
391.3565210179012
 30
0.0
  0
ARC
  5
222
330
1F
100
AcDbEntity
  8
0
  6
Continuous
 62
     7
370
    25
100
AcDbCircle
 10
727.4746922177
 20
395.6243375851
 30
0.0
 40
0.5000763403382
100
AcDbArc
 50
93.1626296396
 51
101.6913635621
  0
SPLINE
  5
223
330
1F
100
AcDbEntity
  8
0
  6
Continuous
 62
     7
370
    25
100
AcDbSpline
210
0.0
220
0.0
230
1.0
 70
     8
 71
     3
 72
    12
 73
     8
 74
     0
 42
0.00000001
 43
0.00000001
 40
0.0
 40
0.0
 40
0.0
 40
0.0
 40
0.0460726725321133
 40
0.2494576442748311
 40
0.4755636088397388
 40
0.7057929889265031
 40
1.0
 40
1.0
 40
1.0
 40
1.0
 10
698.5603250234041
 20
409.3488022336315
 30
0.0
 10
698.6886604325795
 20
409.4113069329709
 30
0.0
 10
699.3835245915368
 20
409.749734773084
 30
0.0
 10
700.7363235610588
 20
410.3653181892246
 30
0.0
 10
702.7441922051405
 20
411.1727774944791
 30
0.0
 10
705.2394640201459
 20
412.0458976120071
 30
0.0
 10
707.1784102082806
 20
412.54324725165
 30
0.0
 10
708.2661523487171
 20
412.8222586883166
 30
0.0
  0
LINE
  5
224
330
1F
100
AcDbEntity
  8
0
  6
Continuous
 62
     7
370
    25
100
AcDbLine
 10
708.7196124266
 20
410.8746561591
 30
0.0
 11
708.2661523487
 21
412.8222586883
 31
0.0
  0
SPLINE
  5
225
330
1F
100
AcDbEntity
  8
0
  6
Continuous
 62
     7
370
    25
100
AcDbSpline
210
0.0
220
0.0
230
1.0
 70
     8
 71
     3
 72
    13
 73
     9
 74
     0
 42
0.00000001
 43
0.00000001
 40
0.0
 40
0.0
 40
0.0
 40
0.0
 40
0.2574896950994382
 40
0.489088658932104
 40
0.7206004760683489
 40
0.9447506334961292
 40
0.9460032291293307
 40
0.9999999999999999
 40
0.9999999999999999
 40
0.9999999999999999
 40
0.9999999999999999
 10
708.7196124266042
 20
410.8746561591026
 30
0.0
 10
707.8008868506164
 20
410.9027191232173
 30
0.0
 10
706.0558140634782
 20
410.9560233048827
 30
0.0
 10
703.5612488175647
 20
410.7914591860447
 30
0.0
 10
701.2455990115639
 20
410.3780851910348
 30
0.0
 10
699.7684904099604
 20
409.8785280044705
 30
0.0
 10
698.897228965419
 20
409.5042851495414
 30
0.0
 10
698.7271825565962
 20
409.4253047310562
 30
0.0
 10
698.560991384541
 20
409.3481149308814
 30
0.0
  0
LINE
  5
226
330
1F
100
AcDbEntity
  8
0
  6
Continuous
 62
     7
370
    25
100
AcDbLine
 10
698.5609913845
 20
409.3481149309
 30
0.0
 11
698.5603250234
 21
409.3488022336
 31
0.0
  0
ARC
  5
227
330
1F
100
AcDbEntity
  8
0
  6
Continuous
 62
     7
370
    25
100
AcDbCircle
 10
719.1756829047
 20
365.9660295745
 30
0.0
 40
48.10950076354634
100
AcDbArc
 50
102.8580809319
 51
103.1066633214
  0
LWPOLYLINE
  5
228
330
1F
100
AcDbEntity
  8
0
  6
Continuous
 62
     7
370
    25
100
AcDbPolyline
 90
        3
 70
   128
 43
0.0
 10
698.5603250234
 20
409.3488022336
 10
698.5169681467
 20
409.376193706
 10
698.4123900736
 20
409.4421917361
  0
ARC
  5
229
330
1F
100
AcDbEntity
  8
0
  6
Continuous
 62
     7
370
    25
100
AcDbCircle
 10
719.1756829047
 20
365.9660295745
 30
0.0
 40
48.17977797259046
100
AcDbArc
 50
102.8580809319
 51
115.5281512988
  0
LINE
  5
22A
330
1F
100
AcDbEntity
  8
0
  6
Continuous
 62
     7
370
    25
100
AcDbLine
 10
708.4695439402
 20
412.8691494301
 30
0.0
 11
708.4539046682
 21
412.9376643868
 31
0.0
  0
LINE
  5
22B
330
1F
100
AcDbEntity
  8
0
  6
Continuous
 62
     7
370
    25
100
AcDbLine
 10
710.7314888916
 20
407.1892931358
 30
0.0
 11
710.8748507206
 21
409.7849411053
 31
0.0
  0
LINE
  5
22C
330
1F
100
AcDbEntity
  8
0
  6
Continuous
 62
     7
370
    25
100
AcDbLine
 10
710.8748507206
 20
409.7849411053
 30
0.0
 11
714.8249317424
 21
409.5667717516
 31
0.0
  0
SPLINE
  5
22D
330
1F
100
AcDbEntity
  8
0
  6
Continuous
 62
     7
370
    25
100
AcDbSpline
210
0.0
220
0.0
230
1.0
 70
     8
 71
     3
 72
    17
 73
    13
 74
     0
 42
0.00000001
 43
0.00000001
 40
0.0
 40
0.0
 40
0.0
 40
0.0
 40
0.0068263121770695
 40
0.0088448507297282
 40
0.0223990310416126
 40
0.0309593028397547
 40
0.0563218912149142
 40
0.1198824177066663
 40
0.1957460556357062
 40
0.5558621944880028
 40
0.778033609797721
 40
1.0
 40
1.0
 40
1.0
 40
1.0
 10
727.2653973150542
 20
406.2760986736259
 30
0.0
 10
727.2617771698926
 20
406.277136856671
 30
0.0
 10
727.2570865488452
 20
406.2784820301447
 30
0.0
 10
727.2135538361418
 20
406.2860720182196
 30
0.0
 10
727.1390219137095
 20
406.2978235250262
 30
0.0
 10
726.9721896682073
 20
406.3235424202494
 30
0.0
 10
726.5906135511403
 20
406.3820569992714
 30
0.0
 10
725.9077125844058
 20
406.4912539838588
 30
0.0
 10
723.8027132674882
 20
406.8584262162827
 30
0.0
 10
720.9897786857018
 20
407.4926039002482
 30
0.0
 10
717.5909944711352
 20
408.5055441921068
 30
0.0
 10
715.7466688563715
 20
409.2131381127934
 30
0.0
 10
714.824931742381
 20
409.5667717516205
 30
0.0
  0
LINE
  5
22E
330
1F
100
AcDbEntity
  8
0
  6
Continuous
 62
     7
370
    25
100
AcDbLine
 10
714.8249317424
 20
409.5667717516
 30
0.0
 11
715.9544071599
 21
411.2169435413
 31
0.0
  0
SPLINE
  5
22F
330
1F
100
AcDbEntity
  8
0
  6
Continuous
 62
     7
370
    25
100
AcDbSpline
210
0.0
220
0.0
230
1.0
 70
     8
 71
     3
 72
    14
 73
    10
 74
     0
 42
0.00000001
 43
0.00000001
 40
0.0
 40
0.0
 40
0.0
 40
0.0
 40
0.2256458607195978
 40
0.4518169308148964
 40
0.8157761447763425
 40
0.8946140573305355
 40
0.9637846180221653
 40
0.9940799143125668
 40
1.0
 40
1.0
 40
1.0
 40
1.0
 10
715.9544071598729
 20
411.2169435412592
 30
0.0
 10
716.8001547069441
 20
410.671919818758
 30
0.0
 10
718.4936183483479
 20
409.5806037860309
 30
0.0
 10
721.6738404484003
 20
408.0151627012289
 30
0.0
 10
724.345118511567
 20
407.0617838669928
 30
0.0
 10
726.2956469988176
 20
406.5403357208639
 30
0.0
 10
726.9397235092598
 20
406.3849550462215
 30
0.0
 10
727.2676744054861
 20
406.3094049853774
 30
0.0
 10
727.3602117380851
 20
406.2878842112321
 30
0.0
 10
727.3753387064713
 20
406.2843662357188
 30
0.0
  0
SPLINE
  5
230
330
1F
100
AcDbEntity
  8
0
  6
Continuous
 62
     7
370
    25
100
AcDbSpline
210
0.0
220
0.0
230
1.0
 70
     8
 71
     3
 72
    11
 73
     7
 74
     0
 42
0.00000001
 43
0.00000001
 40
0.0
 40
0.0
 40
0.0
 40
0.0
 40
0.0195561212296146
 40
0.1681891996744829
 40
0.5898876540792866
 40
1.0
 40
1.0
 40
1.0
 40
1.0
 10
727.2653973150542
 20
406.2760986736259
 30
0.0
 10
727.2673560282024
 20
406.2760405599102
 30
0.0
 10
727.284201618025
 20
406.2755407624693
 30
0.0
 10
727.3361021817842
 20
406.274694345056
 30
0.0
 10
727.3853868138498
 20
406.2767836435779
 30
0.0
 10
727.3786568287734
 20
406.2818622847615
 30
0.0
 10
727.3753387064713
 20
406.2843662357188
 30
0.0
  0
LINE
  5
231
330
1F
100
AcDbEntity
  8
0
  6
Continuous
 62
     7
370
    25
100
AcDbLine
 10
707.9130366526
 20
408.2542671137
 30
0.0
 11
709.5219936458
 21
410.2961286147
 31
0.0
  0
LINE
  5
232
330
1F
100
AcDbEntity
  8
0
  6
Continuous
 62
     7
370
    25
100
AcDbLine
 10
698.5609913845
 20
409.3481149309
 30
0.0
 11
698.5615592701
 21
409.34752789
 31
0.0
  0
ARC
  5
233
330
1F
100
AcDbEntity
  8
0
  6
Continuous
 62
     7
370
    25
100
AcDbCircle
 10
702.3477034979
 20
401.1915304735
 30
0.0
 40
11.59155496206738
100
AcDbArc
 50
51.762407147
 51
56.6533814372
  0
LWPOLYLINE
  5
234
330
1F
100
AcDbEntity
  8
0
  6
Continuous
 62
     7
370
    25
100
AcDbPolyline
 90
        4
 70
   128
 43
0.0
 10
727.3753387065
 20
406.2843662357
 10
727.3775809528
 20
406.3017244907
 10
727.3865534357
 20
406.3711573523
 10
727.3928837169
 20
406.4201174984
  0
ARC
  5
235
330
1F
100
AcDbEntity
  8
0
  6
Continuous
 62
     7
370
    25
100
AcDbCircle
 10
733.7903178317
 20
437.2753385955
 30
0.0
 40
31.57783498432757
100
AcDbArc
 50
234.8280705831
 51
235.6099480104
  0
LINE
  5
236
330
1F
100
AcDbEntity
  8
0
  6
Continuous
 62
     7
370
    25
100
AcDbLine
 10
715.6004772942
 20
411.4627570989
 30
0.0
 11
715.640959209
 21
411.5202036017
 31
0.0
  0
ARC
  5
237
330
1F
100
AcDbEntity
  8
0
  6
Continuous
 62
     7
370
    25
100
AcDbCircle
 10
733.7903178317
 20
437.2753385955
 30
0.0
 40
31.50755777528337
100
AcDbArc
 50
234.8280705831
 51
254.9420027521
  0
LINE
  5
238
330
1F
100
AcDbEntity
  8
0
  6
Continuous
 62
     7
370
    25
100
AcDbLine
 10
727.3928837169
 20
406.4201174984
 30
0.0
 11
725.6047594331
 21
406.8496450017
 31
0.0
  0
LINE
  5
239
330
1F
100
AcDbEntity
  8
0
  6
Continuous
 62
     7
370
    25
100
AcDbLine
 10
727.4667211262
 20
395.9732617449
 30
0.0
 11
727.3928837169
 21
395.9629434487
 31
0.0
  0
SPLINE
  5
23A
330
1F
100
AcDbEntity
  8
0
  6
Continuous
 62
     7
370
    25
100
AcDbSpline
210
0.0
220
0.0
230
1.0
 70
     8
 71
     3
 72
    10
 73
     6
 74
     0
 42
0.00000001
 43
0.00000001
 40
0.0
 40
0.0
 40
0.0
 40
0.0
 40
0.0490769085761511
 40
0.5995805843665143
 40
1.0
 40
1.0
 40
1.0
 40
1.0
 10
709.5219936458441
 20
410.2961286146539
 30
0.0
 10
709.5409411842131
 20
410.2815058790525
 30
0.0
 10
709.77242634612
 20
410.1028575368633
 30
0.0
 10
710.218300120937
 20
409.8688055434422
 30
0.0
 10
710.6803066978215
 20
409.8097911704246
 30
0.0
 10
710.8748507205751
 20
409.7849411052923
 30
0.0
  0
ARC
  5
23B
330
1F
100
AcDbEntity
  8
0
  6
Continuous
 62
     7
370
    25
100
AcDbCircle
 10
727.4766921074
 20
406.7740639327
 30
0.0
 40
0.5000763405316699
100
AcDbArc
 50
258.3065203381
 51
266.8373700344
  0
SPLINE
  5
23C
330
1F
100
AcDbEntity
  8
0
  6
Continuous
 62
     7
370
    25
100
AcDbSpline
210
0.0
220
0.0
230
1.0
 70
     8
 71
     3
 72
     9
 73
     5
 74
     0
 42
0.00000001
 43
0.00000001
 40
0.0
 40
0.0
 40
0.0
 40
0.0
 40
0.8458911907785353
 40
1.0
 40
1.0
 40
1.0
 40
1.0
 10
727.3928837168818
 20
406.4201174984051
 30
0.0
 10
727.413724312993
 20
406.4163026914127
 30
0.0
 10
727.4383617561278
 20
406.4117928832555
 30
0.0
 10
727.4629342833041
 20
406.4100654195044
 30
0.0
 10
727.4667211262067
 20
406.4097992021227
 30
0.0
  0
LINE
  5
23D
330
1F
100
AcDbEntity
  8
0
  6
Continuous
 62
     7
370
    25
100
AcDbLine
 10
715.6000393228
 20
390.9209253584
 30
0.0
 11
713.7612984735
 21
389.9239591227
 31
0.0
  0
LINE
  5
23E
330
1F
100
AcDbEntity
  8
0
  6
Continuous
 62
     7
370
    25
100
AcDbLine
 10
713.0212740583
 20
391.7816850226
 30
0.0
 11
713.7612984735
 21
389.9239591227
 31
0.0
  0
LINE
  5
23F
330
1F
100
AcDbEntity
  8
0
  6
Continuous
 62
     7
370
    25
100
AcDbLine
 10
710.0345037316
 20
391.3025635356
 30
0.0
 11
709.9126699849
 21
389.3065830266
 31
0.0
  0
LINE
  5
240
330
1F
100
AcDbEntity
  8
0
  6
Continuous
 62
     7
370
    25
100
AcDbLine
 10
709.9126699849
 20
389.3065830266
 30
0.0
 11
708.4697627452
 21
389.5148700919
 31
0.0
  0
ARC
  5
241
330
1F
100
AcDbEntity
  8
0
  6
Continuous
 62
     7
370
    25
100
AcDbCircle
 10
733.7903178317
 20
437.2753385955
 30
0.0
 40
33.57753037464033
100
AcDbArc
 50
234.8280705831
 51
235.6099480104
  0
ARC
  5
242
330
1F
100
AcDbEntity
  8
0
  6
Continuous
 62
     7
370
    25
100
AcDbCircle
 10
719.1756829047
 20
365.9660295745
 30
0.0
 40
46.10980537323358
100
AcDbArc
 50
102.8580809319
 51
103.1066633214
  0
ARC
  5
243
330
1F
100
AcDbEntity
  8
0
  6
Continuous
 62
     7
370
    25
100
AcDbCircle
 10
710.4567187031
 20
404.1634249493
 30
0.0
 40
6.929946387144284
100
AcDbArc
 50
54.8280705831
 51
102.8580809319
  0
ARC
  5
244
330
1F
100
AcDbEntity
  8
0
  6
Continuous
 62
     7
370
    25
100
AcDbCircle
 10
710.4567187031
 20
398.2196359977
 30
0.0
 40
6.929946387144299
100
AcDbArc
 50
266.5070253286
 51
291.7198462835
  0
ARC
  5
245
330
1F
100
AcDbEntity
  8
0
  6
Continuous
 62
     7
370
    25
100
AcDbCircle
 10
710.4567187031
 20
398.2196359977
 30
0.0
 40
8.929641777457157
100
AcDbArc
 50
266.5070253286
 51
291.7198462835
  0
LINE
  5
246
330
1F
100
AcDbEntity
  8
0
  6
Continuous
 62
     7
370
    25
100
AcDbLine
 10
708.9145499452
 20
410.9195978638
 30
0.0
 11
708.4695439402
 21
412.8691494301
 31
0.0
  0
ARC
  5
247
330
1F
100
AcDbEntity
  8
0
  6
Continuous
 62
     7
370
    25
100
AcDbCircle
 10
710.4567187031
 20
404.1634249493
 30
0.0
 40
8.929641777457046
100
AcDbArc
 50
54.8280705831
 51
102.8580809319
  0
LINE
  5
248
330
1F
100
AcDbEntity
  8
0
  6
Continuous
 62
     7
370
    25
100
AcDbLine
 10
714.448588943
 20
409.8281516785
 30
0.0
 11
715.6004772942
 21
411.4627570989
 31
0.0
  0
ARC
  5
249
330
1F
100
AcDbEntity
  8
0
  6
Continuous
 62
     7
370
    25
100
AcDbCircle
 10
710.4567187031
 20
398.2196359977
 30
0.0
 40
8.9999189865013
100
AcDbArc
 50
257.1419190681
 51
305.1719294169
  0
ARC
  5
24A
330
1F
100
AcDbEntity
  8
0
  6
Continuous
 62
     7
370
    25
100
AcDbCircle
 10
710.4567187031
 20
404.1634249493
 30
0.0
 40
8.999918986501225
100
AcDbArc
 50
54.8280705831
 51
102.8580809319
  0
CIRCLE
  5
24B
330
1F
100
AcDbEntity
  8
0
  6
Continuous
 62
     7
370
    25
100
AcDbCircle
 10
499.1477034979
 20
400.9461091847
 30
0.0
 40
4.452105871057313
  0
CIRCLE
  5
24C
330
1F
100
AcDbEntity
  8
0
  6
Continuous
 62
     7
370
    25
100
AcDbCircle
 10
499.1477034979
 20
400.9461091847
 30
0.0
 40
5.074569253689219
  0
CIRCLE
  5
24D
330
1F
100
AcDbEntity
  8
0
  6
Continuous
 62
     7
370
    25
100
AcDbCircle
 10
499.1477034979
 20
400.9461091847
 30
0.0
 40
5.328914336627633
  0
CIRCLE
  5
24E
330
1F
100
AcDbEntity
  8
0
  6
Continuous
 62
     7
370
    25
100
AcDbCircle
 10
499.1477034979
 20
400.9461091847
 30
0.0
 40
5.925127771161385
  0
CIRCLE
  5
24F
330
1F
100
AcDbEntity
  8
0
  6
Continuous
 62
     7
370
    25
100
AcDbCircle
 10
499.1477034979
 20
400.9461091847
 30
0.0
 40
7.149999999999977
  0
SPLINE
  5
250
330
1F
100
AcDbEntity
  8
0
  6
Continuous
 62
     7
370
    25
100
AcDbSpline
210
0.0
220
0.0
230
1.0
 70
    24
 71
     3
 72
    10
 73
     6
 74
     0
 42
0.00000001
 43
0.00000001
 40
0.0
 40
0.0
 40
0.0
 40
0.0
 40
0.1975688342539616
 40
0.5967805496025194
 40
1.0
 40
1.0
 40
1.0
 40
1.0
 10
484.5249675851779
 20
391.45920949902
 30
0.0
 10
484.8312869703362
 20
390.9286487605824
 30
0.0
 10
485.7565617067035
 20
389.3260259062346
 30
0.0
 10
487.292033682354
 20
386.6665104308097
 30
0.0
 10
488.4938128011303
 20
384.5849679376137
 30
0.0
 10
489.0977034978752
 20
383.5389985686334
 30
0.0
  0
SPLINE
  5
251
330
1F
100
AcDbEntity
  8
0
  6
Continuous
 62
     7
370
    25
100
AcDbSpline
210
0.0
220
0.0
230
1.0
 70
    24
 71
     3
 72
     9
 73
     5
 74
     0
 42
0.00000001
 43
0.00000001
 40
0.0
 40
0.0
 40
0.0
 40
0.0
 40
0.5974642014981881
 40
1.0
 40
1.0
 40
1.0
 40
1.0
 10
489.0977034978752
 20
418.3532198007679
 30
0.0
 10
488.2262344101688
 20
416.8437910636347
 30
0.0
 10
486.7676213493007
 20
414.3173991336278
 30
0.0
 10
485.2591178364751
 20
411.7045944060176
 30
0.0
 10
484.6518911703971
 20
410.6528469686597
 30
0.0
  0
SPLINE
  5
252
330
1F
100
AcDbEntity
  8
0
  6
Continuous
 62
     7
370
    25
100
AcDbSpline
210
0.0
220
0.0
230
1.0
 70
    24
 71
     3
 72
     9
 73
     5
 74
     0
 42
0.00000001
 43
0.00000001
 40
0.0
 40
0.0
 40
0.0
 40
0.0
 40
0.5895329692864658
 40
1.0
 40
1.0
 40
1.0
 40
1.0
 10
509.1977034978752
 20
418.3532198007679
 30
0.0
 10
507.4546077142901
 20
418.3532198007679
 30
0.0
 10
504.4978675921983
 20
418.3532198007679
 30
0.0
 10
501.4400041721941
 20
418.3532198007679
 30
0.0
 10
500.1848520538573
 20
418.3532198007679
 30
0.0
  0
SPLINE
  5
253
330
1F
100
AcDbEntity
  8
0
  6
Continuous
 62
     7
370
    25
100
AcDbSpline
210
0.0
220
0.0
230
1.0
 70
    24
 71
     3
 72
     9
 73
     5
 74
     0
 42
0.00000001
 43
0.00000001
 40
0.0
 40
0.0
 40
0.0
 40
0.0
 40
0.4322742721380251
 40
1.0
 40
1.0
 40
1.0
 40
1.0
 10
497.3833190151651
 20
418.3532198007679
 30
0.0
 10
496.1693004253898
 20
418.3532198007679
 30
0.0
 10
493.3608552598454
 20
418.3532198007679
 30
0.0
 10
490.6415328131926
 20
418.3532198007678
 30
0.0
 10
489.0977034978752
 20
418.3532198007679
 30
0.0
  0
SPLINE
  5
254
330
1F
100
AcDbEntity
  8
0
  6
Continuous
 62
     7
370
    25
100
AcDbSpline
210
0.0
220
0.0
230
1.0
 70
    24
 71
     3
 72
     9
 73
     5
 74
     0
 42
0.00000001
 43
0.00000001
 40
0.0
 40
0.0
 40
0.0
 40
0.0
 40
0.5289253600998584
 40
1.0
 40
1.0
 40
1.0
 40
1.0
 10
511.9301694317799
 20
413.6204499732938
 30
0.0
 10
511.4411145073836
 20
414.46751795004
 30
0.0
 10
510.5164945869017
 20
416.0690066300049
 30
0.0
 10
509.6200131621957
 20
417.6217580056374
 30
0.0
 10
509.1977034978752
 20
418.3532198007679
 30
0.0
  0
SPLINE
  5
255
330
1F
100
AcDbEntity
  8
0
  6
Continuous
 62
     7
370
    25
100
AcDbSpline
210
0.0
220
0.0
230
1.0
 70
    24
 71
     3
 72
     9
 73
     5
 74
     0
 42
0.00000001
 43
0.00000001
 40
0.0
 40
0.0
 40
0.0
 40
0.0
 40
0.9653978532835642
 40
1.0
 40
1.0
 40
1.0
 40
1.0
 10
509.1977034978752
 20
383.5389985686335
 30
0.0
 10
510.0655168263697
 20
385.0420953450712
 30
0.0
 10
510.964434640971
 20
386.5990666717893
 30
0.0
 10
511.8942285953316
 20
388.2095170413126
 30
0.0
 10
511.9264014621565
 20
388.2652420812783
 30
0.0
  0
SPLINE
  5
256
330
1F
100
AcDbEntity
  8
0
  6
Continuous
 62
     7
370
    25
100
AcDbSpline
210
0.0
220
0.0
230
1.0
 70
    24
 71
     3
 72
     9
 73
     5
 74
     0
 42
0.00000001
 43
0.00000001
 40
0.0
 40
0.0
 40
0.0
 40
0.0
 40
0.6293621640598958
 40
1.0
 40
1.0
 40
1.0
 40
1.0
 10
489.0977034978752
 20
383.5389985686334
 30
0.0
 10
490.8400078021
 20
383.5389985686334
 30
0.0
 10
493.6083729878707
 20
383.5389985686335
 30
0.0
 10
496.4714618820034
 20
383.5389985686335
 30
0.0
 10
497.5326309538289
 20
383.5389985686335
 30
0.0
  0
SPLINE
  5
257
330
1F
100
AcDbEntity
  8
0
  6
Continuous
 62
     7
370
    25
100
AcDbSpline
210
0.0
220
0.0
230
1.0
 70
    24
 71
     3
 72
     9
 73
     5
 74
     0
 42
0.00000001
 43
0.00000001
 40
0.0
 40
0.0
 40
0.0
 40
0.0
 40
0.4706827121837158
 40
1.0
 40
1.0
 40
1.0
 40
1.0
 10
500.3035223849753
 20
383.5389985686335
 30
0.0
 10
501.7219040335943
 20
383.5389985686335
 30
0.0
 10
504.7353600452641
 20
383.5389985686335
 30
0.0
 10
507.6532263952763
 20
383.5389985686335
 30
0.0
 10
509.1977034978752
 20
383.5389985686335
 30
0.0
  0
SPLINE
  5
258
330
1F
100
AcDbEntity
  8
0
  6
Continuous
 62
     7
370
    25
100
AcDbSpline
210
0.0
220
0.0
230
1.0
 70
    24
 71
     3
 72
    10
 73
     6
 74
     0
 42
0.00000001
 43
0.00000001
 40
0.0
 40
0.0
 40
0.0
 40
0.0
 40
0.1513074571106853
 40
0.5735343350203647
 40
1.0
 40
1.0
 40
1.0
 40
1.0
 10
716.7171701807514
 20
410.8716840444254
 30
0.0
 10
716.4954102050687
 20
411.2557835893932
 30
0.0
 10
715.6548240065028
 20
412.7117215934504
 30
0.0
 10
714.2034852122388
 20
415.2255141241114
 30
0.0
 10
713.0016316182229
 20
417.3071856122062
 30
0.0
 10
712.3977034978752
 20
418.3532198007679
 30
0.0
  0
SPLINE
  5
259
330
1F
100
AcDbEntity
  8
0
  6
Continuous
 62
     7
370
    25
100
AcDbSpline
210
0.0
220
0.0
230
1.0
 70
    24
 71
     3
 72
     9
 73
     5
 74
     0
 42
0.00000001
 43
0.00000001
 40
0.0
 40
0.0
 40
0.0
 40
0.0
 40
0.5810940491840645
 40
1.0
 40
1.0
 40
1.0
 40
1.0
 10
712.3977034978752
 20
383.5389985686335
 30
0.0
 10
713.2693352381002
 20
385.0487090281927
 30
0.0
 10
714.7693191760683
 20
387.6467574192906
 30
0.0
 10
716.3205990429536
 20
390.3336529654947
 30
0.0
 10
716.9704394105728
 20
391.4592094990205
 30
0.0
  0
SPLINE
  5
25A
330
1F
100
AcDbEntity
  8
0
  6
Continuous
 62
     7
370
    25
100
AcDbSpline
210
0.0
220
0.0
230
1.0
 70
    24
 71
     3
 72
     9
 73
     5
 74
     0
 42
0.00000001
 43
0.00000001
 40
0.0
 40
0.0
 40
0.0
 40
0.0
 40
0.5972947437968209
 40
1.0
 40
1.0
 40
1.0
 40
1.0
 10
692.2977034978752
 20
383.5389985686334
 30
0.0
 10
694.0406450407241
 20
383.5389985686335
 30
0.0
 10
696.9587044426362
 20
383.5389985686335
 30
0.0
 10
699.9765730571717
 20
383.5389985686335
 30
0.0
 10
701.1918846107757
 20
383.5389985686334
 30
0.0
  0
SPLINE
  5
25B
330
1F
100
AcDbEntity
  8
0
  6
Continuous
 62
     7
370
    25
100
AcDbSpline
210
0.0
220
0.0
230
1.0
 70
    24
 71
     3
 72
     9
 73
     5
 74
     0
 42
0.00000001
 43
0.00000001
 40
0.0
 40
0.0
 40
0.0
 40
0.0
 40
0.4422048037408239
 40
1.0
 40
1.0
 40
1.0
 40
1.0
 10
703.9627760419214
 20
383.5389985686334
 30
0.0
 10
705.2269266814657
 20
383.5389985686335
 30
0.0
 10
708.0856713826772
 20
383.5389985686335
 30
0.0
 10
710.8537066966601
 20
383.5389985686334
 30
0.0
 10
712.3977034978753
 20
383.5389985686334
 30
0.0
  0
SPLINE
  5
25C
330
1F
100
AcDbEntity
  8
0
  6
Continuous
 62
     7
370
    25
100
AcDbSpline
210
0.0
220
0.0
230
1.0
 70
    24
 71
     3
 72
     9
 73
     5
 74
     0
 42
0.00000001
 43
0.00000001
 40
0.0
 40
0.0
 40
0.0
 40
0.0
 40
0.5290488232281297
 40
0.9999999999999999
 40
0.9999999999999999
 40
0.9999999999999999
 40
0.9999999999999999
 10
689.5645142790562
 20
388.2730211623276
 30
0.0
 10
690.0538122118099
 20
387.4255322827597
 30
0.0
 10
690.978675686164
 20
385.8236217551138
 30
0.0
 10
691.8753932880398
 20
384.2704613086235
 30
0.0
 10
692.2977034978752
 20
383.5389985686334
 30
0.0
  0
SPLINE
  5
25D
330
1F
100
AcDbEntity
  8
0
  6
Continuous
 62
     7
370
    25
100
AcDbSpline
210
0.0
220
0.0
230
1.0
 70
    24
 71
     3
 72
     9
 73
     5
 74
     0
 42
0.00000001
 43
0.00000001
 40
0.0
 40
0.0
 40
0.0
 40
0.0
 40
0.9645405857332071
 40
0.9999999999999999
 40
0.9999999999999999
 40
0.9999999999999999
 40
0.9999999999999999
 10
692.2977034978752
 20
418.3532198007679
 30
0.0
 10
691.429881651639
 20
416.8501082711691
 30
0.0
 10
690.5301560630297
 20
415.291737838829
 30
0.0
 10
689.5995268924653
 20
413.679840832404
 30
0.0
 10
689.5665273271774
 20
413.6226839086977
 30
0.0
  0
SPLINE
  5
25E
330
1F
100
AcDbEntity
  8
0
  6
Continuous
 62
     7
370
    25
100
AcDbSpline
210
0.0
220
0.0
230
1.0
 70
    24
 71
     3
 72
     9
 73
     5
 74
     0
 42
0.00000001
 43
0.00000001
 40
0.0
 40
0.0
 40
0.0
 40
0.0
 40
0.6405427708966549
 40
1.0
 40
1.0
 40
1.0
 40
1.0
 10
712.3977034978752
 20
418.3532198007679
 30
0.0
 10
710.6556213728735
 20
418.3532198007679
 30
0.0
 10
707.9359245717324
 20
418.3532198007679
 30
0.0
 10
705.1231574546168
 20
418.3532198007679
 30
0.0
 10
704.1120879805854
 20
418.3532198007679
 30
0.0
  0
SPLINE
  5
25F
330
1F
100
AcDbEntity
  8
0
  6
Continuous
 62
     7
370
    25
100
AcDbSpline
210
0.0
220
0.0
230
1.0
 70
    24
 71
     3
 72
     9
 73
     5
 74
     0
 42
0.00000001
 43
0.00000001
 40
0.0
 40
0.0
 40
0.0
 40
0.0
 40
0.4775747399454069
 40
1.0
 40
1.0
 40
1.0
 40
1.0
 10
701.310554941893
 20
418.3532198007679
 30
0.0
 10
699.8523124040546
 20
418.3532198007679
 30
0.0
 10
696.7988792639242
 20
418.3532198007679
 30
0.0
 10
693.8422968397153
 20
418.3532198007679
 30
0.0
 10
692.2977034978752
 20
418.3532198007679
 30
0.0
  0
ARC
  5
260
330
1F
100
AcDbEntity
  8
0
  6
Continuous
 62
     7
370
    25
100
AcDbCircle
 10
702.3477034979
 20
400.9461091847
 30
0.0
 40
25.80000000000013
100
AcDbArc
 50
207.7177476896
 51
270.0
  0
ARC
  5
261
330
1F
100
AcDbEntity
  8
0
  6
Continuous
 62
     7
370
    25
100
AcDbCircle
 10
702.3477034979
 20
400.9461091847
 30
0.0
 40
25.80000000000016
100
AcDbArc
 50
12.3367448298
 51
152.2822523104
  0
ARC
  5
262
330
1F
100
AcDbEntity
  8
0
  6
Continuous
 62
     7
370
    25
100
AcDbCircle
 10
702.3477034979
 20
400.9461091847
 30
0.0
 40
25.7999999999999
100
AcDbArc
 50
270.0
 51
348.9141211307
  0
ARC
  5
263
330
1F
100
AcDbEntity
  8
0
  6
Continuous
 62
     7
370
    25
100
AcDbCircle
 10
499.1477034979
 20
400.9461091847
 30
0.0
 40
25.8000000000001
100
AcDbArc
 50
27.7177476896
 51
90.0
  0
ARC
  5
264
330
1F
100
AcDbEntity
  8
0
  6
Continuous
 62
     7
370
    25
100
AcDbCircle
 10
499.1477034979
 20
400.9461091847
 30
0.0
 40
25.80000000000008
100
AcDbArc
 50
191.6486469972
 51
332.2822523104
  0
ARC
  5
265
330
1F
100
AcDbEntity
  8
0
  6
Continuous
 62
     7
370
    25
100
AcDbCircle
 10
499.1477034979
 20
400.9461091847
 30
0.0
 40
25.80000000000007
100
AcDbArc
 50
90.0
 51
168.1478336634
  0
SPLINE
  5
266
330
1F
100
AcDbEntity
  8
0
  6
Continuous
 62
     7
370
    25
100
AcDbSpline
210
0.0
220
0.0
230
1.0
 70
    24
 71
     3
 72
    10
 73
     6
 74
     0
 42
0.00000001
 43
0.00000001
 40
0.0
 40
0.0
 40
0.0
 40
0.0
 40
0.4640535273220996
 40
0.9420773948141514
 40
1.0
 40
1.0
 40
1.0
 40
1.0
 10
702.3659026265983
 20
391.4461091847006
 30
0.0
 10
701.7324336095909
 20
391.4461091847007
 30
0.0
 10
700.4464249789022
 20
391.4461091847008
 30
0.0
 10
699.1268058945277
 20
391.4461091847002
 30
0.0
 10
698.4417873695744
 20
391.4461091847007
 30
0.0
 10
698.3677537494489
 20
391.4461091847007
 30
0.0
  0
ARC
  5
267
330
1F
100
AcDbEntity
  8
0
  6
Continuous
 62
     7
370
    25
100
AcDbCircle
 10
702.3477034979
 20
400.9461091847
 30
0.0
 40
10.30000000000002
100
AcDbArc
 50
232.7308609266
 51
247.2691390734
  0
SPLINE
  5
268
330
1F
100
AcDbEntity
  8
0
  6
Continuous
 62
     7
370
    25
100
AcDbSpline
210
0.0
220
0.0
230
1.0
 70
    24
 71
     3
 72
    11
 73
     7
 74
     0
 42
0.00000001
 43
0.00000001
 40
0.0
 40
0.0
 40
0.0
 40
0.0
 40
0.2431641197380909
 40
0.4936284730588959
 40
0.7421706076863274
 40
1.0
 40
1.0
 40
1.0
 40
1.0
 10
696.1104370361363
 20
392.7493715967778
 30
0.0
 10
695.7966780344395
 20
393.2928181290487
 30
0.0
 10
695.1597404094197
 20
394.3960264568354
 30
0.0
 10
694.1493514404132
 20
396.146071486562
 30
0.0
 10
693.117644312577
 20
397.9330406505049
 30
0.0
 10
692.4635385696788
 20
399.0659850307272
 30
0.0
 10
692.1304872877099
 20
399.6428467726235
 30
0.0
  0
ARC
  5
269
330
1F
100
AcDbEntity
  8
0
  6
Continuous
 62
     7
370
    25
100
AcDbCircle
 10
702.3477034979
 20
400.9461091847
 30
0.0
 40
10.29999999999996
100
AcDbArc
 50
172.7308609266
 51
187.2691390734
  0
SPLINE
  5
26A
330
1F
100
AcDbEntity
  8
0
  6
Continuous
 62
     7
370
    25
100
AcDbSpline
210
0.0
220
0.0
230
1.0
 70
    24
 71
     3
 72
    11
 73
     7
 74
     0
 42
0.00000001
 43
0.00000001
 40
0.0
 40
0.0
 40
0.0
 40
0.0
 40
0.2431641197380909
 40
0.4936284730588976
 40
0.7421706076863274
 40
1.0
 40
1.0
 40
1.0
 40
1.0
 10
692.1304872877099
 20
402.2493715967778
 30
0.0
 10
692.4442462894066
 20
402.7928181290487
 30
0.0
 10
693.0811839144266
 20
403.8960264568356
 30
0.0
 10
694.0915728834332
 20
405.6460714865621
 30
0.0
 10
695.1232800112691
 20
407.4330406505049
 30
0.0
 10
695.7773857541673
 20
408.5659850307272
 30
0.0
 10
696.1104370361363
 20
409.1428467726234
 30
0.0
  0
ARC
  5
26B
330
1F
100
AcDbEntity
  8
0
  6
Continuous
 62
     7
370
    25
100
AcDbCircle
 10
702.3477034979
 20
400.9461091847
 30
0.0
 40
10.30000000000008
100
AcDbArc
 50
112.7308609266
 51
127.2691390734
  0
SPLINE
  5
26C
330
1F
100
AcDbEntity
  8
0
  6
Continuous
 62
     7
370
    25
100
AcDbSpline
210
0.0
220
0.0
230
1.0
 70
    24
 71
     3
 72
    10
 73
     6
 74
     0
 42
0.00000001
 43
0.00000001
 40
0.0
 40
0.0
 40
0.0
 40
0.0
 40
0.0994117102400371
 40
0.9198370010304907
 40
1.0
 40
1.0
 40
1.0
 40
1.0
 10
698.3677537494489
 20
410.4461091847007
 30
0.0
 10
698.4418113896576
 20
410.4461091847007
 30
0.0
 10
699.1270521677161
 20
410.4461091847005
 30
0.0
 10
699.8894677403366
 20
410.4461091847005
 30
0.0
 10
700.6026374517618
 20
410.4461091847007
 30
0.0
 10
700.6661179827571
 20
410.4461091847007
 30
0.0
  0
ARC
  5
26D
330
1F
100
AcDbEntity
  8
0
  6
Continuous
 62
     7
370
    25
100
AcDbCircle
 10
499.1477034979
 20
400.9461091847
 30
0.0
 40
10.30000000000002
100
AcDbArc
 50
292.7308609266
 51
307.2691390734
  0
SPLINE
  5
26E
330
1F
100
AcDbEntity
  8
0
  6
Continuous
 62
     7
370
    25
100
AcDbSpline
210
0.0
220
0.0
230
1.0
 70
    24
 71
     3
 72
    10
 73
     6
 74
     0
 42
0.00000001
 43
0.00000001
 40
0.0
 40
0.0
 40
0.0
 40
0.0
 40
0.0752297048722208
 40
0.663681810141465
 40
1.0
 40
1.0
 40
1.0
 40
1.0
 10
503.1276532463017
 20
391.4461091847007
 30
0.0
 10
503.052441873429
 20
391.4461091847007
 30
0.0
 10
502.3889217894921
 20
391.4461091847004
 30
0.0
 10
501.3608882037802
 20
391.4461091847007
 30
0.0
 10
500.375835617543
 20
391.4461091847007
 30
0.0
 10
500.0175941120963
 20
391.4461091847007
 30
0.0
  0
SPLINE
  5
26F
330
1F
100
AcDbEntity
  8
0
  6
Continuous
 62
     7
370
    25
100
AcDbSpline
210
0.0
220
0.0
230
1.0
 70
    24
 71
     3
 72
    10
 73
     6
 74
     0
 42
0.00000001
 43
0.00000001
 40
0.0
 40
0.0
 40
0.0
 40
0.0
 40
0.3826789414399058
 40
0.9300253821375891
 40
1.0
 40
1.0
 40
1.0
 40
1.0
 10
499.7786226827458
 20
410.4461091847007
 30
0.0
 10
500.2170775428668
 20
410.4461091847007
 30
0.0
 10
501.2826552495987
 20
410.4461091847007
 30
0.0
 10
502.388950295803
 20
410.4461091847009
 30
0.0
 10
503.0524447756999
 20
410.4461091847007
 30
0.0
 10
503.1276532463017
 20
410.4461091847007
 30
0.0
  0
ARC
  5
270
330
1F
100
AcDbEntity
  8
0
  6
Continuous
 62
     7
370
    25
100
AcDbCircle
 10
499.1477034979
 20
400.9461091847
 30
0.0
 40
10.30000000000012
100
AcDbArc
 50
52.7308609266
 51
67.2691390734
  0
SPLINE
  5
271
330
1F
100
AcDbEntity
  8
0
  6
Continuous
 62
     7
370
    25
100
AcDbSpline
210
0.0
220
0.0
230
1.0
 70
    24
 71
     3
 72
    11
 73
     7
 74
     0
 42
0.00000001
 43
0.00000001
 40
0.0
 40
0.0
 40
0.0
 40
0.0
 40
0.2431641197380907
 40
0.493628473058897
 40
0.7421706076863274
 40
1.0
 40
1.0
 40
1.0
 40
1.0
 10
505.3849699596141
 20
409.1428467726234
 30
0.0
 10
505.6987289613108
 20
408.5994002403527
 30
0.0
 10
506.3356665863308
 20
407.4961919125659
 30
0.0
 10
507.3460555553374
 20
405.7461468828393
 30
0.0
 10
508.3777626831734
 20
403.9591777188963
 30
0.0
 10
509.0318684260716
 20
402.8262333386742
 30
0.0
 10
509.3649197080406
 20
402.2493715967778
 30
0.0
  0
ARC
  5
272
330
1F
100
AcDbEntity
  8
0
  6
Continuous
 62
     7
370
    25
100
AcDbCircle
 10
499.1477034979
 20
400.9461091847
 30
0.0
 40
10.30000000000007
100
AcDbArc
 50
352.7308609266
 51
7.2691390734
  0
SPLINE
  5
273
330
1F
100
AcDbEntity
  8
0
  6
Continuous
 62
     7
370
    25
100
AcDbSpline
210
0.0
220
0.0
230
1.0
 70
    24
 71
     3
 72
    11
 73
     7
 74
     0
 42
0.00000001
 43
0.00000001
 40
0.0
 40
0.0
 40
0.0
 40
0.0
 40
0.2431641197380909
 40
0.4936284730588911
 40
0.7421706076863276
 40
1.0
 40
1.0
 40
1.0
 40
1.0
 10
509.3649197080406
 20
399.6428467726235
 30
0.0
 10
509.0511607063439
 20
399.0994002403526
 30
0.0
 10
508.414223081324
 20
397.9961919125658
 30
0.0
 10
507.4038341123174
 20
396.2461468828393
 30
0.0
 10
506.3721269844814
 20
394.4591777188964
 30
0.0
 10
505.7180212415832
 20
393.3262333386741
 30
0.0
 10
505.3849699596141
 20
392.7493715967778
 30
0.0
  0
LINE
  5
274
330
1F
100
AcDbEntity
  8
0
  6
Continuous
 62
     7
370
    25
100
AcDbLine
 10
693.903955811
 20
396.0711091847
 30
0.0
 11
693.3112673232
 21
397.2847813844
 31
0.0
  0
LINE
  5
275
330
1F
100
AcDbEntity
  8
0
  6
Continuous
 62
     7
370
    25
100
AcDbLine
 10
693.2315599589
 20
404.4042050446
 30
0.0
 11
693.3420357106
 21
404.6824774354
 31
0.0
  0
LINE
  5
276
330
1F
100
AcDbEntity
  8
0
  6
Continuous
 62
     7
370
    25
100
AcDbLine
 10
694.8811299068
 20
394.676118849
 30
0.0
 11
693.903955811
 21
396.0711091847
 31
0.0
  0
ARC
  5
277
330
1F
100
AcDbEntity
  8
0
  6
Continuous
 62
     7
370
    25
100
AcDbCircle
 10
702.3477034979
 20
400.9461091847
 30
0.0
 40
14.87500000000002
100
AcDbArc
 50
55.1611835828
 51
308.4167037004
  0
ARC
  5
278
330
1F
100
AcDbEntity
  8
0
  6
Continuous
 62
     7
370
    25
100
AcDbCircle
 10
702.3477034979
 20
400.9461091847
 30
0.0
 40
10.57500000000003
100
AcDbArc
 50
84.5490172094
 51
281.0490866706
  0
ARC
  5
279
330
1F
100
AcDbEntity
  8
0
  6
Continuous
 62
     7
370
    25
100
AcDbCircle
 10
702.3477034979
 20
400.9461091847
 30
0.0
 40
16.20000000000002
100
AcDbArc
 50
210.0
 51
318.1420914191
  0
ARC
  5
27A
330
1F
100
AcDbEntity
  8
0
  6
Continuous
 62
     7
370
    25
100
AcDbCircle
 10
702.3477034979
 20
400.9461091847
 30
0.0
 40
16.19999999999995
100
AcDbArc
 50
45.9729863709
 51
210.0
  0
SPLINE
  5
27B
330
1F
100
AcDbEntity
  8
0
  6
Continuous
 62
     7
370
    25
100
AcDbSpline
210
0.0
220
0.0
230
1.0
 70
     8
 71
     3
 72
     9
 73
     5
 74
     0
 42
0.00000001
 43
0.00000001
 40
0.0
 40
0.0
 40
0.0
 40
0.0
 40
0.5850553834534156
 40
0.9999999999999999
 40
0.9999999999999999
 40
0.9999999999999999
 40
0.9999999999999999
 10
691.2212928499605
 20
387.7176177327645
 30
0.0
 10
691.4810677697692
 20
387.3310712072005
 30
0.0
 10
691.9250854254576
 20
386.6703704658753
 30
0.0
 10
692.5969366174904
 20
386.1922116337491
 30
0.0
 10
692.8757176527449
 20
385.9938022005041
 30
0.0
  0
SPLINE
  5
27C
330
1F
100
AcDbEntity
  8
0
  6
Continuous
 62
     7
370
    25
100
AcDbSpline
210
0.0
220
0.0
230
1.0
 70
    24
 71
     3
 72
    11
 73
     7
 74
     0
 42
0.00000001
 43
0.00000001
 40
0.0
 40
0.0
 40
0.0
 40
0.0
 40
0.237905390376848
 40
0.4814905141303177
 40
0.7366519444348053
 40
1.0
 40
1.0
 40
1.0
 40
1.0
 10
685.3282885227949
 20
397.9246006366385
 30
0.0
 10
685.7850206335701
 20
397.1335174153276
 30
0.0
 10
686.7093888393038
 20
395.5324647180956
 30
0.0
 10
688.1857149318233
 20
392.9753929173121
 30
0.0
 10
689.7178483162869
 20
390.3216600514489
 30
0.0
 10
690.7148972809334
 20
388.5947205870472
 30
0.0
 10
691.2212928499605
 20
387.7176177327645
 30
0.0
  0
SPLINE
  5
27D
330
1F
100
AcDbEntity
  8
0
  6
Continuous
 62
     7
370
    25
100
AcDbSpline
210
0.0
220
0.0
230
1.0
 70
     8
 71
     3
 72
     9
 73
     5
 74
     0
 42
0.00000001
 43
0.00000001
 40
0.0
 40
0.0
 40
0.0
 40
0.0
 40
0.5841917497410017
 40
1.0
 40
1.0
 40
1.0
 40
1.0
 10
684.6626328818126
 20
400.2192823106294
 30
0.0
 10
684.7193250302206
 20
399.7389241850632
 30
0.0
 10
684.8163687636066
 20
398.9166631281769
 30
0.0
 10
685.1779429803797
 20
398.2159591371125
 30
0.0
 10
685.3282885227949
 20
397.9246006366385
 30
0.0
  0
ARC
  5
27E
330
1F
100
AcDbEntity
  8
0
  6
Continuous
 62
     7
370
    25
100
AcDbCircle
 10
702.3477034979
 20
400.9461091847
 30
0.0
 40
17.70000000000003
100
AcDbArc
 50
177.6465635726
 51
182.3534364274
  0
SPLINE
  5
27F
330
1F
100
AcDbEntity
  8
0
  6
Continuous
 62
     7
370
    25
100
AcDbSpline
210
0.0
220
0.0
230
1.0
 70
     8
 71
     3
 72
     9
 73
     5
 74
     0
 42
0.00000001
 43
0.00000001
 40
0.0
 40
0.0
 40
0.0
 40
0.0
 40
0.5850553834536094
 40
1.0
 40
1.0
 40
1.0
 40
1.0
 10
685.328288522795
 20
403.9676177327631
 30
0.0
 10
685.1234168718165
 20
403.5493727901607
 30
0.0
 10
684.7732420733743
 20
402.8344918499433
 30
0.0
 10
684.6950699737257
 20
402.0135722340177
 30
0.0
 10
684.6626328818124
 20
401.6729360587719
 30
0.0
  0
SPLINE
  5
280
330
1F
100
AcDbEntity
  8
0
  6
Continuous
 62
     7
370
    25
100
AcDbSpline
210
0.0
220
0.0
230
1.0
 70
    24
 71
     3
 72
    11
 73
     7
 74
     0
 42
0.00000001
 43
0.00000001
 40
0.0
 40
0.0
 40
0.0
 40
0.0
 40
0.2328716322111471
 40
0.4710265024313234
 40
0.7311421212560303
 40
1.0
 40
1.0
 40
1.0
 40
1.0
 10
691.2212928499613
 20
414.1746006366383
 30
0.0
 10
690.774364634801
 20
413.4004982606447
 30
0.0
 10
689.8703685918913
 20
411.834731184484
 30
0.0
 10
688.40653222161
 20
409.2992922171893
 30
0.0
 10
686.8629827663709
 20
406.62578613672
 30
0.0
 10
685.8454587558779
 20
404.8633828526248
 30
0.0
 10
685.328288522795
 20
403.9676177327631
 30
0.0
  0
SPLINE
  5
281
330
1F
100
AcDbEntity
  8
0
  6
Continuous
 62
     7
370
    25
100
AcDbSpline
210
0.0
220
0.0
230
1.0
 70
     8
 71
     3
 72
     9
 73
     5
 74
     0
 42
0.00000001
 43
0.00000001
 40
0.0
 40
0.0
 40
0.0
 40
0.0
 40
0.5841917497409208
 40
0.9999999999999999
 40
0.9999999999999999
 40
0.9999999999999999
 40
0.9999999999999999
 10
692.8757176527449
 20
415.8984161688971
 30
0.0
 10
692.4880613872945
 20
415.6091402653974
 30
0.0
 10
691.8244842901812
 20
415.1139673985639
 30
0.0
 10
691.3984439417727
 20
414.4504829459527
 30
0.0
 10
691.2212928499613
 20
414.1746006366383
 30
0.0
  0
ARC
  5
282
330
1F
100
AcDbEntity
  8
0
  6
Continuous
 62
     7
370
    25
100
AcDbCircle
 10
702.3477034979
 20
400.9461091847
 30
0.0
 40
17.70000000000007
100
AcDbArc
 50
117.6465635726
 51
122.3534364274
  0
SPLINE
  5
283
330
1F
100
AcDbEntity
  8
0
  6
Continuous
 62
     7
370
    25
100
AcDbSpline
210
0.0
220
0.0
230
1.0
 70
     8
 71
     3
 72
     9
 73
     5
 74
     0
 42
0.00000001
 43
0.00000001
 40
0.0
 40
0.0
 40
0.0
 40
0.0
 40
0.5850553834536196
 40
1.0
 40
1.0
 40
1.0
 40
1.0
 10
696.454699170709
 20
417.1961091847006
 30
0.0
 10
695.9900525999217
 20
417.164410767662
 30
0.0
 10
695.1958601457911
 20
417.1102305687695
 30
0.0
 10
694.4458368541102
 20
416.7674697849695
 30
0.0
 10
694.1346187269428
 20
416.6252430429684
 30
0.0
  0
SPLINE
  5
284
330
1F
100
AcDbEntity
  8
0
  6
Continuous
 62
     7
370
    25
100
AcDbSpline
210
0.0
220
0.0
230
1.0
 70
    24
 71
     3
 72
    11
 73
     7
 74
     0
 42
0.00000001
 43
0.00000001
 40
0.0
 40
0.0
 40
0.0
 40
0.0
 40
0.2328716322111493
 40
0.4710265024313249
 40
0.7311421212560302
 40
1.0
 40
1.0
 40
1.0
 40
1.0
 10
708.2407078250415
 20
417.1961091847006
 30
0.0
 10
707.346851394721
 20
417.1961091847006
 30
0.0
 10
705.5388593089018
 20
417.1961091847007
 30
0.0
 10
702.6111865683389
 20
417.1961091847005
 30
0.0
 10
699.5240876578608
 20
417.1961091847007
 30
0.0
 10
697.4890396368746
 20
417.1961091847007
 30
0.0
 10
696.454699170709
 20
417.1961091847006
 30
0.0
  0
SPLINE
  5
285
330
1F
100
AcDbEntity
  8
0
  6
Continuous
 62
     7
370
    25
100
AcDbSpline
210
0.0
220
0.0
230
1.0
 70
     8
 71
     3
 72
     9
 73
     5
 74
     0
 42
0.00000001
 43
0.00000001
 40
0.0
 40
0.0
 40
0.0
 40
0.0
 40
0.5841917497409178
 40
1.0
 40
1.0
 40
1.0
 40
1.0
 10
710.5607882688078
 20
416.6252430429684
 30
0.0
 10
710.116439854949
 20
416.8163252650349
 30
0.0
 10
709.3558190244498
 20
417.1434134550877
 30
0.0
 10
708.5682044592683
 20
417.1806329935409
 30
0.0
 10
708.2407078250415
 20
417.1961091847006
 30
0.0
  0
ARC
  5
286
330
1F
100
AcDbEntity
  8
0
  6
Continuous
 62
     7
370
    25
100
AcDbCircle
 10
702.3477034979
 20
400.9461091847
 30
0.0
 40
17.70000000000007
100
AcDbArc
 50
57.6465635726
 51
62.3534364274
  0
SPLINE
  5
287
330
1F
100
AcDbEntity
  8
0
  6
Continuous
 62
     7
370
    25
100
AcDbSpline
210
0.0
220
0.0
230
1.0
 70
     8
 71
     3
 72
     9
 73
     5
 74
     0
 42
0.00000001
 43
0.00000001
 40
0.0
 40
0.0
 40
0.0
 40
0.0
 40
0.5850553834536177
 40
1.0
 40
1.0
 40
1.0
 40
1.0
 10
713.4741141457893
 20
414.1746006366383
 30
0.0
 10
713.2143392259804
 20
414.5611471622021
 30
0.0
 10
712.770321570292
 20
415.2218479035268
 30
0.0
 10
712.0984703782597
 20
415.7000067356525
 30
0.0
 10
711.8196893430055
 20
415.8984161688971
 30
0.0
  0
LINE
  5
288
330
1F
100
AcDbEntity
  8
0
  6
Continuous
 62
     7
370
    25
100
AcDbLine
 10
714.7869992104
 20
411.9006170003
 30
0.0
 11
713.4741141458
 21
414.1746006366
 31
0.0
  0
SPLINE
  5
289
330
1F
100
AcDbEntity
  8
0
  6
Continuous
 62
     7
370
    25
100
AcDbSpline
210
0.0
220
0.0
230
1.0
 70
    24
 71
     3
 72
     9
 73
     5
 74
     0
 42
0.00000001
 43
0.00000001
 40
0.0
 40
0.0
 40
0.0
 40
0.0
 40
0.7616972318261115
 40
1.0
 40
1.0
 40
1.0
 40
1.0
 10
713.4741141457893
 20
387.717617732763
 30
0.0
 10
713.9191806881921
 20
388.4884955969541
 30
0.0
 10
714.503489681066
 20
389.5005484599307
 30
0.0
 10
715.1138791338367
 20
390.5577740045339
 30
0.0
 10
715.2593366300962
 20
390.809713778397
 30
0.0
  0
SPLINE
  5
28A
330
1F
100
AcDbEntity
  8
0
  6
Continuous
 62
     7
370
    25
100
AcDbSpline
210
0.0
220
0.0
230
1.0
 70
     8
 71
     3
 72
     9
 73
     5
 74
     0
 42
0.00000001
 43
0.00000001
 40
0.0
 40
0.0
 40
0.0
 40
0.0
 40
0.5841917497409295
 40
1.0
 40
1.0
 40
1.0
 40
1.0
 10
711.8196893430055
 20
385.9938022005041
 30
0.0
 10
712.2073456084561
 20
386.2830781040039
 30
0.0
 10
712.8709227055695
 20
386.7782509708375
 30
0.0
 10
713.2969630539777
 20
387.4417354234487
 30
0.0
 10
713.4741141457893
 20
387.717617732763
 30
0.0
  0
ARC
  5
28B
330
1F
100
AcDbEntity
  8
0
  6
Continuous
 62
     7
370
    25
100
AcDbCircle
 10
702.3477034979
 20
400.9461091847
 30
0.0
 40
17.69999999999997
100
AcDbArc
 50
297.6465635726
 51
302.3534364274
  0
SPLINE
  5
28C
330
1F
100
AcDbEntity
  8
0
  6
Continuous
 62
     7
370
    25
100
AcDbSpline
210
0.0
220
0.0
230
1.0
 70
     8
 71
     3
 72
     9
 73
     5
 74
     0
 42
0.00000001
 43
0.00000001
 40
0.0
 40
0.0
 40
0.0
 40
0.0
 40
0.5850553834536231
 40
1.0
 40
1.0
 40
1.0
 40
1.0
 10
708.2407078250415
 20
384.6961091847007
 30
0.0
 10
708.7053543958289
 20
384.7278076017394
 30
0.0
 10
709.4995468499594
 20
384.7819878006319
 30
0.0
 10
710.2495701416402
 20
385.1247485844319
 30
0.0
 10
710.5607882688078
 20
385.2669753264329
 30
0.0
  0
SPLINE
  5
28D
330
1F
100
AcDbEntity
  8
0
  6
Continuous
 62
     7
370
    25
100
AcDbSpline
210
0.0
220
0.0
230
1.0
 70
    24
 71
     3
 72
    11
 73
     7
 74
     0
 42
0.00000001
 43
0.00000001
 40
0.0
 40
0.0
 40
0.0
 40
0.0
 40
0.2328716322111482
 40
0.471026502431325
 40
0.7311421212560316
 40
0.9999999999999999
 40
0.9999999999999999
 40
0.9999999999999999
 40
0.9999999999999999
 10
696.454699170709
 20
384.6961091847007
 30
0.0
 10
697.3485556010295
 20
384.6961091847007
 30
0.0
 10
699.1565476868487
 20
384.6961091847007
 30
0.0
 10
702.0842204274118
 20
384.6961091847006
 30
0.0
 10
705.1713193378897
 20
384.6961091847008
 30
0.0
 10
707.2063673588758
 20
384.6961091847008
 30
0.0
 10
708.2407078250415
 20
384.6961091847007
 30
0.0
  0
SPLINE
  5
28E
330
1F
100
AcDbEntity
  8
0
  6
Continuous
 62
     7
370
    25
100
AcDbSpline
210
0.0
220
0.0
230
1.0
 70
     8
 71
     3
 72
     9
 73
     5
 74
     0
 42
0.00000001
 43
0.00000001
 40
0.0
 40
0.0
 40
0.0
 40
0.0
 40
0.584191749740927
 40
1.0
 40
1.0
 40
1.0
 40
1.0
 10
694.1346187269428
 20
385.2669753264328
 30
0.0
 10
694.5789671408016
 20
385.0758931043664
 30
0.0
 10
695.3395879713008
 20
384.7488049143136
 30
0.0
 10
696.1272025364824
 20
384.7115853758604
 30
0.0
 10
696.454699170709
 20
384.6961091847007
 30
0.0
  0
ARC
  5
28F
330
1F
100
AcDbEntity
  8
0
  6
Continuous
 62
     7
370
    25
100
AcDbCircle
 10
702.3477034979
 20
400.9461091847
 30
0.0
 40
17.70000000000001
100
AcDbArc
 50
237.6465635726
 51
242.3534364274
  0
ARC
  5
290
330
1F
100
AcDbEntity
  8
0
  6
Continuous
 62
     7
370
    25
100
AcDbCircle
 10
499.1477034979
 20
400.9461091847
 30
0.0
 40
10.57500000000001
100
AcDbArc
 50
261.6509017607
 51
30.0
  0
ARC
  5
291
330
1F
100
AcDbEntity
  8
0
  6
Continuous
 62
     7
370
    25
100
AcDbCircle
 10
499.1477034979
 20
400.9461091847
 30
0.0
 40
10.57500000000004
100
AcDbArc
 50
30.0
 51
98.3490982393
  0
ARC
  5
292
330
1F
100
AcDbEntity
  8
0
  6
Continuous
 62
     7
370
    25
100
AcDbCircle
 10
499.1477034979
 20
400.9461091847
 30
0.0
 40
14.87500000000004
100
AcDbArc
 50
233.3837470408
 51
30.0
  0
ARC
  5
293
330
1F
100
AcDbEntity
  8
0
  6
Continuous
 62
     7
370
    25
100
AcDbCircle
 10
499.1477034979
 20
400.9461091847
 30
0.0
 40
14.87500000000004
100
AcDbArc
 50
30.0
 51
126.6162529591
  0
SPLINE
  5
294
330
1F
100
AcDbEntity
  8
0
  6
Continuous
 62
     7
370
    25
100
AcDbSpline
210
0.0
220
0.0
230
1.0
 70
     8
 71
     3
 72
     9
 73
     5
 74
     0
 42
0.00000001
 43
0.00000001
 40
0.0
 40
0.0
 40
0.0
 40
0.0
 40
0.5850553834534175
 40
0.9999999999999999
 40
0.9999999999999999
 40
0.9999999999999999
 40
0.9999999999999999
 10
488.0212928499604
 20
387.7176177327645
 30
0.0
 10
488.2810677697693
 20
387.3310712072005
 30
0.0
 10
488.7250854254576
 20
386.6703704658753
 30
0.0
 10
489.3969366174904
 20
386.1922116337491
 30
0.0
 10
489.6757176527449
 20
385.9938022005041
 30
0.0
  0
LINE
  5
295
330
1F
100
AcDbEntity
  8
0
  6
Continuous
 62
     7
370
    25
100
AcDbLine
 10
486.5176531502
 20
390.3219980891
 30
0.0
 11
488.02129285
 21
387.7176177328
 31
0.0
  0
SPLINE
  5
296
330
1F
100
AcDbEntity
  8
0
  6
Continuous
 62
     7
370
    25
100
AcDbSpline
210
0.0
220
0.0
230
1.0
 70
    24
 71
     3
 72
     9
 73
     5
 74
     0
 42
0.00000001
 43
0.00000001
 40
0.0
 40
0.0
 40
0.0
 40
0.0
 40
0.9367750552960538
 40
1.0
 40
1.0
 40
1.0
 40
1.0
 10
488.0212928499612
 20
414.1746006366383
 30
0.0
 10
487.577385638713
 20
413.4057307929102
 30
0.0
 10
487.103518183833
 20
412.5849682850048
 30
0.0
 10
486.6084445557143
 20
411.7274756076156
 30
0.0
 10
486.5771435529521
 20
411.6732606805036
 30
0.0
  0
SPLINE
  5
297
330
1F
100
AcDbEntity
  8
0
  6
Continuous
 62
     7
370
    25
100
AcDbSpline
210
0.0
220
0.0
230
1.0
 70
     8
 71
     3
 72
     9
 73
     5
 74
     0
 42
0.00000001
 43
0.00000001
 40
0.0
 40
0.0
 40
0.0
 40
0.0
 40
0.5841917497409205
 40
1.0
 40
1.0
 40
1.0
 40
1.0
 10
489.6757176527449
 20
415.8984161688971
 30
0.0
 10
489.2880613872943
 20
415.6091402653974
 30
0.0
 10
488.6244842901811
 20
415.1139673985639
 30
0.0
 10
488.1984439417727
 20
414.4504829459527
 30
0.0
 10
488.0212928499612
 20
414.1746006366383
 30
0.0
  0
ARC
  5
298
330
1F
100
AcDbEntity
  8
0
  6
Continuous
 62
     7
370
    25
100
AcDbCircle
 10
499.1477034979
 20
400.9461091847
 30
0.0
 40
17.70000000000004
100
AcDbArc
 50
117.6465635726
 51
122.3534364274
  0
SPLINE
  5
299
330
1F
100
AcDbEntity
  8
0
  6
Continuous
 62
     7
370
    25
100
AcDbSpline
210
0.0
220
0.0
230
1.0
 70
     8
 71
     3
 72
     9
 73
     5
 74
     0
 42
0.00000001
 43
0.00000001
 40
0.0
 40
0.0
 40
0.0
 40
0.0
 40
0.5850553834536191
 40
1.0
 40
1.0
 40
1.0
 40
1.0
 10
493.254699170709
 20
417.1961091847006
 30
0.0
 10
492.7900525999216
 20
417.164410767662
 30
0.0
 10
491.9958601457911
 20
417.1102305687694
 30
0.0
 10
491.2458368541102
 20
416.7674697849695
 30
0.0
 10
490.9346187269427
 20
416.6252430429684
 30
0.0
  0
SPLINE
  5
29A
330
1F
100
AcDbEntity
  8
0
  6
Continuous
 62
     7
370
    25
100
AcDbSpline
210
0.0
220
0.0
230
1.0
 70
    24
 71
     3
 72
    11
 73
     7
 74
     0
 42
0.00000001
 43
0.00000001
 40
0.0
 40
0.0
 40
0.0
 40
0.0
 40
0.2328716322111488
 40
0.4710265024313254
 40
0.7311421212560307
 40
1.0
 40
1.0
 40
1.0
 40
1.0
 10
505.0407078250414
 20
417.1961091847006
 30
0.0
 10
504.1468513947211
 20
417.1961091847007
 30
0.0
 10
502.3388593089016
 20
417.1961091847006
 30
0.0
 10
499.4111865683387
 20
417.1961091847006
 30
0.0
 10
496.3240876578607
 20
417.1961091847006
 30
0.0
 10
494.2890396368746
 20
417.1961091847006
 30
0.0
 10
493.254699170709
 20
417.1961091847006
 30
0.0
  0
SPLINE
  5
29B
330
1F
100
AcDbEntity
  8
0
  6
Continuous
 62
     7
370
    25
100
AcDbSpline
210
0.0
220
0.0
230
1.0
 70
     8
 71
     3
 72
     9
 73
     5
 74
     0
 42
0.00000001
 43
0.00000001
 40
0.0
 40
0.0
 40
0.0
 40
0.0
 40
0.5841917497409229
 40
1.0
 40
1.0
 40
1.0
 40
1.0
 10
507.3607882688077
 20
416.6252430429684
 30
0.0
 10
506.9164398549489
 20
416.8163252650349
 30
0.0
 10
506.1558190244497
 20
417.1434134550877
 30
0.0
 10
505.3682044592682
 20
417.1806329935409
 30
0.0
 10
505.0407078250414
 20
417.1961091847006
 30
0.0
  0
ARC
  5
29C
330
1F
100
AcDbEntity
  8
0
  6
Continuous
 62
     7
370
    25
100
AcDbCircle
 10
499.1477034979
 20
400.9461091847
 30
0.0
 40
17.7000000000001
100
AcDbArc
 50
57.6465635726
 51
62.3534364274
  0
SPLINE
  5
29D
330
1F
100
AcDbEntity
  8
0
  6
Continuous
 62
     7
370
    25
100
AcDbSpline
210
0.0
220
0.0
230
1.0
 70
     8
 71
     3
 72
     9
 73
     5
 74
     0
 42
0.00000001
 43
0.00000001
 40
0.0
 40
0.0
 40
0.0
 40
0.0
 40
0.5850553834536217
 40
1.0
 40
1.0
 40
1.0
 40
1.0
 10
510.2741141457892
 20
414.1746006366383
 30
0.0
 10
510.0143392259804
 20
414.5611471622021
 30
0.0
 10
509.570321570292
 20
415.2218479035268
 30
0.0
 10
508.8984703782596
 20
415.7000067356525
 30
0.0
 10
508.6196893430055
 20
415.8984161688971
 30
0.0
  0
SPLINE
  5
29E
330
1F
100
AcDbEntity
  8
0
  6
Continuous
 62
     7
370
    25
100
AcDbSpline
210
0.0
220
0.0
230
1.0
 70
    24
 71
     3
 72
    11
 73
     7
 74
     0
 42
0.00000001
 43
0.00000001
 40
0.0
 40
0.0
 40
0.0
 40
0.0
 40
0.255627964438096
 40
0.5185037642963883
 40
0.7560467972580094
 40
0.9999999999999999
 40
0.9999999999999999
 40
0.9999999999999999
 40
0.9999999999999999
 10
516.1671184729555
 20
403.9676177327631
 30
0.0
 10
515.6758253946873
 20
404.8185623057306
 30
0.0
 10
514.6793095752432
 20
406.5445783355537
 30
0.0
 10
513.1590986687901
 20
409.1776608637509
 30
0.0
 10
511.6673829472419
 20
411.7613882839216
 30
0.0
 10
510.7426407837355
 20
413.363088695016
 30
0.0
 10
510.2741141457892
 20
414.1746006366383
 30
0.0
  0
SPLINE
  5
29F
330
1F
100
AcDbEntity
  8
0
  6
Continuous
 62
     7
370
    25
100
AcDbSpline
210
0.0
220
0.0
230
1.0
 70
     8
 71
     3
 72
     9
 73
     5
 74
     0
 42
0.00000001
 43
0.00000001
 40
0.0
 40
0.0
 40
0.0
 40
0.0
 40
0.5841917497409236
 40
1.0
 40
1.0
 40
1.0
 40
1.0
 10
516.8327741139381
 20
401.6729360587719
 30
0.0
 10
516.7760819655298
 20
402.1532941843381
 30
0.0
 10
516.6790382321437
 20
402.9755552412244
 30
0.0
 10
516.3174640153707
 20
403.676259232289
 30
0.0
 10
516.1671184729555
 20
403.9676177327631
 30
0.0
  0
ARC
  5
2A0
330
1F
100
AcDbEntity
  8
0
  6
Continuous
 62
     7
370
    25
100
AcDbCircle
 10
499.1477034979
 20
400.9461091847
 30
0.0
 40
17.70000000000009
100
AcDbArc
 50
357.6465635726
 51
2.3534364274
  0
SPLINE
  5
2A1
330
1F
100
AcDbEntity
  8
0
  6
Continuous
 62
     7
370
    25
100
AcDbSpline
210
0.0
220
0.0
230
1.0
 70
     8
 71
     3
 72
     9
 73
     5
 74
     0
 42
0.00000001
 43
0.00000001
 40
0.0
 40
0.0
 40
0.0
 40
0.0
 40
0.585055383453611
 40
1.0
 40
1.0
 40
1.0
 40
1.0
 10
516.1671184729555
 20
397.9246006366383
 30
0.0
 10
516.3719901239339
 20
398.3428455792407
 30
0.0
 10
516.7221649223761
 20
399.0577265194579
 30
0.0
 10
516.8003370220247
 20
399.8786461353837
 30
0.0
 10
516.8327741139381
 20
400.2192823106294
 30
0.0
  0
SPLINE
  5
2A2
330
1F
100
AcDbEntity
  8
0
  6
Continuous
 62
     7
370
    25
100
AcDbSpline
210
0.0
220
0.0
230
1.0
 70
    24
 71
     3
 72
    11
 73
     7
 74
     0
 42
0.00000001
 43
0.00000001
 40
0.0
 40
0.0
 40
0.0
 40
0.0
 40
0.2328716322111496
 40
0.4710265024313248
 40
0.7311421212560304
 40
1.0
 40
1.0
 40
1.0
 40
1.0
 10
510.2741141457892
 20
387.717617732763
 30
0.0
 10
510.7210423609494
 20
388.4917201087566
 30
0.0
 10
511.6250384038591
 20
390.0574871849173
 30
0.0
 10
513.0888747741405
 20
392.5929261522122
 30
0.0
 10
514.6324242293796
 20
395.2664322326813
 30
0.0
 10
515.6499482398726
 20
397.0288355167765
 30
0.0
 10
516.1671184729555
 20
397.9246006366383
 30
0.0
  0
SPLINE
  5
2A3
330
1F
100
AcDbEntity
  8
0
  6
Continuous
 62
     7
370
    25
100
AcDbSpline
210
0.0
220
0.0
230
1.0
 70
     8
 71
     3
 72
     9
 73
     5
 74
     0
 42
0.00000001
 43
0.00000001
 40
0.0
 40
0.0
 40
0.0
 40
0.0
 40
0.58419174974093
 40
1.0
 40
1.0
 40
1.0
 40
1.0
 10
508.6196893430055
 20
385.9938022005041
 30
0.0
 10
509.007345608456
 20
386.2830781040038
 30
0.0
 10
509.6709227055692
 20
386.7782509708375
 30
0.0
 10
510.0969630539778
 20
387.4417354234487
 30
0.0
 10
510.2741141457892
 20
387.717617732763
 30
0.0
  0
ARC
  5
2A4
330
1F
100
AcDbEntity
  8
0
  6
Continuous
 62
     7
370
    25
100
AcDbCircle
 10
499.1477034979
 20
400.9461091847
 30
0.0
 40
17.70000000000001
100
AcDbArc
 50
297.6465635726
 51
302.3534364274
  0
SPLINE
  5
2A5
330
1F
100
AcDbEntity
  8
0
  6
Continuous
 62
     7
370
    25
100
AcDbSpline
210
0.0
220
0.0
230
1.0
 70
     8
 71
     3
 72
     9
 73
     5
 74
     0
 42
0.00000001
 43
0.00000001
 40
0.0
 40
0.0
 40
0.0
 40
0.0
 40
0.5850553834536231
 40
1.0
 40
1.0
 40
1.0
 40
1.0
 10
505.0407078250414
 20
384.6961091847007
 30
0.0
 10
505.5053543958288
 20
384.7278076017394
 30
0.0
 10
506.2995468499593
 20
384.7819878006319
 30
0.0
 10
507.0495701416402
 20
385.1247485844319
 30
0.0
 10
507.3607882688077
 20
385.2669753264329
 30
0.0
  0
SPLINE
  5
2A6
330
1F
100
AcDbEntity
  8
0
  6
Continuous
 62
     7
370
    25
100
AcDbSpline
210
0.0
220
0.0
230
1.0
 70
    24
 71
     3
 72
    11
 73
     7
 74
     0
 42
0.00000001
 43
0.00000001
 40
0.0
 40
0.0
 40
0.0
 40
0.0
 40
0.232871632211149
 40
0.4710265024313263
 40
0.7311421212560313
 40
1.0
 40
1.0
 40
1.0
 40
1.0
 10
493.254699170709
 20
384.6961091847007
 30
0.0
 10
494.1485556010294
 20
384.6961091847007
 30
0.0
 10
495.9565476868487
 20
384.6961091847007
 30
0.0
 10
498.8842204274117
 20
384.6961091847008
 30
0.0
 10
501.9713193378896
 20
384.6961091847007
 30
0.0
 10
504.0063673588758
 20
384.6961091847007
 30
0.0
 10
505.0407078250414
 20
384.6961091847007
 30
0.0
  0
SPLINE
  5
2A7
330
1F
100
AcDbEntity
  8
0
  6
Continuous
 62
     7
370
    25
100
AcDbSpline
210
0.0
220
0.0
230
1.0
 70
     8
 71
     3
 72
     9
 73
     5
 74
     0
 42
0.00000001
 43
0.00000001
 40
0.0
 40
0.0
 40
0.0
 40
0.0
 40
0.584191749740924
 40
1.0
 40
1.0
 40
1.0
 40
1.0
 10
490.9346187269427
 20
385.2669753264329
 30
0.0
 10
491.3789671408015
 20
385.0758931043664
 30
0.0
 10
492.1395879713007
 20
384.7488049143136
 30
0.0
 10
492.9272025364822
 20
384.7115853758604
 30
0.0
 10
493.254699170709
 20
384.6961091847007
 30
0.0
  0
ARC
  5
2A8
330
1F
100
AcDbEntity
  8
0
  6
Continuous
 62
     7
370
    25
100
AcDbCircle
 10
499.1477034979
 20
400.9461091847
 30
0.0
 40
17.69999999999997
100
AcDbArc
 50
237.6465635726
 51
242.3534364274
  0
ARC
  5
2A9
330
1F
100
AcDbEntity
  8
0
  6
Continuous
 62
     7
370
    25
100
AcDbCircle
 10
499.1477034979
 20
400.9461091847
 30
0.0
 40
16.19999999999996
100
AcDbArc
 50
223.9250761739
 51
136.0749238308
  0
ARC
  5
2AA
330
1F
100
AcDbEntity
  8
0
  6
Continuous
 62
     7
370
    25
100
AcDbCircle
 10
702.3477034979
 20
400.9461091847
 30
0.0
 40
17.60000000000019
100
AcDbArc
 50
152.0468131166
 51
172.4512521513
  0
ARC
  5
2AB
330
1F
100
AcDbEntity
  8
0
  6
Continuous
 62
     7
370
    25
100
AcDbCircle
 10
702.3477034979
 20
400.9461091847
 30
0.0
 40
17.60000000000022
100
AcDbArc
 50
187.8252464759
 51
207.9531868834
  0
ARC
  5
2AC
330
1F
100
AcDbEntity
  8
0
  6
Continuous
 62
     7
370
    25
100
AcDbCircle
 10
702.3477034979
 20
400.9461091847
 30
0.0
 40
17.60000000000011
100
AcDbArc
 50
207.9531868834
 51
232.0011381912
  0
ARC
  5
2AD
330
1F
100
AcDbEntity
  8
0
  6
Continuous
 62
     7
370
    25
100
AcDbCircle
 10
702.3477034979
 20
400.9461091847
 30
0.0
 40
17.60000000000005
100
AcDbArc
 50
248.3010788874
 51
292.3944814365
  0
ARC
  5
2AE
330
1F
100
AcDbEntity
  8
0
  6
Continuous
 62
     7
370
    25
100
AcDbCircle
 10
702.3477034979
 20
400.9461091847
 30
0.0
 40
17.60000000000008
100
AcDbArc
 50
307.913926416
 51
329.9140919689
  0
ARC
  5
2AF
330
1F
100
AcDbEntity
  8
0
  6
Continuous
 62
     7
370
    25
100
AcDbCircle
 10
702.3477034979
 20
400.9461091847
 30
0.0
 40
17.60000000000013
100
AcDbArc
 50
33.0957362985
 51
53.125361492
  0
ARC
  5
2B0
330
1F
100
AcDbEntity
  8
0
  6
Continuous
 62
     7
370
    25
100
AcDbCircle
 10
702.3477034979
 20
400.9461091847
 30
0.0
 40
17.60000000000014
100
AcDbArc
 50
67.7003576699
 51
112.0249688962
  0
ARC
  5
2B1
330
1F
100
AcDbEntity
  8
0
  6
Continuous
 62
     7
370
    25
100
AcDbCircle
 10
702.3477034979
 20
400.9461091847
 30
0.0
 40
17.60000000000019
100
AcDbArc
 50
128.2595368669
 51
152.0468131166
  0
ARC
  5
2B2
330
1F
100
AcDbEntity
  8
0
  6
Continuous
 62
     7
370
    25
100
AcDbCircle
 10
499.1477034979
 20
400.9461091847
 30
0.0
 40
17.60000000000017
100
AcDbArc
 50
7.8507054857
 51
27.9531868834
  0
ARC
  5
2B3
330
1F
100
AcDbEntity
  8
0
  6
Continuous
 62
     7
370
    25
100
AcDbCircle
 10
499.1477034979
 20
400.9461091847
 30
0.0
 40
17.60000000000014
100
AcDbArc
 50
332.0468131166
 51
352.7228171815
  0
ARC
  5
2B4
330
1F
100
AcDbEntity
  8
0
  6
Continuous
 62
     7
370
    25
100
AcDbCircle
 10
499.1477034979
 20
400.9461091847
 30
0.0
 40
17.60000000000007
100
AcDbArc
 50
308.3088271168
 51
332.0468131166
  0
ARC
  5
2B5
330
1F
100
AcDbEntity
  8
0
  6
Continuous
 62
     7
370
    25
100
AcDbCircle
 10
499.1477034979
 20
400.9461091847
 30
0.0
 40
17.6000000000001
100
AcDbArc
 50
247.9048275441
 51
292.0035387813
  0
ARC
  5
2B6
330
1F
100
AcDbEntity
  8
0
  6
Continuous
 62
     7
370
    25
100
AcDbCircle
 10
499.1477034979
 20
400.9461091847
 30
0.0
 40
17.60000000000007
100
AcDbArc
 50
211.5427743269
 51
232.5973286274
  0
ARC
  5
2B7
330
1F
100
AcDbEntity
  8
0
  6
Continuous
 62
     7
370
    25
100
AcDbCircle
 10
499.1477034979
 20
400.9461091847
 30
0.0
 40
17.60000000000013
100
AcDbArc
 50
127.542244048
 51
148.4572256731
  0
ARC
  5
2B8
330
1F
100
AcDbEntity
  8
0
  6
Continuous
 62
     7
370
    25
100
AcDbCircle
 10
499.1477034979
 20
400.9461091847
 30
0.0
 40
17.60000000000023
100
AcDbArc
 50
68.3044571932
 51
112.6096881106
  0
ARC
  5
2B9
330
1F
100
AcDbEntity
  8
0
  6
Continuous
 62
     7
370
    25
100
AcDbCircle
 10
499.1477034979
 20
400.9461091847
 30
0.0
 40
17.60000000000015
100
AcDbArc
 50
27.9531868834
 51
52.0359670752
  0
SPLINE
  5
2BA
330
1F
100
AcDbEntity
  8
0
  6
Continuous
 62
     7
370
    25
100
AcDbSpline
210
0.0
220
0.0
230
1.0
 70
     8
 71
     3
 72
     9
 73
     5
 74
     0
 42
0.00000001
 43
0.00000001
 40
0.0
 40
0.0
 40
0.0
 40
0.0
 40
0.4103593682694726
 40
1.0
 40
1.0
 40
1.0
 40
1.0
 10
690.5174196897099
 20
413.9679992990725
 30
0.0
 10
690.6039721997786
 20
414.0492527527123
 30
0.0
 10
690.8148910108531
 20
414.2472583544422
 30
0.0
 10
690.913756909154
 20
414.3256749343971
 30
0.0
 10
690.9720522598847
 20
414.3719125361399
 30
0.0
  0
LWPOLYLINE
  5
2BB
330
1F
100
AcDbEntity
  8
0
  6
Continuous
 62
     7
370
    25
100
AcDbPolyline
 90
        9
 70
   128
 43
0.0
 10
679.7344330577
 20
408.1461091847
 10
680.9128148062
 20
407.8077580494
 10
682.060826171
 20
407.6018374238
 10
683.1488795031
 20
407.5336544914
 10
684.1489324493
 20
407.6049665281
 10
685.0352106867
 20
407.8139356119
 10
685.7848722033
 20
408.1551759911
 10
686.3785960041
 20
408.6198928918
 10
686.8010800703
 20
409.1961091847
  0
LWPOLYLINE
  5
2BC
330
1F
100
AcDbEntity
  8
0
  6
Continuous
 62
     7
370
    25
100
AcDbPolyline
 90
        9
 70
   128
 43
0.0
 10
521.760973938
 20
408.1461091847
 10
520.5825921896
 20
407.8077580495
 10
519.4345808248
 20
407.6018374238
 10
518.3465274927
 20
407.5336544914
 10
517.3464745465
 20
407.6049665281
 10
516.460196309
 20
407.8139356119
 10
515.7105347924
 20
408.1551759911
 10
515.1168109916
 20
408.6198928919
 10
514.6943269255
 20
409.1961091847
  0
LWPOLYLINE
  5
2BD
330
1F
100
AcDbEntity
  8
0
  6
Continuous
 62
     7
370
    25
100
AcDbPolyline
 90
        9
 70
   128
 43
0.0
 10
686.8010800703
 20
392.6961091847
 10
686.3785960041
 20
393.2723254776
 10
685.7848722033
 20
393.7370423783
 10
685.0352106867
 20
394.0782827575
 10
684.1489324493
 20
394.2872518413
 10
683.1488795031
 20
394.358563878
 10
682.060826171
 20
394.2903809456
 10
680.9128148062
 20
394.08446032
 10
679.7344330577
 20
393.7461091847
  0
SPLINE
  5
2BE
330
1F
100
AcDbEntity
  8
0
  6
Continuous
 62
     7
370
    25
100
AcDbSpline
210
0.0
220
0.0
230
1.0
 70
     8
 71
     3
 72
    14
 73
    10
 74
     0
 42
0.00000001
 43
0.00000001
 40
0.0
 40
0.0
 40
0.0
 40
0.0
 40
0.1355132322095884
 40
0.3254540041339509
 40
0.3819253889718436
 40
0.606466330933976
 40
0.7988595849078755
 40
0.9657148485118526
 40
1.0
 40
1.0
 40
1.0
 40
1.0
 10
679.734433057711
 20
393.7461091847006
 30
0.0
 10
679.3550692603335
 20
394.262823128481
 30
0.0
 10
678.4439739756383
 20
395.5037840239831
 30
0.0
 10
678.0292077463946
 20
397.453310740964
 30
0.0
 10
677.7952966170033
 20
399.9200861414034
 30
0.0
 10
677.7865213066756
 20
402.5187862149385
 30
0.0
 10
678.1878663218135
 20
405.5596801830841
 30
0.0
 10
679.0231102689286
 20
407.3023467778552
 30
0.0
 10
679.630842738594
 20
408.0232316129955
 30
0.0
 10
679.734433057711
 20
408.1461091847006
 30
0.0
  0
SPLINE
  5
2BF
330
1F
100
AcDbEntity
  8
0
  6
Continuous
 62
     7
370
    25
100
AcDbSpline
210
0.0
220
0.0
230
1.0
 70
     8
 71
     3
 72
    10
 73
     6
 74
     0
 42
0.00000001
 43
0.00000001
 40
0.0
 40
0.0
 40
0.0
 40
0.0
 40
0.3673386190014658
 40
0.8572913846486232
 40
1.0
 40
1.0
 40
1.0
 40
1.0
 10
691.0260176910632
 20
387.47356415193
 30
0.0
 10
690.9150925118287
 20
387.5683856908253
 30
0.0
 10
690.6562163807081
 20
387.789679298873
 30
0.0
 10
690.188518072302
 20
388.1926128851497
 30
0.0
 10
689.8222886819879
 20
388.5938004641233
 30
0.0
 10
689.7396787886668
 20
388.6842958311727
 30
0.0
  0
LWPOLYLINE
  5
2C0
330
1F
100
AcDbEntity
  8
0
  6
Continuous
 62
     7
370
    25
100
AcDbPolyline
 90
        9
 70
   128
 43
0.0
 10
514.6943269255
 20
392.6961091847
 10
515.1168109917
 20
393.2723254776
 10
515.7105347924
 20
393.7370423783
 10
516.460196309
 20
394.0782827575
 10
517.3464745465
 20
394.2872518413
 10
518.3465274927
 20
394.358563878
 10
519.4345808248
 20
394.2903809456
 10
520.5825921896
 20
394.08446032
 10
521.760973938
 20
393.7461091847
  0
SPLINE
  5
2C1
330
1F
100
AcDbEntity
  8
0
  6
Continuous
 62
     7
370
    25
100
AcDbSpline
210
0.0
220
0.0
230
1.0
 70
     8
 71
     3
 72
    14
 73
    10
 74
     0
 42
0.00000001
 43
0.00000001
 40
0.0
 40
0.0
 40
0.0
 40
0.0
 40
0.1553498406080118
 40
0.2012108979656675
 40
0.3935326026306917
 40
0.6179900398498721
 40
0.799803276103949
 40
0.8645371639329277
 40
1.0
 40
1.0
 40
1.0
 40
1.0
 10
521.7609739380309
 20
408.1461091847104
 30
0.0
 10
522.1936510090534
 20
407.5485928217887
 30
0.0
 10
522.7540593213429
 20
406.7746827652214
 30
0.0
 10
523.3848381748
 20
404.9307204778002
 30
0.0
 10
523.7100332437191
 20
402.5159587324373
 30
0.0
 10
523.7035644445453
 20
399.2408182837028
 30
0.0
 10
523.3494414454714
 20
396.7971729022083
 30
0.0
 10
522.7073253690537
 20
395.0230687392252
 30
0.0
 10
522.1428949796311
 20
394.2614544435035
 30
0.0
 10
521.7609739380395
 20
393.7461091847006
 30
0.0
  0
ARC
  5
2C2
330
1F
100
AcDbEntity
  8
0
  6
Continuous
 62
     8
370
    25
100
AcDbCircle
 10
600.7477034979
 20
400.9461091847
 30
0.0
 40
11.05993649053894
100
AcDbArc
 50
247.9957718913
 51
43.6610347533
  0
ARC
  5
2C3
330
1F
100
AcDbEntity
  8
0
  6
Continuous
 62
     8
370
    25
100
AcDbCircle
 10
600.7477034979
 20
400.9461091847
 30
0.0
 40
11.05993649053898
100
AcDbArc
 50
136.4423449204
 51
247.9957718913
  0
ARC
  5
2C4
330
1F
100
AcDbEntity
  8
0
  6
Continuous
 62
     8
370
    25
100
AcDbCircle
 10
600.7477034979
 20
400.9461091847
 30
0.0
 40
11.309936490539
100
AcDbArc
 50
135.0935862936
 51
247.9957718913
  0
ARC
  5
2C5
330
1F
100
AcDbEntity
  8
0
  6
Continuous
 62
     8
370
    25
100
AcDbCircle
 10
600.7477034979
 20
400.9461091847
 30
0.0
 40
11.30993649053895
100
AcDbArc
 50
247.9957718913
 51
45.1267771939
  0
LINE
  5
2C6
330
1F
100
AcDbEntity
  8
0
  6
Continuous
 62
     8
370
    25
100
AcDbLine
 10
609.2113260107
 20
412.679722168
 30
0.0
 11
608.6477034979
 21
412.9809022733
 31
0.0
  0
SPLINE
  5
2C7
330
1F
100
AcDbEntity
  8
0
  6
Continuous
 62
     8
370
    25
100
AcDbSpline
210
0.0
220
0.0
230
1.0
 70
     8
 71
     3
 72
    10
 73
     6
 74
     0
 42
0.00000001
 43
0.00000001
 40
0.0
 40
0.0
 40
0.0
 40
0.0
 40
0.0742526680891255
 40
0.3864770308791452
 40
1.0
 40
1.0
 40
1.0
 40
1.0
 10
592.8477034978752
 20
412.8364153441144
 30
0.0
 10
592.7548520323783
 20
412.7725691915194
 30
0.0
 10
592.2715702915132
 20
412.4402569376573
 30
0.0
 10
591.0804046053239
 20
411.4960118901388
 30
0.0
 10
590.0571740642196
 20
410.5325121060694
 30
0.0
 10
589.3790457909491
 20
409.8939693548314
 30
0.0
  0
ARC
  5
2C8
330
1F
100
AcDbEntity
  8
0
  6
Continuous
 62
     8
370
    25
100
AcDbCircle
 10
600.7477034979
 20
400.9461091847
 30
0.0
 40
9.37499999999999
100
AcDbArc
 50
148.700242276
 51
31.6274761732
  0
ARC
  5
2C9
330
1F
100
AcDbEntity
  8
0
  6
Continuous
 62
     8
370
    25
100
AcDbCircle
 10
600.7398277058
 20
543.6725293003
 30
0.0
 40
7.892124895967792
100
AcDbArc
 50
89.9428227851
 51
179.9693529893
  0
ARC
  5
2CA
330
1F
100
AcDbEntity
  8
0
  6
Continuous
 62
     8
370
    25
100
AcDbCircle
 10
600.7555797372
 20
543.6725303436
 30
0.0
 40
7.892123853117031
100
AcDbArc
 50
0.0256717197
 51
90.0571804693
  0
ARC
  5
2CB
330
1F
100
AcDbEntity
  8
0
  6
Continuous
 62
     8
370
    25
100
AcDbCircle
 10
600.7312104577
 20
545.5195563763
 30
0.0
 40
9.814151224120447
100
AcDbArc
 50
89.9037123009
 51
216.0490421172
  0
ARC
  5
2CC
330
1F
100
AcDbEntity
  8
0
  6
Continuous
 62
     8
370
    25
100
AcDbCircle
 10
600.7642081523
 20
545.5195819196
 30
0.0
 40
9.814125700394463
100
AcDbArc
 50
323.6963958564
 51
90.0963557545
  0
ARC
  5
2CD
330
1F
100
AcDbEntity
  8
0
  6
Continuous
 62
     8
370
    25
100
AcDbCircle
 10
702.3477034979
 20
400.9461091847
 30
0.0
 40
24.79999999999994
100
AcDbArc
 50
270.0
 51
347.8246317288
  0
ARC
  5
2CE
330
1F
100
AcDbEntity
  8
0
  6
Continuous
 62
     8
370
    25
100
AcDbCircle
 10
702.3477034979
 20
400.9461091847
 30
0.0
 40
24.80000000000004
100
AcDbArc
 50
13.4258678218
 51
151.0614722598
  0
ARC
  5
2CF
330
1F
100
AcDbEntity
  8
0
  6
Continuous
 62
     8
370
    25
100
AcDbCircle
 10
702.3477034979
 20
400.9461091847
 30
0.0
 40
24.80000000000001
100
AcDbArc
 50
208.9385277402
 51
270.0
  0
ARC
  5
2D0
330
1F
100
AcDbEntity
  8
0
  6
Continuous
 62
     8
370
    25
100
AcDbCircle
 10
499.1477034979
 20
400.9461091847
 30
0.0
 40
24.80000000000007
100
AcDbArc
 50
90.0
 51
167.188940734
  0
ARC
  5
2D1
330
1F
100
AcDbEntity
  8
0
  6
Continuous
 62
     8
370
    25
100
AcDbCircle
 10
499.1477034979
 20
400.9461091847
 30
0.0
 40
24.80000000000006
100
AcDbArc
 50
192.8197948352
 51
331.0614722598
  0
ARC
  5
2D2
330
1F
100
AcDbEntity
  8
0
  6
Continuous
 62
     8
370
    25
100
AcDbCircle
 10
499.1477034979
 20
400.9461091847
 30
0.0
 40
24.80000000000009
100
AcDbArc
 50
28.9385277402
 51
90.0
  0
SPLINE
  5
2D3
330
1F
100
AcDbEntity
  8
0
  6
Continuous
 62
     8
370
    25
100
AcDbSpline
210
0.0
220
0.0
230
1.0
 70
     8
 71
     3
 72
    16
 73
    12
 74
     0
 42
0.00000001
 43
0.00000001
 40
0.0
 40
0.0
 40
0.0
 40
0.0
 40
0.0797251568382845
 40
0.1573886899567433
 40
0.2352512196651368
 40
0.2436960790113412
 40
0.3556743183460983
 40
0.4679558110717769
 40
0.6238310229257643
 40
0.7799332425928147
 40
1.0
 40
1.0
 40
1.0
 40
1.0
 10
578.96737152701
 20
400.9461091847006
 30
0.0
 10
579.0017956116723
 20
401.4766759193172
 30
0.0
 10
579.0697536038899
 20
402.5240893908933
 30
0.0
 10
579.5826412779645
 20
403.9889559085967
 30
0.0
 10
580.0820387243467
 20
404.9129168737369
 30
0.0
 10
580.7713998562169
 20
405.955852749072
 30
0.0
 10
581.7041460499631
 20
407.0694841737002
 30
0.0
 10
583.451612834434
 20
408.5736739694646
 30
0.0
 10
585.5891083134293
 20
409.9104595287403
 30
0.0
 10
588.4187057257475
 20
411.2178187288233
 30
0.0
 10
590.5189382044359
 20
411.7500748379002
 30
0.0
 10
591.7476183443588
 20
412.0614558479605
 30
0.0
  0
SPLINE
  5
2D4
330
1F
100
AcDbEntity
  8
0
  6
Continuous
 62
     8
370
    25
100
AcDbSpline
210
0.0
220
0.0
230
1.0
 70
     8
 71
     3
 72
    22
 73
    18
 74
     0
 42
0.00000001
 43
0.00000001
 40
0.0
 40
0.0
 40
0.0
 40
0.0
 40
0.0625927811512513
 40
0.1630700210567667
 40
0.2296877463394764
 40
0.2961247255674727
 40
0.339279189758689
 40
0.3823342035361525
 40
0.4436296015428845
 40
0.4669865511048084
 40
0.5378729786867131
 40
0.5535954156597428
 40
0.6102964075490579
 40
0.6671621743714109
 40
0.7920050306832812
 40
0.9174202181354185
 40
1.0
 40
1.0
 40
1.0
 40
1.0
 10
613.1368006402458
 20
411.0435360352212
 30
0.0
 10
613.7475540983827
 20
410.8191709747965
 30
0.0
 10
615.3387212816749
 20
410.2346432632153
 30
0.0
 10
617.4462331554316
 20
408.9940023966975
 30
0.0
 10
619.4248088665117
 20
407.4329612814794
 30
0.0
 10
620.7406485308512
 20
405.981978802689
 30
0.0
 10
621.664808478923
 20
404.5103827060017
 30
0.0
 10
622.330406660888
 20
402.9257087459097
 30
0.0
 10
622.5710528441035
 20
401.3964909608068
 30
0.0
 10
622.4628575907485
 20
399.5477044624373
 30
0.0
 10
622.0780774492785
 20
398.2783006061738
 30
0.0
 10
621.3328697065394
 20
396.8122477559832
 30
0.0
 10
620.4960206254995
 20
395.6062664546394
 30
0.0
 10
618.6586760688716
 20
393.7313381559923
 30
0.0
 10
615.9089419517958
 20
391.909026760243
 30
0.0
 10
612.7024042391516
 20
390.5245063638278
 30
0.0
 10
610.6135535841134
 20
390.0482928944258
 30
0.0
 10
609.7842218362955
 20
389.859222915698
 30
0.0
  0
SPLINE
  5
2D5
330
1F
100
AcDbEntity
  8
0
  6
Continuous
 62
     8
370
    25
100
AcDbSpline
210
0.0
220
0.0
230
1.0
 70
     8
 71
     3
 72
    14
 73
    10
 74
     0
 42
0.00000001
 43
0.00000001
 40
0.0
 40
0.0
 40
0.0
 40
0.0
 40
0.1904668066259141
 40
0.434982612775487
 40
0.5742633843840754
 40
0.7131406345704295
 40
0.8083103791487203
 40
0.9032538626522685
 40
1.0
 40
1.0
 40
1.0
 40
1.0
 10
588.3649404020997
 20
390.8405738909626
 30
0.0
 10
587.5435081341725
 20
391.1576895754907
 30
0.0
 10
585.6675447552993
 20
391.8819092516206
 30
0.0
 10
583.3677665644079
 20
393.3592148716534
 30
0.0
 10
581.4865582120767
 20
395.0472927354465
 30
0.0
 10
580.3272904789283
 20
396.5062958849526
 30
0.0
 10
579.5457744293828
 20
397.9918346833503
 30
0.0
 10
579.063005470762
 20
399.4192232283759
 30
0.0
 10
578.9994487379464
 20
400.4339663097421
 30
0.0
 10
578.96737152701
 20
400.9461091847006
 30
0.0
  0
SPLINE
  5
2D6
330
1F
100
AcDbEntity
  8
0
  6
Continuous
 62
     8
370
    25
100
AcDbSpline
210
0.0
220
0.0
230
1.0
 70
     8
 71
     3
 72
    13
 73
     9
 74
     0
 42
0.00000001
 43
0.00000001
 40
0.0
 40
0.0
 40
0.0
 40
0.0
 40
0.2468469563126507
 40
0.4413335966965268
 40
0.6397479692017357
 40
0.7568908183741186
 40
0.8776399220725644
 40
0.9999999999999999
 40
0.9999999999999999
 40
0.9999999999999999
 40
0.9999999999999999
 10
679.734433057711
 20
408.1461091847007
 30
0.0
 10
680.3852647485537
 20
408.8067252062438
 30
0.0
 10
681.5488759806075
 20
409.9878296815758
 30
0.0
 10
683.3246285039321
 20
411.2526144317822
 30
0.0
 10
684.6638475246741
 20
412.0657410892179
 30
0.0
 10
685.6161191591302
 20
412.575983616704
 30
0.0
 10
686.2406971556243
 20
412.8860068050142
 30
0.0
 10
686.3065677406062
 20
412.9169710350142
 30
0.0
 10
686.3397212803353
 20
412.9325557429648
 30
0.0
  0
SPLINE
  5
2D7
330
1F
100
AcDbEntity
  8
0
  6
Continuous
 62
     8
370
    25
100
AcDbSpline
210
0.0
220
0.0
230
1.0
 70
     8
 71
     3
 72
    14
 73
    10
 74
     0
 42
0.00000001
 43
0.00000001
 40
0.0
 40
0.0
 40
0.0
 40
0.0
 40
0.033860011350002
 40
0.1227241506501123
 40
0.2393125510977035
 40
0.3605225610989706
 40
0.5545689989114881
 40
0.7532588257689298
 40
1.0
 40
1.0
 40
1.0
 40
1.0
 10
515.1797025996583
 20
412.9210143618617
 30
0.0
 10
515.1631430010357
 20
412.9290127668929
 30
0.0
 10
515.1031234500953
 20
412.9580026409325
 30
0.0
 10
515.356361484005
 20
412.8363648980458
 30
0.0
 10
515.8567785908396
 20
412.5869577681871
 30
0.0
 10
516.8178861587552
 20
412.0741883560169
 30
0.0
 10
518.156534447543
 20
411.2614472591726
 30
0.0
 10
519.9358941199966
 20
409.9987556885987
 30
0.0
 10
521.1103809881492
 20
408.8065289330098
 30
0.0
 10
521.7609739380309
 20
408.1461091847104
 30
0.0
  0
SPLINE
  5
2D8
330
1F
100
AcDbEntity
  8
0
  6
Continuous
 62
     8
370
    25
100
AcDbSpline
210
0.0
220
0.0
230
1.0
 70
     8
 71
     3
 72
    13
 73
     9
 74
     0
 42
0.00000001
 43
0.00000001
 40
0.0
 40
0.0
 40
0.0
 40
0.0
 40
0.0616706528710571
 40
0.2371618220820934
 40
0.2807091576731384
 40
0.4873964275005857
 40
0.6949007702645372
 40
1.0
 40
1.0
 40
1.0
 40
1.0
 10
686.3662944083708
 20
388.9467927771212
 30
0.0
 10
686.3541907549519
 20
388.9525805472728
 30
0.0
 10
686.3076447178166
 20
388.9748381049767
 30
0.0
 10
685.8756626087154
 20
389.1841141567627
 30
0.0
 10
685.0241396253598
 20
389.6304844914412
 30
0.0
 10
683.8922488149924
 20
390.2797068478734
 30
0.0
 10
681.9013371565851
 20
391.59571544448
 30
0.0
 10
680.5429429095424
 20
392.9437596367035
 30
0.0
 10
679.734433057711
 20
393.7461091847006
 30
0.0
  0
SPLINE
  5
2D9
330
1F
100
AcDbEntity
  8
0
  6
Continuous
 62
     8
370
    25
100
AcDbSpline
210
0.0
220
0.0
230
1.0
 70
     8
 71
     3
 72
    13
 73
     9
 74
     0
 42
0.00000001
 43
0.00000001
 40
0.0
 40
0.0
 40
0.0
 40
0.0
 40
0.3086674495983822
 40
0.5142635549340849
 40
0.7190616002168828
 40
0.8855728782682362
 40
0.9383270654245882
 40
1.0
 40
1.0
 40
1.0
 40
1.0
 10
521.7609739380395
 20
393.7461091847006
 30
0.0
 10
520.9423079565604
 20
392.9348660230636
 30
0.0
 10
519.5783478807998
 20
391.5832729323045
 30
0.0
 10
517.5890641653465
 20
390.2711406356914
 30
0.0
 10
516.1639425327431
 20
389.4555558567964
 30
0.0
 10
515.413634802446
 20
389.0843286579436
 30
0.0
 10
515.1616326002162
 20
388.9623156650258
 30
0.0
 10
515.1404887730049
 20
388.9522229651408
 30
0.0
 10
515.1290928569621
 20
388.9467832895614
 30
0.0
  0
ENDSEC
  0
SECTION
  2
OBJECTS
  0
DICTIONARY
  5
C
330
0
100
AcDbDictionary
281
     1
  3
ACAD_GROUP
350
D
  3
ACAD_LAYOUT
350
1A
  3
ACAD_MLINESTYLE
350
17
  3
ACAD_PLOTSETTINGS
350
19
  3
ACAD_PLOTSTYLENAME
350
E
  3
ACAD_SCALELIST
350
47
  3
DWGPROPS
350
2DA
  0
DICTIONARY
  5
D
102
{ACAD_REACTORS
330
C
102
}
330
C
100
AcDbDictionary
281
     1
  0
DICTIONARY
  5
1A
102
{ACAD_REACTORS
330
C
102
}
330
C
100
AcDbDictionary
281
     1
  3
Layout1
350
1E
  3
Layout2
350
26
  3
Model
350
22
  0
DICTIONARY
  5
17
102
{ACAD_REACTORS
330
C
102
}
330
C
100
AcDbDictionary
281
     1
  3
Standard
350
18
  0
DICTIONARY
  5
19
102
{ACAD_REACTORS
330
C
102
}
330
C
100
AcDbDictionary
281
     1
  0
ACDBDICTIONARYWDFLT
  5
E
102
{ACAD_REACTORS
330
C
102
}
330
C
100
AcDbDictionary
281
     1
  3
Normal
350
F
100
AcDbDictionaryWithDefault
340
F
  0
DICTIONARY
  5
47
102
{ACAD_REACTORS
330
C
102
}
330
C
100
AcDbDictionary
281
     1
  3
A0
350
48
  3
A1
350
49
  3
A2
350
4A
  3
A3
350
4B
  3
A4
350
4C
  3
A5
350
4D
  3
A6
350
4E
  3
A7
350
4F
  3
A8
350
50
  3
A9
350
51
  3
B0
350
52
  3
B1
350
53
  3
B2
350
54
  3
B3
350
55
  3
B4
350
56
  3
B5
350
57
  3
B6
350
58
  3
B7
350
59
  3
B8
350
5A
  3
B9
350
5B
  3
C0
350
5C
  3
C1
350
5D
  3
C2
350
5E
  3
C3
350
5F
  3
C4
350
60
  3
C5
350
61
  3
C6
350
62
  3
C7
350
63
  3
C8
350
64
  3
C9
350
65
  3
D0
350
66
  3
D1
350
67
  3
D2
350
68
  0
XRECORD
  5
2DA
102
{ACAD_REACTORS
330
C
102
}
330
C
100
AcDbXrecord
280
     1
  1
DWGPROPS COOKIE
  2

  3

  4

  6

  7

  8
designer5
  9

300
=
301
=
302
=
303
=
304
=
305
=
306
=
307
=
308
=
309
=
 40
0.0
 41
2460383.358831296
 42
2460383.358831817
  1

 90
        0
  0
LAYOUT
  5
1E
102
{ACAD_REACTORS
330
1A
102
}
330
1A
100
AcDbPlotSettings
  1

  2
none_device
  4

  6

 40
0.0
 41
0.0
 42
0.0
 43
0.0
 44
0.0
 45
0.0
 46
0.0
 47
0.0
 48
0.0
 49
0.0
140
0.0
141
0.0
142
1.0
143
1.0
 70
   688
 72
     1
 73
     0
 74
     5
  7

 75
    16
147
1.0
148
0.0
149
0.0
100
AcDbLayout
  1
Layout1
 70
     1
 71
     1
 10
0.0
 20
0.0
 11
420.0
 21
297.0
 12
0.0
 22
0.0
 32
0.0
 14
1.0000000000E+20
 24
1.0000000000E+20
 34
1.0000000000E+20
 15
-1.0000000000E+20
 25
-1.0000000000E+20
 35
-1.0000000000E+20
146
0.0
 13
0.0
 23
0.0
 33
0.0
 16
1.0
 26
0.0
 36
0.0
 17
0.0
 27
1.0
 37
0.0
 76
     0
330
1B
  0
LAYOUT
  5
26
102
{ACAD_REACTORS
330
1A
102
}
330
1A
100
AcDbPlotSettings
  1

  2
none_device
  4

  6

 40
0.0
 41
0.0
 42
0.0
 43
0.0
 44
0.0
 45
0.0
 46
0.0
 47
0.0
 48
0.0
 49
0.0
140
0.0
141
0.0
142
1.0
143
1.0
 70
   688
 72
     1
 73
     0
 74
     5
  7

 75
    16
147
1.0
148
0.0
149
0.0
100
AcDbLayout
  1
Layout2
 70
     1
 71
     2
 10
0.0
 20
0.0
 11
0.0
 21
0.0
 12
0.0
 22
0.0
 32
0.0
 14
0.0
 24
0.0
 34
0.0
 15
0.0
 25
0.0
 35
0.0
146
0.0
 13
0.0
 23
0.0
 33
0.0
 16
1.0
 26
0.0
 36
0.0
 17
0.0
 27
1.0
 37
0.0
 76
     0
330
23
  0
LAYOUT
  5
22
102
{ACAD_REACTORS
330
1A
102
}
330
1A
100
AcDbPlotSettings
  1

  2
none_device
  4
Letter_(8.50_x_11.00_Inches)
  6

 40
6.35
 41
6.35
 42
6.35000508
 43
6.35000508
 44
215.9
 45
279.4
 46
0.0
 47
0.0
 48
0.0
 49
0.0
140
0.0
141
0.0
142
1.0
143
1.0
 70
  1712
 72
     1
 73
     0
 74
     0
  7

 75
     0
147
1.0
148
0.0
149
0.0
100
AcDbLayout
  1
Model
 70
     1
 71
     0
 10
0.0
 20
0.0
 11
1189.0
 21
841.0
 12
0.0
 22
0.0
 32
0.0
 14
0.0
 24
0.0
 34
0.0
 15
1189.0
 25
841.0
 35
0.0
146
0.0
 13
0.0
 23
0.0
 33
0.0
 16
1.0
 26
0.0
 36
0.0
 17
0.0
 27
1.0
 37
0.0
 76
     0
330
1F
331
29
  0
MLINESTYLE
  5
18
102
{ACAD_REACTORS
330
17
102
}
330
17
100
AcDbMlineStyle
  2
Standard
 70
     0
  3

 62
   256
 51
90.0
 52
90.0
 71
     2
 49
0.5
 62
   256
  6
BYLAYER
 49
-0.5
 62
   256
  6
BYLAYER
  0
ACDBPLACEHOLDER
  5
F
102
{ACAD_REACTORS
330
E
102
}
330
E
  0
SCALE
  5
48
102
{ACAD_REACTORS
330
47
102
}
330
47
100
AcDbScale
 70
     0
300
1:1
140
1.0
141
1.0
290
     1
  0
SCALE
  5
49
102
{ACAD_REACTORS
330
47
102
}
330
47
100
AcDbScale
 70
     0
300
1:2
140
1.0
141
2.0
290
     0
  0
SCALE
  5
4A
102
{ACAD_REACTORS
330
47
102
}
330
47
100
AcDbScale
 70
     0
300
1:4
140
1.0
141
4.0
290
     0
  0
SCALE
  5
4B
102
{ACAD_REACTORS
330
47
102
}
330
47
100
AcDbScale
 70
     0
300
1:5
140
1.0
141
5.0
290
     0
  0
SCALE
  5
4C
102
{ACAD_REACTORS
330
47
102
}
330
47
100
AcDbScale
 70
     0
300
1:8
140
1.0
141
8.0
290
     0
  0
SCALE
  5
4D
102
{ACAD_REACTORS
330
47
102
}
330
47
100
AcDbScale
 70
     0
300
1:10
140
1.0
141
10.0
290
     0
  0
SCALE
  5
4E
102
{ACAD_REACTORS
330
47
102
}
330
47
100
AcDbScale
 70
     0
300
1:16
140
1.0
141
16.0
290
     0
  0
SCALE
  5
4F
102
{ACAD_REACTORS
330
47
102
}
330
47
100
AcDbScale
 70
     0
300
1:20
140
1.0
141
20.0
290
     0
  0
SCALE
  5
50
102
{ACAD_REACTORS
330
47
102
}
330
47
100
AcDbScale
 70
     0
300
1:30
140
1.0
141
30.0
290
     0
  0
SCALE
  5
51
102
{ACAD_REACTORS
330
47
102
}
330
47
100
AcDbScale
 70
     0
300
1:40
140
1.0
141
40.0
290
     0
  0
SCALE
  5
52
102
{ACAD_REACTORS
330
47
102
}
330
47
100
AcDbScale
 70
     0
300
1:50
140
1.0
141
50.0
290
     0
  0
SCALE
  5
53
102
{ACAD_REACTORS
330
47
102
}
330
47
100
AcDbScale
 70
     0
300
1:100
140
1.0
141
100.0
290
     0
  0
SCALE
  5
54
102
{ACAD_REACTORS
330
47
102
}
330
47
100
AcDbScale
 70
     0
300
2:1
140
2.0
141
1.0
290
     0
  0
SCALE
  5
55
102
{ACAD_REACTORS
330
47
102
}
330
47
100
AcDbScale
 70
     0
300
4:1
140
4.0
141
1.0
290
     0
  0
SCALE
  5
56
102
{ACAD_REACTORS
330
47
102
}
330
47
100
AcDbScale
 70
     0
300
8:1
140
8.0
141
1.0
290
     0
  0
SCALE
  5
57
102
{ACAD_REACTORS
330
47
102
}
330
47
100
AcDbScale
 70
     0
300
10:1
140
10.0
141
1.0
290
     0
  0
SCALE
  5
58
102
{ACAD_REACTORS
330
47
102
}
330
47
100
AcDbScale
 70
     0
300
100:1
140
100.0
141
1.0
290
     0
  0
SCALE
  5
59
102
{ACAD_REACTORS
330
47
102
}
330
47
100
AcDbScale
 70
     0
300
1/128" = 1'-0"
140
0.0078125
141
12.0
290
     0
  0
SCALE
  5
5A
102
{ACAD_REACTORS
330
47
102
}
330
47
100
AcDbScale
 70
     0
300
1/64" = 1'-0"
140
0.015625
141
12.0
290
     0
  0
SCALE
  5
5B
102
{ACAD_REACTORS
330
47
102
}
330
47
100
AcDbScale
 70
     0
300
1/32" = 1'-0"
140
0.03125
141
12.0
290
     0
  0
SCALE
  5
5C
102
{ACAD_REACTORS
330
47
102
}
330
47
100
AcDbScale
 70
     0
300
1/16" = 1'-0"
140
0.0625
141
12.0
290
     0
  0
SCALE
  5
5D
102
{ACAD_REACTORS
330
47
102
}
330
47
100
AcDbScale
 70
     0
300
3/32" = 1'-0"
140
0.09375
141
12.0
290
     0
  0
SCALE
  5
5E
102
{ACAD_REACTORS
330
47
102
}
330
47
100
AcDbScale
 70
     0
300
1/8" = 1'-0"
140
0.125
141
12.0
290
     0
  0
SCALE
  5
5F
102
{ACAD_REACTORS
330
47
102
}
330
47
100
AcDbScale
 70
     0
300
3/16" = 1'-0"
140
0.1875
141
12.0
290
     0
  0
SCALE
  5
60
102
{ACAD_REACTORS
330
47
102
}
330
47
100
AcDbScale
 70
     0
300
1/4" = 1'-0"
140
0.25
141
12.0
290
     0
  0
SCALE
  5
61
102
{ACAD_REACTORS
330
47
102
}
330
47
100
AcDbScale
 70
     0
300
3/8" = 1'-0"
140
0.375
141
12.0
290
     0
  0
SCALE
  5
62
102
{ACAD_REACTORS
330
47
102
}
330
47
100
AcDbScale
 70
     0
300
1/2" = 1'-0"
140
0.5
141
12.0
290
     0
  0
SCALE
  5
63
102
{ACAD_REACTORS
330
47
102
}
330
47
100
AcDbScale
 70
     0
300
3/4" = 1'-0"
140
0.75
141
12.0
290
     0
  0
SCALE
  5
64
102
{ACAD_REACTORS
330
47
102
}
330
47
100
AcDbScale
 70
     0
300
1" = 1'-0"
140
1.0
141
12.0
290
     0
  0
SCALE
  5
65
102
{ACAD_REACTORS
330
47
102
}
330
47
100
AcDbScale
 70
     0
300
1-1/2" = 1'-0"
140
1.5
141
12.0
290
     0
  0
SCALE
  5
66
102
{ACAD_REACTORS
330
47
102
}
330
47
100
AcDbScale
 70
     0
300
3" = 1'-0"
140
3.0
141
12.0
290
     0
  0
SCALE
  5
67
102
{ACAD_REACTORS
330
47
102
}
330
47
100
AcDbScale
 70
     0
300
6" = 1'-0"
140
6.0
141
12.0
290
     0
  0
SCALE
  5
68
102
{ACAD_REACTORS
330
47
102
}
330
47
100
AcDbScale
 70
     0
300
1'-0" = 1'-0"
140
12.0
141
12.0
290
     0
  0
ENDSEC
  0
EOF
