  0
SECTION
  2
HEADER
  9
$ACADVER
  1
AC1015
  9
$ACADMAINTVER
 70
     6
  9
$DWGCODEPAGE
  3
ANSI_1252
  9
$INSBASE
 10
0.0
 20
0.0
 30
0.0
  9
$EXTMIN
 10
0.0
 20
0.0
 30
0.0
  9
$EXTMAX
 10
1189.0
 20
841.0
 30
0.0
  9
$LIMMIN
 10
0.0
 20
0.0
  9
$LIMMAX
 10
1189.0
 20
841.0
  9
$ORTHOMODE
 70
     0
  9
$REGENMODE
 70
     1
  9
$FILLMODE
 70
     1
  9
$QTEXTMODE
 70
     0
  9
$MIRRTEXT
 70
     1
  9
$LTSCALE
 40
1.0
  9
$ATTMODE
 70
     1
  9
$TEXTSIZE
 40
3.5
  9
$TRACEWID
 40
1.0
  9
$TEXTSTYLE
  7
Standard
  9
$CLAYER
  8
0
  9
$CELTYPE
  6
ByLayer
  9
$CECOLOR
 62
   256
  9
$CELTSCALE
 40
1.0
  9
$DISPSILH
 70
     0
  9
$DIMSCALE
 40
1.0
  9
$DIMASZ
 40
3.302
  9
$DIMEXO
 40
1.0
  9
$DIMDLI
 40
3.75
  9
$DIMRND
 40
0.0
  9
$DIMDLE
 40
0.0
  9
$DIMEXE
 40
1.0
  9
$DIMTP
 40
0.0
  9
$DIMTM
 40
0.0
  9
$DIMTXT
 40
3.5
  9
$DIMCEN
 40
2.5
  9
$DIMTSZ
 40
0.0
  9
$DIMTOL
 70
     0
  9
$DIMLIM
 70
     0
  9
$DIMTIH
 70
     1
  9
$DIMTOH
 70
     1
  9
$DIMSE1
 70
     0
  9
$DIMSE2
 70
     0
  9
$DIMTAD
 70
     1
  9
$DIMZIN
 70
     1
  9
$DIMBLK
  1

  9
$DIMASO
 70
     1
  9
$DIMSHO
 70
     1
  9
$DIMPOST
  1

  9
$DIMAPOST
  1

  9
$DIMALT
 70
     0
  9
$DIMALTD
 70
     3
  9
$DIMALTF
 40
0.0393700787
  9
$DIMLFAC
 40
2.0
  9
$DIMTOFL
 70
     1
  9
$DIMTVP
 40
0.0
  9
$DIMTIX
 70
     0
  9
$DIMSOXD
 70
     0
  9
$DIMSAH
 70
     0
  9
$DIMBLK1
  1

  9
$DIMBLK2
  1

  9
$DIMSTYLE
  2
ISO-25
  9
$DIMCLRD
 70
     0
  9
$DIMCLRE
 70
     0
  9
$DIMCLRT
 70
     0
  9
$DIMTFAC
 40
1.0
  9
$DIMGAP
 40
1.524
  9
$DIMJUST
 70
     0
  9
$DIMSD1
 70
     0
  9
$DIMSD2
 70
     0
  9
$DIMTOLJ
 70
     0
  9
$DIMTZIN
 70
     1
  9
$DIMALTZ
 70
     0
  9
$DIMALTTZ
 70
     0
  9
$DIMUPT
 70
     0
  9
$DIMDEC
 70
     2
  9
$DIMTDEC
 70
     2
  9
$DIMALTU
 70
     2
  9
$DIMALTTD
 70
     3
  9
$DIMTXSTY
  7
Standard
  9
$DIMAUNIT
 70
     0
  9
$DIMADEC
 70
     2
  9
$DIMALTRND
 40
0.0
  9
$DIMAZIN
 70
     0
  9
$DIMDSEP
 70
    44
  9
$DIMATFIT
 70
     3
  9
$DIMFRAC
 70
     0
  9
$DIMLDRBLK
  1

  9
$DIMLUNIT
 70
     2
  9
$DIMLWD
 70
    -2
  9
$DIMLWE
 70
    -2
  9
$DIMTMOVE
 70
     0
  9
$LUNITS
 70
     2
  9
$LUPREC
 70
     2
  9
$SKETCHINC
 40
1.0
  9
$FILLETRAD
 40
10.0
  9
$AUNITS
 70
     0
  9
$AUPREC
 70
     2
  9
$MENU
  1
.
  9
$ELEVATION
 40
0.0
  9
$PELEVATION
 40
0.0
  9
$THICKNESS
 40
0.0
  9
$LIMCHECK
 70
     0
  9
$CHAMFERA
 40
0.0
  9
$CHAMFERB
 40
0.0
  9
$CHAMFERC
 40
0.0
  9
$CHAMFERD
 40
0.0
  9
$SKPOLY
 70
     0
  9
$TDCREATE
 40
2460383.456145116
  9
$TDUCREATE
 40
2460383.226978449
  9
$TDUPDATE
 40
2460383.456145694
  9
$TDUUPDATE
 40
2460383.226979028
  9
$TDINDWG
 40
0.0000000116
  9
$TDUSRTIMER
 40
0.0000000116
  9
$USRTIMER
 70
     1
  9
$ANGBASE
 50
0.0
  9
$ANGDIR
 70
     0
  9
$PDMODE
 70
     0
  9
$PDSIZE
 40
-1.0
  9
$PLINEWID
 40
0.0
  9
$SPLFRAME
 70
     0
  9
$SPLINETYPE
 70
     6
  9
$SPLINESEGS
 70
     8
  9
$HANDSEED
  5
2D8
  9
$SURFTAB1
 70
     6
  9
$SURFTAB2
 70
     6
  9
$SURFTYPE
 70
     6
  9
$SURFU
 70
     6
  9
$SURFV
 70
     6
  9
$UCSBASE
  2

  9
$UCSNAME
  2

  9
$UCSORG
 10
0.0
 20
0.0
 30
0.0
  9
$UCSXDIR
 10
1.0
 20
0.0
 30
0.0
  9
$UCSYDIR
 10
0.0
 20
1.0
 30
0.0
  9
$UCSORTHOREF
  2

  9
$UCSORTHOVIEW
 70
     0
  9
$UCSORGTOP
 10
0.0
 20
0.0
 30
0.0
  9
$UCSORGBOTTOM
 10
0.0
 20
0.0
 30
0.0
  9
$UCSORGLEFT
 10
0.0
 20
0.0
 30
0.0
  9
$UCSORGRIGHT
 10
0.0
 20
0.0
 30
0.0
  9
$UCSORGFRONT
 10
0.0
 20
0.0
 30
0.0
  9
$UCSORGBACK
 10
0.0
 20
0.0
 30
0.0
  9
$PUCSBASE
  2

  9
$PUCSNAME
  2

  9
$PUCSORG
 10
0.0
 20
0.0
 30
0.0
  9
$PUCSXDIR
 10
1.0
 20
0.0
 30
0.0
  9
$PUCSYDIR
 10
0.0
 20
1.0
 30
0.0
  9
$PUCSORTHOREF
  2

  9
$PUCSORTHOVIEW
 70
     0
  9
$PUCSORGTOP
 10
0.0
 20
0.0
 30
0.0
  9
$PUCSORGBOTTOM
 10
0.0
 20
0.0
 30
0.0
  9
$PUCSORGLEFT
 10
0.0
 20
0.0
 30
0.0
  9
$PUCSORGRIGHT
 10
0.0
 20
0.0
 30
0.0
  9
$PUCSORGFRONT
 10
0.0
 20
0.0
 30
0.0
  9
$PUCSORGBACK
 10
0.0
 20
0.0
 30
0.0
  9
$USERI1
 70
     0
  9
$USERI2
 70
     0
  9
$USERI3
 70
     0
  9
$USERI4
 70
     0
  9
$USERI5
 70
     0
  9
$USERR1
 40
0.0
  9
$USERR2
 40
0.0
  9
$USERR3
 40
0.0
  9
$USERR4
 40
0.0
  9
$USERR5
 40
0.0
  9
$WORLDVIEW
 70
     1
  9
$SHADEDGE
 70
     3
  9
$SHADEDIF
 70
    70
  9
$TILEMODE
 70
     1
  9
$MAXACTVP
 70
    64
  9
$PINSBASE
 10
0.0
 20
0.0
 30
0.0
  9
$PLIMCHECK
 70
     0
  9
$PEXTMIN
 10
1.0000000000E+20
 20
1.0000000000E+20
 30
1.0000000000E+20
  9
$PEXTMAX
 10
-1.0000000000E+20
 20
-1.0000000000E+20
 30
-1.0000000000E+20
  9
$PLIMMIN
 10
0.0
 20
0.0
  9
$PLIMMAX
 10
420.0
 20
297.0
  9
$UNITMODE
 70
     0
  9
$VISRETAIN
 70
     1
  9
$PLINEGEN
 70
     0
  9
$PSLTSCALE
 70
     1
  9
$TREEDEPTH
 70
  3020
  9
$CMLSTYLE
  2
Standard
  9
$CMLJUST
 70
     0
  9
$CMLSCALE
 40
20.0
  9
$PROXYGRAPHICS
 70
     1
  9
$MEASUREMENT
 70
     1
  9
$CELWEIGHT
370
    -1
  9
$ENDCAPS
280
     0
  9
$JOINSTYLE
280
     0
  9
$LWDISPLAY
290
     1
  9
$INSUNITS
 70
     4
  9
$HYPERLINKBASE
  1

  9
$STYLESHEET
  1

  9
$XEDIT
290
     1
  9
$CEPSNTYPE
380
     0
  9
$PSTYLEMODE
290
     1
  9
$FINGERPRINTGUID
  2
{a971cfcb-fae9-4d03-8491-6a0afa161fd2}
  9
$VERSIONGUID
  2
{FAEB1C32-E019-11D5-929B-00C0DF256EC4}
  9
$EXTNAMES
290
     1
  9
$PSVPSCALE
 40
0.0
  9
$OLESTARTUP
290
     0
  0
ENDSEC
  0
SECTION
  2
CLASSES
  0
CLASS
  1
ACDBDICTIONARYWDFLT
  2
AcDbDictionaryWithDefault
  3
ObjectDBX Classes
 90
        0
280
     0
281
     0
  0
CLASS
  1
VISUALSTYLE
  2
AcDbVisualStyle
  3
ObjectDBX Classes
 90
     4095
280
     0
281
     0
  0
CLASS
  1
MATERIAL
  2
AcDbMaterial
  3
ObjectDBX Classes
 90
     1153
280
     0
281
     0
  0
CLASS
  1
SCALE
  2
AcDbScale
  3
ObjectDBX Classes
 90
     1153
280
     0
281
     0
  0
CLASS
  1
TABLESTYLE
  2
AcDbTableStyle
  3
ObjectDBX Classes
 90
     4095
280
     0
281
     0
  0
CLASS
  1
MLEADERSTYLE
  2
AcDbMLeaderStyle
  3
ACDB_MLEADERSTYLE_CLASS
 90
     4095
280
     0
281
     0
  0
CLASS
  1
SUN
  2
AcDbSun
  3
SCENEOE
 90
     1153
280
     0
281
     0
  0
CLASS
  1
ACDBPLACEHOLDER
  2
AcDbPlaceHolder
  3
ObjectDBX Classes
 90
        0
280
     0
281
     0
  0
CLASS
  1
LAYOUT
  2
AcDbLayout
  3
ObjectDBX Classes
 90
        0
280
     0
281
     0
  0
ENDSEC
  0
SECTION
  2
TABLES
  0
TABLE
  2
VPORT
  5
8
330
0
100
AcDbSymbolTable
 70
     1
  0
VPORT
  5
29
330
8
100
AcDbSymbolTableRecord
100
AcDbViewportTableRecord
  2
*Active
 70
     0
 10
0.0
 20
0.0
 11
1.0
 21
1.0
 12
594.5
 22
420.5
 13
0.0
 23
0.0
 14
10.0
 24
10.0
 15
10.0
 25
10.0
 16
0.0
 26
0.0
 36
1.0
 17
0.0
 27
0.0
 37
0.0
 40
841.0
 41
1.4137931034
 42
50.0
 43
0.0
 44
0.0
 50
0.0
 51
0.0
 71
     0
 72
  2000
 73
     1
 74
     3
 75
     0
 76
     0
 77
     0
 78
     0
281
     0
 65
     1
110
0.0
120
0.0
130
0.0
111
1.0
121
0.0
131
0.0
112
0.0
122
1.0
132
0.0
 79
     0
146
0.0
  0
ENDTAB
  0
TABLE
  2
LTYPE
  5
5
330
0
100
AcDbSymbolTable
 70
     6
  0
LTYPE
  5
14
330
5
100
AcDbSymbolTableRecord
100
AcDbLinetypeTableRecord
  2
ByBlock
 70
     0
  3

 72
    65
 73
     0
 40
0.0
  0
LTYPE
  5
15
330
5
100
AcDbSymbolTableRecord
100
AcDbLinetypeTableRecord
  2
ByLayer
 70
     0
  3

 72
    65
 73
     0
 40
0.0
  0
LTYPE
  5
16
330
5
100
AcDbSymbolTableRecord
100
AcDbLinetypeTableRecord
  2
Continuous
 70
     0
  3
Solid line
 72
    65
 73
     0
 40
0.0
  0
LTYPE
  5
6E
330
5
100
AcDbSymbolTableRecord
100
AcDbLinetypeTableRecord
  2
HIDDEN
 70
     0
  3
Hidden __ __ __ __ __ __ __ __ __ __ __ __ __ __
 72
    65
 73
     2
 40
1.905
 49
1.27
 74
     0
 49
-0.635
 74
     0
  0
LTYPE
  5
6F
330
5
100
AcDbSymbolTableRecord
100
AcDbLinetypeTableRecord
  2
PHANTOM
 70
     0
  3
Phantom ______  __  __  ______  __  __  ______
 72
    65
 73
     6
 40
12.7
 49
6.35
 74
     0
 49
-1.27
 74
     0
 49
1.27
 74
     0
 49
-1.27
 74
     0
 49
1.27
 74
     0
 49
-1.27
 74
     0
  0
LTYPE
  5
70
330
5
100
AcDbSymbolTableRecord
100
AcDbLinetypeTableRecord
  2
CENTER
 70
     0
  3
Center ____ _ ____ _ ____ _ ____ _ ____ _ ____
 72
    65
 73
     4
 40
10.16
 49
6.35
 74
     0
 49
-1.27
 74
     0
 49
1.27
 74
     0
 49
-1.27
 74
     0
  0
LTYPE
  5
71
330
5
100
AcDbSymbolTableRecord
100
AcDbLinetypeTableRecord
  2
CENTERX2
 70
     0
  3
Center (2x) ________  __  ________  __  _____
 72
    65
 73
     4
 40
20.32
 49
12.7
 74
     0
 49
-2.54
 74
     0
 49
2.54
 74
     0
 49
-2.54
 74
     0
  0
LTYPE
  5
72
330
5
100
AcDbSymbolTableRecord
100
AcDbLinetypeTableRecord
  2
DOT2
 70
     0
  3
Dot (.5x) ........................................
 72
    65
 73
     2
 40
0.635
 49
0.0
 74
     0
 49
-0.635
 74
     0
  0
ENDTAB
  0
TABLE
  2
LAYER
  5
2
330
0
100
AcDbSymbolTable
 70
     1
  0
LAYER
  5
10
330
2
100
AcDbSymbolTableRecord
100
AcDbLayerTableRecord
  2
0
 70
     0
 62
     7
  6
Continuous
370
    -3
390
F
  0
ENDTAB
  0
TABLE
  2
STYLE
  5
3
330
0
100
AcDbSymbolTable
 70
     1
  0
STYLE
  5
11
330
3
100
AcDbSymbolTableRecord
100
AcDbTextStyleTableRecord
  2
Standard
 70
     0
 40
0.0
 41
1.0
 50
0.0
 71
     0
 42
3.5
  3
txt
  4

  0
ENDTAB
  0
TABLE
  2
VIEW
  5
6
330
0
100
AcDbSymbolTable
 70
     0
  0
ENDTAB
  0
TABLE
  2
UCS
  5
7
330
0
100
AcDbSymbolTable
 70
     0
  0
ENDTAB
  0
TABLE
  2
APPID
  5
9
330
0
100
AcDbSymbolTable
 70
     1
  0
APPID
  5
12
330
9
100
AcDbSymbolTableRecord
100
AcDbRegAppTableRecord
  2
ACAD
 70
     0
  0
ENDTAB
  0
TABLE
  2
DIMSTYLE
  5
A
330
0
100
AcDbSymbolTable
 70
     1
100
AcDbDimStyleTable
  0
DIMSTYLE
105
27
330
A
100
AcDbSymbolTableRecord
100
AcDbDimStyleTableRecord
  2
ISO-25
 70
     0
 41
2.5
 42
0.625
 43
3.75
 44
1.25
 73
     0
 74
     0
 77
     1
 78
     8
140
2.5
141
2.5
143
0.0393700787
147
0.625
171
     3
172
     1
178
     0
271
     2
272
     2
274
     3
278
    44
283
     0
284
     8
340
11
  0
ENDTAB
  0
TABLE
  2
BLOCK_RECORD
  5
1
330
0
100
AcDbSymbolTable
 70
     1
  0
BLOCK_RECORD
  5
1F
330
1
100
AcDbSymbolTableRecord
100
AcDbBlockTableRecord
  2
*Model_Space
340
22
  0
BLOCK_RECORD
  5
1B
330
1
100
AcDbSymbolTableRecord
100
AcDbBlockTableRecord
  2
*Paper_Space
340
1E
  0
BLOCK_RECORD
  5
23
330
1
100
AcDbSymbolTableRecord
100
AcDbBlockTableRecord
  2
*Paper_Space0
340
26
  0
ENDTAB
  0
ENDSEC
  0
SECTION
  2
BLOCKS
  0
BLOCK
  5
20
330
1F
100
AcDbEntity
  8
0
100
AcDbBlockBegin
  2
*Model_Space
 70
     0
 10
0.0
 20
0.0
 30
0.0
  3
*Model_Space
  1

  0
ENDBLK
  5
21
330
1F
100
AcDbEntity
  8
0
100
AcDbBlockEnd
  0
BLOCK
  5
1C
330
1B
100
AcDbEntity
 67
     1
  8
0
100
AcDbBlockBegin
  2
*Paper_Space
 70
     0
 10
0.0
 20
0.0
 30
0.0
  3
*Paper_Space
  1

  0
ENDBLK
  5
1D
330
1B
100
AcDbEntity
 67
     1
  8
0
100
AcDbBlockEnd
  0
BLOCK
  5
24
330
23
100
AcDbEntity
  8
0
100
AcDbBlockBegin
  2
*Paper_Space0
 70
     0
 10
0.0
 20
0.0
 30
0.0
  3
*Paper_Space0
  1

  0
ENDBLK
  5
25
330
23
100
AcDbEntity
  8
0
100
AcDbBlockEnd
  0
ENDSEC
  0
SECTION
  2
ENTITIES
  0
SPLINE
  5
73
330
1F
100
AcDbEntity
  8
0
  6
Continuous
 62
     7
370
    25
100
AcDbSpline
210
0.0
220
0.0
230
1.0
 70
     8
 71
     3
 72
    14
 73
    10
 74
     0
 42
0.00000001
 43
0.00000001
 40
0.0
 40
0.0
 40
0.0
 40
0.0
 40
0.110392003749533
 40
0.3215458028786831
 40
0.5131485595554145
 40
0.6823365456853135
 40
0.8252270634682551
 40
0.9368059708259731
 40
1.0
 40
1.0
 40
1.0
 40
1.0
 10
669.1187133910561
 20
579.9223956947741
 30
0.0
 10
669.3042642470565
 20
579.9267055657422
 30
0.0
 10
669.8447300139687
 20
579.939259200731
 30
0.0
 10
670.7011394690114
 20
579.8022954438875
 30
0.0
 10
671.6307098952943
 20
579.5573746656053
 30
0.0
 10
672.4192774171958
 20
579.2442200454934
 30
0.0
 10
673.0512295398029
 20
578.9186475973373
 30
0.0
 10
673.5084497601223
 20
578.6370479946168
 30
0.0
 10
673.7419908106632
 20
578.4699575218336
 30
0.0
 10
673.82643409035
 20
578.4095413016721
 30
0.0
  0
SPLINE
  5
74
330
1F
100
AcDbEntity
  8
0
  6
Continuous
 62
     7
370
    25
100
AcDbSpline
210
0.0
220
0.0
230
1.0
 70
     8
 71
     3
 72
    12
 73
     8
 74
     0
 42
0.00000001
 43
0.00000001
 40
0.0
 40
0.0
 40
0.0
 40
0.0
 40
0.010111213567807
 40
0.2471911270340457
 40
0.4435553485533592
 40
0.7066495735705471
 40
1.0
 40
1.0
 40
1.0
 40
1.0
 10
673.7007569948472
 20
605.3851579508136
 30
0.0
 10
673.6873956155777
 20
605.3755073512622
 30
0.0
 10
673.3607469518716
 20
605.139576959361
 30
0.0
 10
672.7268028116123
 20
604.7766924984164
 30
0.0
 10
671.6776972655445
 20
604.3343569246842
 30
0.0
 10
670.4819253979271
 20
604.0060352302008
 30
0.0
 10
669.5707788013246
 20
603.9667070725166
 30
0.0
 10
669.0904340950575
 20
603.9459737762268
 30
0.0
  0
SPLINE
  5
75
330
1F
100
AcDbEntity
  8
0
  6
Continuous
 62
     7
370
    25
100
AcDbSpline
210
0.0
220
0.0
230
1.0
 70
     8
 71
     3
 72
    13
 73
     9
 74
     0
 42
0.00000001
 43
0.00000001
 40
0.0
 40
0.0
 40
0.0
 40
0.0
 40
0.2245277801877857
 40
0.4326004429281387
 40
0.6194870271029321
 40
0.7818100676624089
 40
0.9152378004374497
 40
0.9999999999999999
 40
0.9999999999999999
 40
0.9999999999999999
 40
0.9999999999999999
 10
497.919407817527
 20
603.9406319375078
 30
0.0
 10
497.5511188018988
 20
603.9532911125197
 30
0.0
 10
496.8415318138073
 20
603.9776817011258
 30
0.0
 10
495.8435808645207
 20
604.1857029639177
 30
0.0
 10
494.9743882700861
 20
604.470638404809
 30
0.0
 10
494.2539443342625
 20
604.7997360844201
 30
0.0
 10
493.7094496525804
 20
605.1056196051908
 30
0.0
 10
493.4145318004053
 20
605.307586938911
 30
0.0
 10
493.2999624177907
 20
605.3860470001176
 30
0.0
  0
SPLINE
  5
76
330
1F
100
AcDbEntity
  8
0
  6
Continuous
 62
     7
370
    25
100
AcDbSpline
210
0.0
220
0.0
230
1.0
 70
     8
 71
     3
 72
    13
 73
     9
 74
     0
 42
0.00000001
 43
0.00000001
 40
0.0
 40
0.0
 40
0.0
 40
0.0
 40
0.0841652697808864
 40
0.1931522504184889
 40
0.389721598124001
 40
0.5847071704246675
 40
0.9005282885255913
 40
1.0
 40
1.0
 40
1.0
 40
1.0
 10
493.1737283702933
 20
578.4094366029229
 30
0.0
 10
493.2870705885064
 20
578.4898534658329
 30
0.0
 10
493.5471814937798
 20
578.674403436184
 30
0.0
 10
494.1109067387093
 20
579.0116130018886
 30
0.0
 10
494.8691573273484
 20
579.3776666729378
 30
0.0
 10
495.9978230547113
 20
579.7470161544123
 30
0.0
 10
497.0165164715149
 20
579.9531557567943
 30
0.0
 10
497.7137303306625
 20
579.9224791401126
 30
0.0
 10
497.8807282918457
 20
579.9151314197903
 30
0.0
  0
LINE
  5
77
330
1F
100
AcDbEntity
  8
0
  6
Continuous
 62
     7
370
    25
100
AcDbLine
 10
572.9170390938
 20
603.941975202
 30
0.0
 11
497.9316321337
 21
603.941975202
 31
0.0
  0
LINE
  5
78
330
1F
100
AcDbEntity
  8
0
  6
Continuous
 62
     7
370
    25
100
AcDbLine
 10
669.0911943882
 20
603.941975202
 30
0.0
 11
591.8463413638
 21
603.941975202
 31
0.0
  0
LINE
  5
79
330
1F
100
AcDbEntity
  8
0
  6
Continuous
 62
     7
370
    25
100
AcDbLine
 10
594.0830495823
 20
579.941975202
 30
0.0
 11
669.1200568537
 21
579.941975202
 31
0.0
  0
LINE
  5
7A
330
1F
100
AcDbEntity
  8
0
  6
Continuous
 62
     7
370
    25
100
AcDbLine
 10
497.8800318224
 20
579.941975202
 30
0.0
 11
575.1537473124
 21
579.941975202
 31
0.0
  0
LINE
  5
7B
330
1F
100
AcDbEntity
  8
0
  6
Continuous
 62
     7
370
    25
100
AcDbLine
 10
575.6000443381
 20
283.6689871135
 30
0.0
 11
575.6000443381
 21
236.341975202
 31
0.0
  0
LINE
  5
7C
330
1F
100
AcDbEntity
  8
0
  6
Continuous
 62
     7
370
    25
100
AcDbLine
 10
591.4000443381
 20
236.341975202
 30
0.0
 11
591.4000443381
 21
283.6689871135
 31
0.0
  0
LINE
  5
7D
330
1F
100
AcDbEntity
  8
0
  6
Continuous
 62
     7
370
    25
100
AcDbLine
 10
591.4000443381
 20
283.6689871135
 30
0.0
 11
591.4000443381
 21
569.2689871135
 31
0.0
  0
LINE
  5
7E
330
1F
100
AcDbEntity
  8
0
  6
Continuous
 62
     7
370
    25
100
AcDbLine
 10
575.6000443381
 20
569.2689871135
 30
0.0
 11
575.6000443381
 21
283.6689871135
 31
0.0
  0
LINE
  5
7F
330
1F
100
AcDbEntity
  8
0
  6
Continuous
 62
     7
370
    25
100
AcDbLine
 10
575.6000443381
 20
591.941975202
 30
0.0
 11
575.6000443381
 21
569.2689871135
 31
0.0
  0
LINE
  5
80
330
1F
100
AcDbEntity
  8
0
  6
Continuous
 62
     7
370
    25
100
AcDbLine
 10
591.4000443381
 20
569.2689871135
 30
0.0
 11
591.4000443381
 21
591.941975202
 31
0.0
  0
SPLINE
  5
81
330
1F
100
AcDbEntity
  8
0
  6
Continuous
 62
     7
370
    25
100
AcDbSpline
210
0.0
220
0.0
230
1.0
 70
     8
 71
     3
 72
    17
 73
    13
 74
     0
 42
0.00000001
 43
0.00000001
 40
0.0
 40
0.0
 40
0.0
 40
0.0
 40
0.1727939157605296
 40
0.4670908646424595
 40
0.5836036464445749
 40
0.6237329378319906
 40
0.6617158152047107
 40
0.7176264960718011
 40
0.7837734229449181
 40
0.8640117675634507
 40
0.9541263261861291
 40
1.0
 40
1.0
 40
1.0
 40
1.0
 10
425.482502619399
 20
595.2487122523005
 30
0.0
 10
425.3987090165292
 20
595.2427350822416
 30
0.0
 10
425.1722008883716
 20
595.2265777915254
 30
0.0
 10
424.9935965183433
 20
595.2098036486211
 30
0.0
 10
424.9116285353898
 20
595.1998863583526
 30
0.0
 10
424.8497976065345
 20
595.1873539683941
 30
0.0
 10
424.7811700204444
 20
595.1667328076328
 30
0.0
 10
424.6880503653466
 20
595.1206363659614
 30
0.0
 10
424.585810124326
 20
595.0345227257889
 30
0.0
 10
424.501111495897
 20
594.9028858792756
 30
0.0
 10
424.4579194571468
 20
594.7610974132521
 30
0.0
 10
424.4729770963847
 20
594.6723595639834
 30
0.0
 10
424.4780565743545
 20
594.6424251271621
 30
0.0
  0
SPLINE
  5
82
330
1F
100
AcDbEntity
  8
0
  6
Continuous
 62
     7
370
    25
100
AcDbSpline
210
0.0
220
0.0
230
1.0
 70
     8
 71
     3
 72
    10
 73
     6
 74
     0
 42
0.00000001
 43
0.00000001
 40
0.0
 40
0.0
 40
0.0
 40
0.0
 40
0.270519767274804
 40
0.6900585277324287
 40
1.0
 40
1.0
 40
1.0
 40
1.0
 10
424.478106466089
 20
589.1394025658204
 30
0.0
 10
424.4792454764462
 20
589.1068963754791
 30
0.0
 10
424.4821509344026
 20
589.0239775778066
 30
0.0
 10
424.5385690276871
 20
588.9131214962765
 30
0.0
 10
424.5979365305134
 20
588.8499717098836
 30
0.0
 10
424.62316058787
 20
588.8231406363466
 30
0.0
  0
LINE
  5
83
330
1F
100
AcDbEntity
  8
0
  6
Continuous
 62
     7
370
    25
100
AcDbLine
 10
428.9658233103
 20
595.4908797807
 30
0.0
 11
425.4825026194
 21
595.2487122523
 31
0.0
  0
LINE
  5
84
330
1F
100
AcDbEntity
  8
0
  6
Continuous
 62
     7
370
    25
100
AcDbLine
 10
425.4825026194
 20
588.6352381516
 30
0.0
 11
428.9658233103
 21
588.3930706232
 31
0.0
  0
ARC
  5
85
330
1F
100
AcDbEntity
  8
0
  6
Continuous
 62
     7
370
    25
100
AcDbCircle
 10
481.9000443381
 20
591.941975202
 30
0.0
 40
9.14119630351394
100
AcDbArc
 50
295.4997205711
 51
0.0
  0
ARC
  5
86
330
1F
100
AcDbEntity
  8
0
  6
Continuous
 62
     7
370
    25
100
AcDbCircle
 10
481.9000443381
 20
591.941975202
 30
0.0
 40
9.141196303513937
100
AcDbArc
 50
0.0
 51
64.520479159
  0
SPLINE
  5
87
330
1F
100
AcDbEntity
  8
0
  6
Continuous
 62
     7
370
    25
100
AcDbSpline
210
0.0
220
0.0
230
1.0
 70
     8
 71
     3
 72
    17
 73
    13
 74
     0
 42
0.00000001
 43
0.00000001
 40
0.0
 40
0.0
 40
0.0
 40
0.0
 40
0.1727939157605292
 40
0.4670908646424644
 40
0.583603646444573
 40
0.6237329378319886
 40
0.6617158152047128
 40
0.7176264960718008
 40
0.7837734229449179
 40
0.864011767563451
 40
0.9541263261861292
 40
1.0
 40
1.0
 40
1.0
 40
1.0
 10
741.5175860567455
 20
588.8806594404374
 30
0.0
 10
741.6013796596153
 20
588.8866366104963
 30
0.0
 10
741.8278877877729
 20
588.9027939012126
 30
0.0
 10
742.0064921578012
 20
588.9195680441169
 30
0.0
 10
742.0884601407547
 20
588.9294853343854
 30
0.0
 10
742.15029106961
 20
588.9420177243439
 30
0.0
 10
742.2189186557
 20
588.9626388851052
 30
0.0
 10
742.3120383107979
 20
589.0087353267766
 30
0.0
 10
742.4142785518183
 20
589.0948489669491
 30
0.0
 10
742.4989771802475
 20
589.2264858134624
 30
0.0
 10
742.5421692189977
 20
589.3682742794861
 30
0.0
 10
742.5271115797597
 20
589.4570121287546
 30
0.0
 10
742.52203210179
 20
589.4869465655759
 30
0.0
  0
SPLINE
  5
88
330
1F
100
AcDbEntity
  8
0
  6
Continuous
 62
     7
370
    25
100
AcDbSpline
210
0.0
220
0.0
230
1.0
 70
     8
 71
     3
 72
    10
 73
     6
 74
     0
 42
0.00000001
 43
0.00000001
 40
0.0
 40
0.0
 40
0.0
 40
0.0
 40
0.2705197672748134
 40
0.6900585277324403
 40
1.0
 40
1.0
 40
1.0
 40
1.0
 10
742.5219822100555
 20
594.9899691269176
 30
0.0
 10
742.5208431996982
 20
595.0224753172589
 30
0.0
 10
742.517937741742
 20
595.1053941149315
 30
0.0
 10
742.4615196484574
 20
595.2162501964615
 30
0.0
 10
742.4021521456312
 20
595.2793999828546
 30
0.0
 10
742.3769280882744
 20
595.3062310563914
 30
0.0
  0
LINE
  5
89
330
1F
100
AcDbEntity
  8
0
  6
Continuous
 62
     7
370
    25
100
AcDbLine
 10
741.5175860567
 20
595.4941335411
 30
0.0
 11
738.0342653659
 21
595.7363010695
 31
0.0
  0
LINE
  5
8A
330
1F
100
AcDbEntity
  8
0
  6
Continuous
 62
     7
370
    25
100
AcDbLine
 10
738.0342653659
 20
588.6384919121
 30
0.0
 11
741.5175860567
 21
588.8806594404
 31
0.0
  0
ARC
  5
8B
330
1F
100
AcDbEntity
  8
0
  6
Continuous
 62
     7
370
    25
100
AcDbCircle
 10
693.2090595433
 20
589.215502015
 30
0.0
 40
8.999995138923055
100
AcDbArc
 50
257.1419190681
 51
270.0
  0
ARC
  5
8C
330
1F
100
AcDbEntity
  8
0
  6
Continuous
 62
     7
370
    25
100
AcDbCircle
 10
693.2090595433
 20
589.215502015
 30
0.0
 40
8.999995138923055
100
AcDbArc
 50
270.0
 51
305.1719294169
  0
SPLINE
  5
8D
330
1F
100
AcDbEntity
  8
0
  6
Continuous
 62
     7
370
    25
100
AcDbSpline
210
0.0
220
0.0
230
1.0
 70
     8
 71
     3
 72
    22
 73
    18
 74
     0
 42
0.00000001
 43
0.00000001
 40
0.0
 40
0.0
 40
0.0
 40
0.0
 40
0.0572864194646081
 40
0.1229381135129725
 40
0.1889690539883527
 40
0.2549999944638637
 40
0.3212149049680308
 40
0.3874333377052333
 40
0.4538274481666401
 40
0.5202215586272284
 40
0.5870010590344663
 40
0.6537806686213684
 40
0.7205436780598867
 40
0.7873066874969189
 40
0.8546458523711977
 40
0.9219850172464724
 40
1.0
 40
1.0
 40
1.0
 40
1.0
 10
575.6000443380722
 20
582.5527372740082
 30
0.0
 10
575.1476842492617
 20
582.949040802238
 30
0.0
 10
574.1769079908278
 20
583.7995182556108
 30
0.0
 10
572.9848970809484
 20
585.3988202409334
 30
0.0
 10
572.015264462117
 20
587.2371340869875
 30
0.0
 10
571.3651401908937
 20
589.2214204957194
 30
0.0
 10
571.0624008835567
 20
591.2881091450714
 30
0.0
 10
571.1033479236469
 20
593.3805916752781
 30
0.0
 10
571.4998425285269
 20
595.4373500252414
 30
0.0
 10
572.2294403111896
 20
597.4071434253499
 30
0.0
 10
573.2868641228578
 20
599.2269749106985
 30
0.0
 10
574.631925030733
 20
600.8509950562758
 30
0.0
 10
576.2340076839384
 20
602.2210875263927
 30
0.0
 10
578.0430453260209
 20
603.3167822013661
 30
0.0
 10
580.0176706506047
 20
604.0830270341539
 30
0.0
 10
582.2099840701036
 20
604.5656841182636
 30
0.0
 10
583.7376120003672
 20
604.5376539155375
 30
0.0
 10
584.5575257666925
 20
604.5226094478155
 30
0.0
  0
ARC
  5
8E
330
1F
100
AcDbEntity
  8
0
  6
Continuous
 62
     7
370
    25
100
AcDbCircle
 10
583.5000443381
 20
591.941975202
 30
0.0
 40
12.62499999999996
100
AcDbArc
 50
350.938753047
 51
85.1952241371
  0
LINE
  5
8F
330
1F
100
AcDbEntity
  8
0
  6
Continuous
 62
     7
370
    25
100
AcDbLine
 10
595.3948237044
 20
591.941975202
 30
0.0
 11
595.3260525209
 21
591.4165313521
 31
0.0
  0
SPLINE
  5
90
330
1F
100
AcDbEntity
  8
0
  6
Continuous
 62
     7
370
    25
100
AcDbSpline
210
0.0
220
0.0
230
1.0
 70
     8
 71
     3
 72
    10
 73
     6
 74
     0
 42
0.00000001
 43
0.00000001
 40
0.0
 40
0.0
 40
0.0
 40
0.0
 40
0.4366777435309245
 40
0.8650683835413501
 40
1.0
 40
1.0
 40
1.0
 40
1.0
 10
594.2736048798469
 20
586.900530029525
 30
0.0
 10
593.9414939524664
 20
586.2913800428354
 30
0.0
 10
593.2835747721064
 20
585.0846402853681
 30
0.0
 10
592.2980440401668
 20
583.7964513960926
 30
0.0
 10
591.5735751355098
 20
583.2656189749954
 30
0.0
 10
591.4000443380722
 20
583.1384695932254
 30
0.0
  0
SPLINE
  5
91
330
1F
100
AcDbEntity
  8
0
  6
Continuous
 62
     7
370
    25
100
AcDbSpline
210
0.0
220
0.0
230
1.0
 70
     8
 71
     3
 72
    10
 73
     6
 74
     0
 42
0.00000001
 43
0.00000001
 40
0.0
 40
0.0
 40
0.0
 40
0.0
 40
0.1614861643795461
 40
0.5801934759773473
 40
1.0
 40
1.0
 40
1.0
 40
1.0
 10
591.4000443380722
 20
582.8901798814135
 30
0.0
 10
591.602754397075
 20
583.0652318938284
 30
0.0
 10
592.3310586093911
 20
583.6941652513706
 30
0.0
 10
593.346440259787
 20
585.0315755321996
 30
0.0
 10
593.9642800299695
 20
586.2770009853783
 30
0.0
 10
594.2736048798469
 20
586.900530029525
 30
0.0
  0
ARC
  5
92
330
1F
100
AcDbEntity
  8
0
  6
Continuous
 62
     7
370
    25
100
AcDbCircle
 10
481.9000443381
 20
591.941975202
 30
0.0
 40
17.60000000000011
100
AcDbArc
 50
7.8284686027
 51
27.9531868834
  0
ARC
  5
93
330
1F
100
AcDbEntity
  8
0
  6
Continuous
 62
     7
370
    25
100
AcDbCircle
 10
481.9000443381
 20
591.941975202
 30
0.0
 40
17.60000000000014
100
AcDbArc
 50
332.0468131166
 51
352.9126000189
  0
ARC
  5
94
330
1F
100
AcDbEntity
  8
0
  6
Continuous
 62
     7
370
    25
100
AcDbCircle
 10
481.9000443381
 20
591.941975202
 30
0.0
 40
17.60000000000014
100
AcDbArc
 50
308.3524775834
 51
332.0468131166
  0
ARC
  5
95
330
1F
100
AcDbEntity
  8
0
  6
Continuous
 62
     7
370
    25
100
AcDbCircle
 10
481.9000443381
 20
591.941975202
 30
0.0
 40
17.60000000000025
100
AcDbArc
 50
247.7053216207
 51
291.9394873066
  0
ARC
  5
96
330
1F
100
AcDbEntity
  8
0
  6
Continuous
 62
     7
370
    25
100
AcDbCircle
 10
481.9000443381
 20
591.941975202
 30
0.0
 40
17.60000000000019
100
AcDbArc
 50
211.5427743269
 51
233.2869514371
  0
ARC
  5
97
330
1F
100
AcDbEntity
  8
0
  6
Continuous
 62
     7
370
    25
100
AcDbCircle
 10
481.9000443381
 20
591.941975202
 30
0.0
 40
17.60000000000014
100
AcDbArc
 50
128.2989892036
 51
148.4572256731
  0
ARC
  5
98
330
1F
100
AcDbEntity
  8
0
  6
Continuous
 62
     7
370
    25
100
AcDbCircle
 10
481.9000443381
 20
591.941975202
 30
0.0
 40
17.60000000000009
100
AcDbArc
 50
68.0922381153
 51
112.0468846828
  0
ARC
  5
99
330
1F
100
AcDbEntity
  8
0
  6
Continuous
 62
     7
370
    25
100
AcDbCircle
 10
481.9000443381
 20
591.941975202
 30
0.0
 40
17.60000000000009
100
AcDbArc
 50
27.9531868834
 51
52.2965225843
  0
ARC
  5
9A
330
1F
100
AcDbEntity
  8
0
  6
Continuous
 62
     7
370
    25
100
AcDbCircle
 10
685.1000443381
 20
591.941975202
 30
0.0
 40
17.60000000000016
100
AcDbArc
 50
152.0468131166
 51
172.4710217602
  0
ARC
  5
9B
330
1F
100
AcDbEntity
  8
0
  6
Continuous
 62
     7
370
    25
100
AcDbCircle
 10
685.1000443381
 20
591.941975202
 30
0.0
 40
17.60000000000016
100
AcDbArc
 50
187.7001886922
 51
207.9531868834
  0
ARC
  5
9C
330
1F
100
AcDbEntity
  8
0
  6
Continuous
 62
     7
370
    25
100
AcDbCircle
 10
685.1000443381
 20
591.941975202
 30
0.0
 40
17.60000000000014
100
AcDbArc
 50
207.9531868834
 51
231.9423049492
  0
ARC
  5
9D
330
1F
100
AcDbEntity
  8
0
  6
Continuous
 62
     7
370
    25
100
AcDbCircle
 10
685.1000443381
 20
591.941975202
 30
0.0
 40
17.60000000000013
100
AcDbArc
 50
248.3662117989
 51
292.6012741774
  0
ARC
  5
9E
330
1F
100
AcDbEntity
  8
0
  6
Continuous
 62
     7
370
    25
100
AcDbCircle
 10
685.1000443381
 20
591.941975202
 30
0.0
 40
17.60000000000014
100
AcDbArc
 50
307.4387102895
 51
329.914091969
  0
ARC
  5
9F
330
1F
100
AcDbEntity
  8
0
  6
Continuous
 62
     7
370
    25
100
AcDbCircle
 10
685.1000443381
 20
591.941975202
 30
0.0
 40
17.60000000000012
100
AcDbArc
 50
32.8335159483
 51
52.0595698702
  0
ARC
  5
A0
330
1F
100
AcDbEntity
  8
0
  6
Continuous
 62
     7
370
    25
100
AcDbCircle
 10
685.1000443381
 20
591.941975202
 30
0.0
 40
17.60000000000008
100
AcDbArc
 50
68.2372110924
 51
112.1945424058
  0
ARC
  5
A1
330
1F
100
AcDbEntity
  8
0
  6
Continuous
 62
     7
370
    25
100
AcDbCircle
 10
685.1000443381
 20
591.941975202
 30
0.0
 40
17.60000000000014
100
AcDbArc
 50
128.1352663927
 51
152.0468131166
  0
LWPOLYLINE
  5
A2
330
1F
100
AcDbEntity
  8
0
  6
Continuous
 62
     7
370
    25
100
AcDbPolyline
 90
        9
 70
   128
 43
0.0
 10
669.5534209105
 20
583.691975202
 10
669.1309368443
 20
584.2681914948
 10
668.5372130435
 20
584.7329083955
 10
667.7875515269
 20
585.0741487748
 10
666.9012732895
 20
585.2831178585
 10
665.9012203433
 20
585.3544298953
 10
664.8131670112
 20
585.2862469629
 10
663.6651556464
 20
585.0803263372
 10
662.4867738979
 20
584.741975202
  0
LWPOLYLINE
  5
A3
330
1F
100
AcDbEntity
  8
0
  6
Continuous
 62
     7
370
    25
100
AcDbPolyline
 90
        9
 70
   128
 43
0.0
 10
662.4867738979
 20
599.141975202
 10
663.6651556464
 20
598.8036240667
 10
664.8131670112
 20
598.597703441
 10
665.9012203433
 20
598.5295205086
 10
666.9012732895
 20
598.6008325454
 10
667.7875515269
 20
598.8098016291
 10
668.5372130435
 20
599.1510420084
 10
669.1309368443
 20
599.6157589091
 10
669.5534209105
 20
600.191975202
  0
LWPOLYLINE
  5
A4
330
1F
100
AcDbEntity
  8
0
  6
Continuous
 62
     7
370
    25
100
AcDbPolyline
 90
        9
 70
   128
 43
0.0
 10
504.5133147782
 20
599.141975202
 10
503.3349330298
 20
598.8036240667
 10
502.186921665
 20
598.597703441
 10
501.0988683329
 20
598.5295205086
 10
500.0988153867
 20
598.6008325454
 10
499.2125371492
 20
598.8098016291
 10
498.4628756326
 20
599.1510420084
 10
497.8691518318
 20
599.6157589091
 10
497.4466677657
 20
600.191975202
  0
SPLINE
  5
A5
330
1F
100
AcDbEntity
  8
0
  6
Continuous
 62
     7
370
    25
100
AcDbSpline
210
0.0
220
0.0
230
1.0
 70
     8
 71
     3
 72
    30
 73
    26
 74
     0
 42
0.00000001
 43
0.00000001
 40
0.0
 40
0.0
 40
0.0
 40
0.0
 40
0.1250000000000007
 40
0.1250000000000007
 40
0.1875000000000002
 40
0.1875000000000002
 40
0.2499999999999997
 40
0.2499999999999997
 40
0.3749999999999995
 40
0.3749999999999995
 40
0.4999999999999993
 40
0.4999999999999993
 40
0.5624999999999992
 40
0.5624999999999992
 40
0.6249999999999991
 40
0.6249999999999991
 40
0.7499999999999992
 40
0.7499999999999992
 40
0.8124999999999994
 40
0.8124999999999994
 40
0.8749999999999997
 40
0.8749999999999997
 40
0.9374999999999999
 40
0.9374999999999999
 40
1.0
 40
1.0
 40
1.0
 40
1.0
 10
662.486773897908
 20
584.7419752019548
 30
0.0
 10
662.093661269827
 20
585.1864533105669
 30
0.0
 10
661.7685057107456
 20
585.6810618422121
 30
0.0
 10
661.3758989901161
 20
586.5076270488365
 30
0.0
 10
661.2622181326626
 20
586.7948368534244
 30
0.0
 10
661.0678608755151
 20
587.3825906377809
 30
0.0
 10
660.9865023434933
 20
587.6845289485093
 30
0.0
 10
660.7815113020553
 20
588.6134788325983
 30
0.0
 10
660.6964594292433
 20
589.2682378594997
 30
0.0
 10
660.5921755101256
 20
590.6028627253
 30
0.0
 10
660.5718127997577
 20
591.2734502344322
 30
0.0
 10
660.5718553024138
 20
592.2781570386506
 30
0.0
 10
660.5773068252377
 20
592.6131897363764
 30
0.0
 10
660.6006120718778
 20
593.2835243338782
 30
0.0
 10
660.6186238314995
 20
593.6205403535635
 30
0.0
 10
660.6967646730645
 20
594.6176647274704
 30
0.0
 10
660.7800489104213
 20
595.2622889136306
 30
0.0
 10
660.9854598618366
 20
596.1954650577521
 30
0.0
 10
661.068122991916
 20
596.5026687539332
 30
0.0
 10
661.2646405391433
 20
597.0959156945306
 30
0.0
 10
661.3777259018434
 20
597.3802512626853
 30
0.0
 10
661.6364954815401
 20
597.9248820911843
 30
0.0
 10
661.7821722245902
 20
598.1851787189638
 30
0.0
 10
662.1086671638973
 20
598.6823108049235
 30
0.0
 10
662.2901309572371
 20
598.9196382020788
 30
0.0
 10
662.4867738979075
 20
599.1419752019551
 30
0.0
  0
LWPOLYLINE
  5
A6
330
1F
100
AcDbEntity
  8
0
  6
Continuous
 62
     7
370
    25
100
AcDbPolyline
 90
        9
 70
   128
 43
0.0
 10
497.4466677657
 20
583.691975202
 10
497.8691518319
 20
584.2681914948
 10
498.4628756326
 20
584.7329083955
 10
499.2125371492
 20
585.0741487748
 10
500.0988153867
 20
585.2831178585
 10
501.0988683329
 20
585.3544298953
 10
502.186921665
 20
585.2862469629
 10
503.3349330298
 20
585.0803263372
 10
504.5133147782
 20
584.741975202
  0
SPLINE
  5
A7
330
1F
100
AcDbEntity
  8
0
  6
Continuous
 62
     7
370
    25
100
AcDbSpline
210
0.0
220
0.0
230
1.0
 70
     8
 71
     3
 72
    26
 73
    22
 74
     0
 42
0.00000001
 43
0.00000001
 40
0.0
 40
0.0
 40
0.0
 40
0.0
 40
0.1250000000000003
 40
0.1250000000000003
 40
0.1875
 40
0.1875
 40
0.2499999999999997
 40
0.2499999999999997
 40
0.3749999999999996
 40
0.3749999999999996
 40
0.4374999999999996
 40
0.4374999999999996
 40
0.4999999999999997
 40
0.4999999999999997
 40
0.6249999999999998
 40
0.6249999999999998
 40
0.7499999999999998
 40
0.7499999999999998
 40
0.8749999999999999
 40
0.8749999999999999
 40
1.0
 40
1.0
 40
1.0
 40
1.0
 10
504.5133147782278
 20
599.1419752019646
 30
0.0
 10
504.9060899358291
 20
598.6978786589157
 30
0.0
 10
505.2300266934269
 20
598.2048579725929
 30
0.0
 10
505.6208993859216
 20
597.3838938758371
 30
0.0
 10
505.7355755328994
 20
597.0956636421027
 30
0.0
 10
505.932523293916
 20
596.5008524506201
 30
0.0
 10
506.0148642761268
 20
596.1945040849326
 30
0.0
 10
506.2200663868208
 20
595.2619501317483
 30
0.0
 10
506.3032958383178
 20
594.6177731765066
 30
0.0
 10
506.3814103728305
 20
593.6213607568899
 30
0.0
 10
506.3994237100886
 20
593.2845793232162
 30
0.0
 10
506.4227451262342
 20
592.6147106862487
 30
0.0
 10
506.4282112561397
 20
592.2799107926355
 30
0.0
 10
506.4283196638044
 20
591.2759018607089
 30
0.0
 10
506.4079792848891
 20
590.6051907450045
 30
0.0
 10
506.304097524269
 20
589.272756635562
 30
0.0
 10
506.2209399847882
 20
588.6274396174442
 30
0.0
 10
505.9478165822747
 20
587.3832865339338
 30
0.0
 10
505.7540989846075
 20
586.7807345590467
 30
0.0
 10
505.2309057221622
 20
585.6800311958567
 30
0.0
 10
504.906017769182
 20
585.1859901488003
 30
0.0
 10
504.5133147782365
 20
584.7419752019548
 30
0.0
  0
ARC
  5
A8
330
1F
100
AcDbEntity
  8
0
  6
Continuous
 62
     7
370
    25
100
AcDbCircle
 10
583.5000443381
 20
236.341975202
 30
0.0
 40
7.900000000000091
100
AcDbArc
 50
180.0
 51
0.0
  0
ARC
  5
A9
330
1F
100
AcDbEntity
  8
0
  6
Continuous
 62
     7
370
    25
100
AcDbCircle
 10
583.5000443381
 20
236.341975202
 30
0.0
 40
10.82500000000005
100
AcDbArc
 50
136.8689719021
 51
180.0
  0
ARC
  5
AA
330
1F
100
AcDbEntity
  8
0
  6
Continuous
 62
     7
370
    25
100
AcDbCircle
 10
583.5000443381
 20
236.341975202
 30
0.0
 40
10.82500000000005
100
AcDbArc
 50
180.0
 51
43.1310280979
  0
ARC
  5
AB
330
1F
100
AcDbEntity
  8
0
  6
Continuous
 62
     7
370
    25
100
AcDbCircle
 10
583.5000443381
 20
591.941975202
 30
0.0
 40
7.900000000000091
100
AcDbArc
 50
0.0
 51
180.0
  0
LWPOLYLINE
  5
AC
330
1F
100
AcDbEntity
  8
0
  6
Continuous
 62
     7
370
    25
100
AcDbPolyline
 90
       32
 70
   128
 43
0.0
 10
580.0323348177
 20
584.9611206524
 10
577.8475771237
 20
586.4229522458
 10
576.3392105191
 20
588.6054412194
 10
575.6384243103
 20
591.1642023948
 10
575.8242590749
 20
593.8107503606
 10
576.8757409738
 20
596.2464618076
 10
578.6743667042
 20
598.1968001695
 10
581.0171535743
 20
599.4416587589
 10
583.6400283926
 20
599.8407348808
 10
586.247060115
 20
599.3489924371
 10
588.5442846996
 20
598.0219126338
 10
590.2726724959
 20
596.0091004565
 10
591.2372117365
 20
593.5376696117
 10
591.3291751071
 20
590.8861762623
 10
590.5381828948
 20
588.3538551292
 10
588.953401745
 20
586.2261294209
 10
586.7536348748
 20
584.7430760764
 10
584.1869409127
 20
584.0718943195
 10
581.5427216055
 20
584.2882906174
 10
579.1193189988
 20
585.36784062
 10
577.1898891393
 20
587.188877121
 10
575.9721786368
 20
589.5458871435
 10
575.603428985
 20
592.1732022889
 10
576.1252564696
 20
594.7743776972
 10
577.4787917696
 20
597.0561239588
 10
579.5114339018
 20
598.7611384048
 10
581.9938437971
 20
599.6970612705
 10
584.6462222327
 20
599.7583859021
 10
587.16923483
 20
598.9381914032
 10
589.2785133056
 20
597.3289313361
 10
589.6290129993
 20
596.9265256481
 10
589.6290129993
 20
596.9265256481
  0
ARC
  5
AD
330
1F
100
AcDbEntity
  8
0
  6
Continuous
 62
     7
370
    25
100
AcDbCircle
 10
583.5000443381
 20
591.941975202
 30
0.0
 40
10.50000000000007
100
AcDbArc
 50
0.0
 51
221.2029536038
  0
ARC
  5
AE
330
1F
100
AcDbEntity
  8
0
  6
Continuous
 62
     7
370
    25
100
AcDbCircle
 10
583.5000443381
 20
591.941975202
 30
0.0
 40
10.49999999999998
100
AcDbArc
 50
318.7970463962
 51
0.0
  0
ARC
  5
AF
330
1F
100
AcDbEntity
  8
0
  6
Continuous
 62
     7
370
    25
100
AcDbCircle
 10
583.5000443381
 20
591.941975202
 30
0.0
 40
9.600000000000104
100
AcDbArc
 50
0.0
 51
214.6221618397
  0
ARC
  5
B0
330
1F
100
AcDbEntity
  8
0
  6
Continuous
 62
     7
370
    25
100
AcDbCircle
 10
583.5000443381
 20
591.941975202
 30
0.0
 40
9.60000000000001
100
AcDbArc
 50
325.3778381603
 51
0.0
  0
ARC
  5
B1
330
1F
100
AcDbEntity
  8
0
  6
Continuous
 62
     7
370
    25
100
AcDbCircle
 10
583.5000443381
 20
236.341975202
 30
0.0
 40
11.55000000000006
100
AcDbArc
 50
133.1556534408
 51
274.9657006069
  0
ARC
  5
B2
330
1F
100
AcDbEntity
  8
0
  6
Continuous
 62
     7
370
    25
100
AcDbCircle
 10
583.5000443381
 20
236.341975202
 30
0.0
 40
11.54999999999998
100
AcDbArc
 50
274.9657006069
 51
46.8443465592
  0
ARC
  5
B3
330
1F
100
AcDbEntity
  8
0
  6
Continuous
 62
     7
370
    25
100
AcDbCircle
 10
583.5000443381
 20
591.941975202
 30
0.0
 40
14.22500000000008
100
AcDbArc
 50
303.7355336397
 51
223.2235523034
  0
LWPOLYLINE
  5
B4
330
1F
100
AcDbEntity
  8
0
  6
Continuous
 62
     7
370
    25
100
AcDbPolyline
 90
        3
 70
   128
 43
0.0
 10
575.6000443381
 20
580.1123249535
 10
574.7860625912
 20
580.6984371861
 10
573.1344693118
 20
582.2000308696
  0
LINE
  5
B5
330
1F
100
AcDbEntity
  8
0
  6
Continuous
 62
     7
370
    25
100
AcDbLine
 10
591.3748242521
 20
604.0786312895
 30
0.0
 11
591.242792071
 21
603.8751425327
 31
0.0
  0
SPLINE
  5
B6
330
1F
100
AcDbEntity
  8
0
  6
Continuous
 62
     7
370
    25
100
AcDbSpline
210
0.0
220
0.0
230
1.0
 70
     8
 71
     3
 72
    11
 73
     7
 74
     0
 42
0.00000001
 43
0.00000001
 40
0.0
 40
0.0
 40
0.0
 40
0.0
 40
0.1446702591042557
 40
0.3907520209323692
 40
0.5962314811354859
 40
0.9999999999999999
 40
0.9999999999999999
 40
0.9999999999999999
 40
0.9999999999999999
 10
596.1013739662426
 20
599.049511433565
 30
0.0
 10
595.9022560697275
 20
599.3170093935605
 30
0.0
 10
595.3644418641759
 20
600.039517040334
 30
0.0
 10
594.4748639102239
 20
601.0893111523991
 30
0.0
 10
593.132056624139
 20
602.5359570032876
 30
0.0
 10
592.0752226302055
 20
603.4637515586132
 30
0.0
 10
591.3748242520784
 20
604.078631289503
 30
0.0
  0
LINE
  5
B7
330
1F
100
AcDbEntity
  8
0
  6
Continuous
 62
     7
370
    25
100
AcDbLine
 10
595.8900942792
 20
598.9303432128
 30
0.0
 11
596.1013739662
 21
599.0495114336
 31
0.0
  0
LINE
  5
B8
330
1F
100
AcDbEntity
  8
0
  6
Continuous
 62
     7
370
    25
100
AcDbLine
 10
569.0520018923
 20
592.6934066129
 30
0.0
 11
569.2942444155
 21
592.6808077684
 31
0.0
  0
SPLINE
  5
B9
330
1F
100
AcDbEntity
  8
0
  6
Continuous
 62
     7
370
    25
100
AcDbSpline
210
0.0
220
0.0
230
1.0
 70
     8
 71
     3
 72
    11
 73
     7
 74
     0
 42
0.00000001
 43
0.00000001
 40
0.0
 40
0.0
 40
0.0
 40
0.0
 40
0.144670259104256
 40
0.3907520209323621
 40
0.5962314811354645
 40
1.0
 40
1.0
 40
1.0
 40
1.0
 10
571.0440725890941
 20
599.3012786656066
 30
0.0
 10
570.911971508535
 20
598.9950885288785
 30
0.0
 10
570.5551686347765
 20
598.168073940968
 30
0.0
 10
570.0908092419608
 20
596.8727797781665
 30
0.0
 10
569.5093808278544
 20
594.9865516305858
 30
0.0
 10
569.2343041704163
 20
593.6074092665938
 30
0.0
 10
569.0520018922571
 20
592.6934066129212
 30
0.0
  0
LINE
  5
BA
330
1F
100
AcDbEntity
  8
0
  6
Continuous
 62
     7
370
    25
100
AcDbLine
 10
571.0440725891
 20
599.3012786656
 30
0.0
 11
571.2529151391
 21
599.1778891997
 31
0.0
  0
LINE
  5
BB
330
1F
100
AcDbEntity
  8
0
  6
Continuous
 62
     7
370
    25
100
AcDbLine
 10
576.9267818063
 20
604.8300627005
 30
0.0
 11
577.0369921485
 21
604.6139750991
 31
0.0
  0
SPLINE
  5
BC
330
1F
100
AcDbEntity
  8
0
  6
Continuous
 62
     7
370
    25
100
AcDbSpline
210
0.0
220
0.0
230
1.0
 70
     8
 71
     3
 72
    11
 73
     7
 74
     0
 42
0.00000001
 43
0.00000001
 40
0.0
 40
0.0
 40
0.0
 40
0.0
 40
0.1446702591042559
 40
0.390752020932366
 40
0.5962314811354593
 40
1.0
 40
1.0
 40
1.0
 40
1.0
 10
583.6454022172645
 20
606.4088148972169
 30
0.0
 10
583.3141832401903
 20
606.3701227204845
 30
0.0
 10
582.4195661608802
 20
606.2656157793474
 30
0.0
 10
581.0656288141126
 20
606.0201157286109
 30
0.0
 10
579.1413931139213
 20
605.5805334319188
 30
0.0
 10
577.8094824625497
 20
605.1291856232523
 30
0.0
 10
576.9267818062633
 20
604.8300627004697
 30
0.0
  0
LINE
  5
BD
330
1F
100
AcDbEntity
  8
0
  6
Continuous
 62
     7
370
    25
100
AcDbLine
 10
583.6454022173
 20
606.4088148972
 30
0.0
 11
583.6429650802
 21
606.1662572106
 31
0.0
  0
SPLINE
  5
BE
330
1F
100
AcDbEntity
  8
0
  6
Continuous
 62
     7
370
    25
100
AcDbSpline
210
0.0
220
0.0
230
1.0
 70
     8
 71
     3
 72
    11
 73
     7
 74
     0
 42
0.00000001
 43
0.00000001
 40
0.0
 40
0.0
 40
0.0
 40
0.0
 40
0.1446702591042542
 40
0.3907520209323655
 40
0.596231481135479
 40
1.0
 40
1.0
 40
1.0
 40
1.0
 10
570.8987147099017
 20
584.8344389703443
 30
0.0
 10
571.0978326064169
 20
584.5669410103487
 30
0.0
 10
571.6356468119685
 20
583.8444333635753
 30
0.0
 10
572.5252247659205
 20
582.7946392515103
 30
0.0
 10
573.8680320520056
 20
581.3479934006216
 30
0.0
 10
574.924866045939
 20
580.420198845296
 30
0.0
 10
575.625264424066
 20
579.8053191144062
 30
0.0
  0
LINE
  5
BF
330
1F
100
AcDbEntity
  8
0
  6
Continuous
 62
     7
370
    25
100
AcDbLine
 10
570.8987147099
 20
584.8344389703
 30
0.0
 11
571.1099943969
 21
584.9536071911
 31
0.0
  0
LINE
  5
C0
330
1F
100
AcDbEntity
  8
0
  6
Continuous
 62
     7
370
    25
100
AcDbLine
 10
597.7058442606
 20
591.2031426356
 30
0.0
 11
597.9480867839
 21
591.190543791
 31
0.0
  0
SPLINE
  5
C1
330
1F
100
AcDbEntity
  8
0
  6
Continuous
 62
     7
370
    25
100
AcDbSpline
210
0.0
220
0.0
230
1.0
 70
     8
 71
     3
 72
    11
 73
     7
 74
     0
 42
0.00000001
 43
0.00000001
 40
0.0
 40
0.0
 40
0.0
 40
0.0
 40
0.1446702591042545
 40
0.3907520209323574
 40
0.596231481135475
 40
0.9999999999999999
 40
0.9999999999999999
 40
0.9999999999999999
 40
0.9999999999999999
 10
595.9560160870503
 20
584.5826717383027
 30
0.0
 10
596.0881171676093
 20
584.8888618750308
 30
0.0
 10
596.4449200413679
 20
585.7158764629413
 30
0.0
 10
596.9092794341836
 20
587.0111706257428
 30
0.0
 10
597.4907078482901
 20
588.8973987733236
 30
0.0
 10
597.765784505728
 20
590.2765411373157
 30
0.0
 10
597.9480867838873
 20
591.190543790988
 30
0.0
  0
LINE
  5
C2
330
1F
100
AcDbEntity
  8
0
  6
Continuous
 62
     7
370
    25
100
AcDbLine
 10
595.7471735371
 20
584.7060612042
 30
0.0
 11
595.9560160871
 21
584.5826717383
 31
0.0
  0
SPLINE
  5
C3
330
1F
100
AcDbEntity
  8
0
  6
Continuous
 62
     7
370
    25
100
AcDbSpline
210
0.0
220
0.0
230
1.0
 70
     8
 71
     3
 72
     9
 73
     5
 74
     0
 42
0.00000001
 43
0.00000001
 40
0.0
 40
0.0
 40
0.0
 40
0.0
 40
0.586384789828358
 40
1.0
 40
1.0
 40
1.0
 40
1.0
 10
595.2300455095736
 20
583.0407001519084
 30
0.0
 10
595.3776220560061
 20
583.3398381935971
 30
0.0
 10
595.6292939086742
 20
583.8499776905238
 30
0.0
 10
595.8604191654097
 20
584.368289917576
 30
0.0
 10
595.9560160870503
 20
584.5826717383027
 30
0.0
  0
ARC
  5
C4
330
1F
100
AcDbEntity
  8
0
  6
Continuous
 62
     7
370
    25
100
AcDbCircle
 10
583.5000443381
 20
591.941975202
 30
0.0
 40
14.72499999999999
100
AcDbArc
 50
303.6400367407
 51
322.8070678661
  0
SPLINE
  5
C5
330
1F
100
AcDbEntity
  8
0
  6
Continuous
 62
     7
370
    25
100
AcDbSpline
210
0.0
220
0.0
230
1.0
 70
     8
 71
     3
 72
     9
 73
     5
 74
     0
 42
0.00000001
 43
0.00000001
 40
0.0
 40
0.0
 40
0.0
 40
0.0
 40
0.5862283062032674
 40
0.9999999999999999
 40
0.9999999999999999
 40
0.9999999999999999
 40
0.9999999999999999
 10
569.0520018922571
 20
592.6934066129212
 30
0.0
 10
568.9977492550012
 20
592.3650807579055
 30
0.0
 10
568.9052040184749
 20
591.8050159307014
 30
0.0
 10
568.8341504032772
 20
591.2406390701672
 30
0.0
 10
568.8047504285666
 20
591.0071159006442
 30
0.0
  0
SPLINE
  5
C6
330
1F
100
AcDbEntity
  8
0
  6
Continuous
 62
     7
370
    25
100
AcDbSpline
210
0.0
220
0.0
230
1.0
 70
     8
 71
     3
 72
     9
 73
     5
 74
     0
 42
0.00000001
 43
0.00000001
 40
0.0
 40
0.0
 40
0.0
 40
0.0
 40
0.5863847898283641
 40
1.0
 40
1.0
 40
1.0
 40
1.0
 10
569.9263134329088
 20
586.2341337260362
 30
0.0
 10
570.1115863030333
 20
585.9567596669787
 30
0.0
 10
570.4275441405117
 20
585.4837357006872
 30
0.0
 10
570.7608530678632
 20
585.024419243372
 30
0.0
 10
570.8987147099017
 20
584.8344389703443
 30
0.0
  0
ARC
  5
C7
330
1F
100
AcDbEntity
  8
0
  6
Continuous
 62
     7
370
    25
100
AcDbCircle
 10
583.5000443381
 20
591.941975202
 30
0.0
 40
14.72500000000008
100
AcDbArc
 50
183.6400367407
 51
202.8070678661
  0
SPLINE
  5
C8
330
1F
100
AcDbEntity
  8
0
  6
Continuous
 62
     7
370
    25
100
AcDbSpline
210
0.0
220
0.0
230
1.0
 70
     8
 71
     3
 72
     9
 73
     5
 74
     0
 42
0.00000001
 43
0.00000001
 40
0.0
 40
0.0
 40
0.0
 40
0.0
 40
0.586228306203287
 40
1.0
 40
1.0
 40
1.0
 40
1.0
 10
597.9480867838873
 20
591.190543790988
 30
0.0
 10
598.0023394211433
 20
591.5188696460038
 30
0.0
 10
598.0948846576696
 20
592.0789344732078
 30
0.0
 10
598.1659382728672
 20
592.6433113337422
 30
0.0
 10
598.1953382475779
 20
592.8768345032652
 30
0.0
  0
SPLINE
  5
C9
330
1F
100
AcDbEntity
  8
0
  6
Continuous
 62
     7
370
    25
100
AcDbSpline
210
0.0
220
0.0
230
1.0
 70
     8
 71
     3
 72
     9
 73
     5
 74
     0
 42
0.00000001
 43
0.00000001
 40
0.0
 40
0.0
 40
0.0
 40
0.0
 40
0.5863847898283613
 40
1.0
 40
1.0
 40
1.0
 40
1.0
 10
597.0737752432356
 20
597.649816677873
 30
0.0
 10
596.8885023731112
 20
597.9271907369306
 30
0.0
 10
596.5725445356327
 20
598.400214703222
 30
0.0
 10
596.2392356082812
 20
598.8595311605372
 30
0.0
 10
596.1013739662426
 20
599.049511433565
 30
0.0
  0
ARC
  5
CA
330
1F
100
AcDbEntity
  8
0
  6
Continuous
 62
     7
370
    25
100
AcDbCircle
 10
583.5000443381
 20
591.941975202
 30
0.0
 40
14.72499999999998
100
AcDbArc
 50
3.6400367407
 51
22.8070678661
  0
SPLINE
  5
CB
330
1F
100
AcDbEntity
  8
0
  6
Continuous
 62
     7
370
    25
100
AcDbSpline
210
0.0
220
0.0
230
1.0
 70
     8
 71
     3
 72
     9
 73
     5
 74
     0
 42
0.00000001
 43
0.00000001
 40
0.0
 40
0.0
 40
0.0
 40
0.0
 40
0.58622830620327
 40
1.0
 40
1.0
 40
1.0
 40
1.0
 10
576.9267818062633
 20
604.8300627004697
 30
0.0
 10
576.6153169564724
 20
604.7128839350478
 30
0.0
 10
576.0840139700845
 20
604.5129980472767
 30
0.0
 10
575.5597224639548
 20
604.2923438528014
 30
0.0
 10
575.3427854794203
 20
604.20104339301
 30
0.0
  0
SPLINE
  5
CC
330
1F
100
AcDbEntity
  8
0
  6
Continuous
 62
     7
370
    25
100
AcDbSpline
210
0.0
220
0.0
230
1.0
 70
     8
 71
     3
 72
     9
 73
     5
 74
     0
 42
0.00000001
 43
0.00000001
 40
0.0
 40
0.0
 40
0.0
 40
0.0
 40
0.5863847898283645
 40
1.0
 40
1.0
 40
1.0
 40
1.0
 10
571.7700431665708
 20
600.8432502520009
 30
0.0
 10
571.6224666201383
 20
600.5441122103123
 30
0.0
 10
571.3707947674702
 20
600.0339727133854
 30
0.0
 10
571.1396695107347
 20
599.5156604863332
 30
0.0
 10
571.0440725890941
 20
599.3012786656066
 30
0.0
  0
ARC
  5
CD
330
1F
100
AcDbEntity
  8
0
  6
Continuous
 62
     7
370
    25
100
AcDbCircle
 10
583.5000443381
 20
591.941975202
 30
0.0
 40
14.72500000000008
100
AcDbArc
 50
123.6400367407
 51
142.8070678661
  0
SPLINE
  5
CE
330
1F
100
AcDbEntity
  8
0
  6
Continuous
 62
     7
370
    25
100
AcDbSpline
210
0.0
220
0.0
230
1.0
 70
     8
 71
     3
 72
     9
 73
     5
 74
     0
 42
0.00000001
 43
0.00000001
 40
0.0
 40
0.0
 40
0.0
 40
0.0
 40
0.5862283062032709
 40
1.0
 40
1.0
 40
1.0
 40
1.0
 10
591.3748242520784
 20
604.078631289503
 30
0.0
 10
591.1176120395435
 20
604.2897783790969
 30
0.0
 10
590.6788542896818
 20
604.6499573185299
 30
0.0
 10
590.2256163987498
 20
604.993679984589
 30
0.0
 10
590.0380793889259
 20
605.1359026943205
 30
0.0
  0
SPLINE
  5
CF
330
1F
100
AcDbEntity
  8
0
  6
Continuous
 62
     7
370
    25
100
AcDbSpline
210
0.0
220
0.0
230
1.0
 70
     8
 71
     3
 72
     9
 73
     5
 74
     0
 42
0.00000001
 43
0.00000001
 40
0.0
 40
0.0
 40
0.0
 40
0.0
 40
0.5863847898283634
 40
1.0
 40
1.0
 40
1.0
 40
1.0
 10
585.3437740717342
 20
606.5510917279192
 30
0.0
 10
585.0109246551772
 20
606.5293277452881
 30
0.0
 10
584.4432949650308
 20
606.4922122146528
 30
0.0
 10
583.8788607809438
 20
606.4332164449158
 30
0.0
 10
583.6454022172645
 20
606.4088148972169
 30
0.0
  0
ARC
  5
D0
330
1F
100
AcDbEntity
  8
0
  6
Continuous
 62
     7
370
    25
100
AcDbCircle
 10
583.5000443381
 20
591.941975202
 30
0.0
 40
14.72500000000006
100
AcDbArc
 50
63.6400367407
 51
82.8070678661
  0
SPLINE
  5
D1
330
1F
100
AcDbEntity
  8
0
  6
Continuous
 62
     7
370
    25
100
AcDbSpline
210
0.0
220
0.0
230
1.0
 70
    24
 71
     3
 72
    12
 73
     8
 74
     0
 42
0.00000001
 43
0.00000001
 40
0.0
 40
0.0
 40
0.0
 40
0.0
 40
0.3013828945620945
 40
0.4108442493795588
 40
0.6247185195336505
 40
0.6986171054378635
 40
0.9999999999999999
 40
0.9999999999999999
 40
0.9999999999999999
 40
0.9999999999999999
 10
575.4010414769455
 20
579.6788504981853
 30
0.0
 10
574.9359380251041
 20
580.1737275535796
 30
0.0
 10
574.3019104077331
 20
580.8483424571696
 30
0.0
 10
573.3331944591982
 20
581.8790707698203
 30
0.0
 10
572.7160696542495
 20
582.5357008272296
 30
0.0
 10
571.8028194277285
 20
583.5074127789463
 30
0.0
 10
571.223686770052
 20
584.1236186212789
 30
0.0
 10
570.7585940708624
 20
584.6184842356903
 30
0.0
  0
ARC
  5
D2
330
1F
100
AcDbEntity
  8
0
  6
Continuous
 62
     7
370
    25
100
AcDbCircle
 10
571.1367598799
 20
584.5265496254
 30
0.0
 40
0.389180358798735
100
AcDbArc
 50
127.7094634935
 51
166.3360839425
  0
SPLINE
  5
D3
330
1F
100
AcDbEntity
  8
0
  6
Continuous
 62
     7
370
    25
100
AcDbSpline
210
0.0
220
0.0
230
1.0
 70
    24
 71
     3
 72
    12
 73
     8
 74
     0
 42
0.00000001
 43
0.00000001
 40
0.0
 40
0.0
 40
0.0
 40
0.0
 40
0.3013828945620993
 40
0.4108442493795574
 40
0.6247185195336497
 40
0.6986171054378605
 40
1.0
 40
1.0
 40
1.0
 40
1.0
 10
598.1697232918764
 20
591.0595953307807
 30
0.0
 10
597.9736989160755
 20
590.4093653984011
 30
0.0
 10
597.7064790804804
 20
589.5229739232619
 30
0.0
 10
597.2982001515925
 20
588.1686771464542
 30
0.0
 10
597.038104243462
 20
587.3059163593584
 30
0.0
 10
596.6532021213749
 20
586.029162487321
 30
0.0
 10
596.4091185367928
 20
585.2195159724458
 30
0.0
 10
596.2130986928479
 20
584.569301072627
 30
0.0
  0
ARC
  5
D4
330
1F
100
AcDbEntity
  8
0
  6
Continuous
 62
     7
370
    25
100
AcDbCircle
 10
596.1036334963
 20
584.9427695752
 30
0.0
 40
0.389180358798283
100
AcDbArc
 50
247.7094634934
 51
286.3360839425
  0
ARC
  5
D5
330
1F
100
AcDbEntity
  8
0
  6
Continuous
 62
     7
370
    25
100
AcDbCircle
 10
597.8720791297
 20
590.8088578099
 30
0.0
 40
0.3891803587975222
100
AcDbArc
 50
40.1110206643
 51
78.7376411134
  0
ARC
  5
D6
330
1F
100
AcDbEntity
  8
0
  6
Continuous
 62
     7
370
    25
100
AcDbCircle
 10
569.1280095465
 20
593.0750925941
 30
0.0
 40
0.3891803588385351
100
AcDbArc
 50
220.1110206665
 51
258.7376411113
  0
SPLINE
  5
D7
330
1F
100
AcDbEntity
  8
0
  6
Continuous
 62
     7
370
    25
100
AcDbSpline
210
0.0
220
0.0
230
1.0
 70
    24
 71
     3
 72
    12
 73
     8
 74
     0
 42
0.00000001
 43
0.00000001
 40
0.0
 40
0.0
 40
0.0
 40
0.0
 40
0.3013828945621505
 40
0.4108442493795785
 40
0.6247185195336594
 40
0.6986171054378614
 40
1.0
 40
1.0
 40
1.0
 40
1.0
 10
568.8303653842681
 20
592.8243550731286
 30
0.0
 10
569.026389760069
 20
593.4745850055083
 30
0.0
 10
569.293609595664
 20
594.3609764806477
 30
0.0
 10
569.7018885245519
 20
595.7152732574552
 30
0.0
 10
569.9619844326825
 20
596.5780340445509
 30
0.0
 10
570.3468865547695
 20
597.8547879165883
 30
0.0
 10
570.5909701393516
 20
598.6644344314635
 30
0.0
 10
570.7869899832966
 20
599.3146493312822
 30
0.0
  0
ARC
  5
D8
330
1F
100
AcDbEntity
  8
0
  6
Continuous
 62
     7
370
    25
100
AcDbCircle
 10
570.8964551798
 20
598.9411808287
 30
0.0
 40
0.3891803587964148
100
AcDbArc
 50
67.7094634934
 51
106.3360839426
  0
ARC
  5
D9
330
1F
100
AcDbEntity
  8
0
  6
Continuous
 62
     7
370
    25
100
AcDbCircle
 10
577.2953353893
 20
604.9550811316
 30
0.0
 40
0.3891803588375738
100
AcDbArc
 50
160.1110206664
 51
198.7376411113
  0
SPLINE
  5
DA
330
1F
100
AcDbEntity
  8
0
  6
Continuous
 62
     7
370
    25
100
AcDbSpline
210
0.0
220
0.0
230
1.0
 70
    24
 71
     3
 72
    12
 73
     8
 74
     0
 42
0.00000001
 43
0.00000001
 40
0.0
 40
0.0
 40
0.0
 40
0.0
 40
0.3013828945621499
 40
0.4108442493795587
 40
0.6247185195336379
 40
0.6986171054378637
 40
1.0
 40
1.0
 40
1.0
 40
1.0
 10
576.9293682453949
 20
605.0874797768979
 30
0.0
 10
577.5904960730372
 20
605.2428326538833
 30
0.0
 10
578.4917435260032
 20
605.4546092254325
 30
0.0
 10
579.8687384034259
 20
605.7781776895894
 30
0.0
 10
580.7459591165051
 20
605.9843084192759
 30
0.0
 10
582.0441114651132
 20
606.2893503395965
 30
0.0
 10
582.8673277073718
 20
606.4827910121393
 30
0.0
 10
583.5284402505063
 20
606.6381402975464
 30
0.0
  0
ARC
  5
DB
330
1F
100
AcDbEntity
  8
0
  6
Continuous
 62
     7
370
    25
100
AcDbCircle
 10
583.259739638
 20
606.3566064052
 30
0.0
 40
0.3891803587961702
100
AcDbArc
 50
7.7094634934
 51
46.3360839426
  0
SPLINE
  5
DC
330
1F
100
AcDbEntity
  8
0
  6
Continuous
 62
     7
370
    25
100
AcDbSpline
210
0.0
220
0.0
230
1.0
 70
    24
 71
     3
 72
    12
 73
     8
 74
     0
 42
0.00000001
 43
0.00000001
 40
0.0
 40
0.0
 40
0.0
 40
0.0
 40
0.3013828945621527
 40
0.4108442493795539
 40
0.6247185195336458
 40
0.6986171054378585
 40
1.0
 40
1.0
 40
1.0
 40
1.0
 10
591.5990471991989
 20
604.205099905724
 30
0.0
 10
592.0641506510403
 20
603.7102228503295
 30
0.0
 10
592.6981782684114
 20
603.0356079467396
 30
0.0
 10
593.6668942169462
 20
602.0048796340889
 30
0.0
 10
594.2840190218949
 20
601.3482495766797
 30
0.0
 10
595.1972692484159
 20
600.3765376249629
 30
0.0
 10
595.7764019060924
 20
599.7603317826305
 30
0.0
 10
596.241494605282
 20
599.265466168219
 30
0.0
  0
ARC
  5
DD
330
1F
100
AcDbEntity
  8
0
  6
Continuous
 62
     7
370
    25
100
AcDbCircle
 10
595.8633287963
 20
599.3574007785
 30
0.0
 40
0.3891803587948034
100
AcDbArc
 50
307.7094634933
 51
346.3360839426
  0
ARC
  5
DE
330
1F
100
AcDbEntity
  8
0
  6
Continuous
 62
     7
370
    25
100
AcDbCircle
 10
591.6673701809
 20
603.8219637395
 30
0.0
 40
0.3891803587986061
100
AcDbArc
 50
100.1110206644
 51
138.7376411134
  0
LINE
  5
DF
330
1F
100
AcDbEntity
  8
0
  6
Continuous
 62
     7
370
    25
100
AcDbLine
 10
596.2130986928
 20
584.5693010726
 30
0.0
 11
595.7087646234
 21
582.896381026
 31
0.0
  0
LINE
  5
E0
330
1F
100
AcDbEntity
  8
0
  6
Continuous
 62
     7
370
    25
100
AcDbLine
 10
595.7087646234
 20
582.896381026
 30
0.0
 11
595.2300455096
 21
583.0407001519
 31
0.0
  0
LINE
  5
E1
330
1F
100
AcDbEntity
  8
0
  6
Continuous
 62
     7
370
    25
100
AcDbLine
 10
570.7585940709
 20
584.6184842357
 30
0.0
 11
569.5619698467
 21
585.8917103752
 31
0.0
  0
LINE
  5
E2
330
1F
100
AcDbEntity
  8
0
  6
Continuous
 62
     7
370
    25
100
AcDbLine
 10
569.9263134329
 20
586.234133726
 30
0.0
 11
569.5619698467
 21
585.8917103752
 31
0.0
  0
LINE
  5
E3
330
1F
100
AcDbEntity
  8
0
  6
Continuous
 62
     7
370
    25
100
AcDbLine
 10
570.7869899833
 20
599.3146493313
 30
0.0
 11
571.2913240528
 21
600.9875693779
 31
0.0
  0
LINE
  5
E4
330
1F
100
AcDbEntity
  8
0
  6
Continuous
 62
     7
370
    25
100
AcDbLine
 10
571.2913240528
 20
600.9875693779
 30
0.0
 11
571.7700431666
 21
600.843250252
 31
0.0
  0
LINE
  5
E5
330
1F
100
AcDbEntity
  8
0
  6
Continuous
 62
     7
370
    25
100
AcDbLine
 10
596.2414946053
 20
599.2654661682
 30
0.0
 11
597.4381188294
 21
597.9922400287
 31
0.0
  0
LINE
  5
E6
330
1F
100
AcDbEntity
  8
0
  6
Continuous
 62
     7
370
    25
100
AcDbLine
 10
597.4381188294
 20
597.9922400287
 30
0.0
 11
597.0737752432
 21
597.6498166779
 31
0.0
  0
LINE
  5
E7
330
1F
100
AcDbEntity
  8
0
  6
Continuous
 62
     7
370
    25
100
AcDbLine
 10
583.5284402505
 20
606.6381402975
 30
0.0
 11
585.2293985441
 21
607.0378342047
 31
0.0
  0
LINE
  5
E8
330
1F
100
AcDbEntity
  8
0
  6
Continuous
 62
     7
370
    25
100
AcDbLine
 10
585.2293985441
 20
607.0378342047
 30
0.0
 11
585.3437740717
 21
606.5510917279
 31
0.0
  0
LINE
  5
E9
330
1F
100
AcDbEntity
  8
0
  6
Continuous
 62
     7
370
    25
100
AcDbLine
 10
591.7716787244
 20
579.1961645341
 30
0.0
 11
591.4000443381
 21
579.1088372902
 31
0.0
  0
LINE
  5
EA
330
1F
100
AcDbEntity
  8
0
  6
Continuous
 62
     7
370
    25
100
AcDbLine
 10
591.7716787244
 20
579.1961645341
 30
0.0
 11
591.6573031967
 21
579.6829070109
 31
0.0
  0
LINE
  5
EB
330
1F
100
AcDbEntity
  8
0
  6
Continuous
 62
     7
370
    25
100
AcDbLine
 10
568.8047504286
 20
591.0071159006
 30
0.0
 11
568.3260313148
 21
591.1514350265
 31
0.0
  0
LINE
  5
EC
330
1F
100
AcDbEntity
  8
0
  6
Continuous
 62
     7
370
    25
100
AcDbLine
 10
568.3260313148
 20
591.1514350265
 30
0.0
 11
568.8303653843
 21
592.8243550731
 31
0.0
  0
LINE
  5
ED
330
1F
100
AcDbEntity
  8
0
  6
Continuous
 62
     7
370
    25
100
AcDbLine
 10
598.6740573614
 20
592.7325153774
 30
0.0
 11
598.1697232919
 21
591.0595953308
 31
0.0
  0
LINE
  5
EE
330
1F
100
AcDbEntity
  8
0
  6
Continuous
 62
     7
370
    25
100
AcDbLine
 10
598.1953382476
 20
592.8768345033
 30
0.0
 11
598.6740573614
 21
592.7325153774
 31
0.0
  0
LINE
  5
EF
330
1F
100
AcDbEntity
  8
0
  6
Continuous
 62
     7
370
    25
100
AcDbLine
 10
590.4024229751
 20
605.4783260452
 30
0.0
 11
591.5990471992
 21
604.2050999057
 31
0.0
  0
LINE
  5
F0
330
1F
100
AcDbEntity
  8
0
  6
Continuous
 62
     7
370
    25
100
AcDbLine
 10
590.0380793889
 20
605.1359026943
 30
0.0
 11
590.4024229751
 21
605.4783260452
 31
0.0
  0
LINE
  5
F1
330
1F
100
AcDbEntity
  8
0
  6
Continuous
 62
     7
370
    25
100
AcDbLine
 10
575.3427854794
 20
604.201043393
 30
0.0
 11
575.2284099518
 21
604.6877858698
 31
0.0
  0
LINE
  5
F2
330
1F
100
AcDbEntity
  8
0
  6
Continuous
 62
     7
370
    25
100
AcDbLine
 10
575.2284099518
 20
604.6877858698
 30
0.0
 11
576.9293682454
 21
605.0874797769
 31
0.0
  0
LINE
  5
F3
330
1F
100
AcDbEntity
  8
0
  6
Continuous
 62
     7
370
    25
100
AcDbLine
 10
593.6416713014
 20
579.6355783882
 30
0.0
 11
591.7716787244
 21
579.1961645341
 31
0.0
  0
LINE
  5
F4
330
1F
100
AcDbEntity
  8
0
  6
Continuous
 62
     7
370
    25
100
AcDbLine
 10
591.6573031967
 20
579.6829070109
 30
0.0
 11
593.5272957738
 21
580.122320865
 31
0.0
  0
LINE
  5
F5
330
1F
100
AcDbEntity
  8
0
  6
Continuous
 62
     7
370
    25
100
AcDbLine
 10
593.6416713014
 20
579.6355783882
 30
0.0
 11
593.5272957738
 21
580.122320865
 31
0.0
  0
LINE
  5
F6
330
1F
100
AcDbEntity
  8
0
  6
Continuous
 62
     7
370
    25
100
AcDbLine
 10
594.6755927815
 20
581.2015321483
 30
0.0
 11
595.2300455096
 21
583.0407001519
 31
0.0
  0
ARC
  5
F7
330
1F
100
AcDbEntity
  8
0
  6
Continuous
 62
     7
370
    25
100
AcDbCircle
 10
583.5000443381
 20
591.941975202
 30
0.0
 40
15.49999999999998
100
AcDbArc
 50
310.309742062
 51
316.1373625449
  0
LINE
  5
F8
330
1F
100
AcDbEntity
  8
0
  6
Continuous
 62
     7
370
    25
100
AcDbLine
 10
593.8507554975
 20
579.7410416928
 30
0.0
 11
593.5272957738
 21
580.122320865
 31
0.0
  0
ARC
  5
F9
330
1F
100
AcDbEntity
  8
0
  6
Continuous
 62
     7
370
    25
100
AcDbCircle
 10
593.5272957738
 20
580.122320865
 30
0.0
 40
0.5000000000000714
100
AcDbArc
 50
283.2235523034
 51
310.309742062
  0
ARC
  5
FA
330
1F
100
AcDbEntity
  8
0
  6
Continuous
 62
     7
370
    25
100
AcDbCircle
 10
583.5000443381
 20
591.941975202
 30
0.0
 40
16.00000000000002
100
AcDbArc
 50
310.309742062
 51
316.1373625449
  0
LINE
  5
FB
330
1F
100
AcDbEntity
  8
0
  6
Continuous
 62
     7
370
    25
100
AcDbLine
 10
595.0360943442
 20
580.8550662433
 30
0.0
 11
594.6755927815
 21
581.2015321483
 31
0.0
  0
LINE
  5
FC
330
1F
100
AcDbEntity
  8
0
  6
Continuous
 62
     7
370
    25
100
AcDbLine
 10
595.1543118953
 20
581.0572130224
 30
0.0
 11
594.6755927815
 21
581.2015321483
 31
0.0
  0
ARC
  5
FD
330
1F
100
AcDbEntity
  8
0
  6
Continuous
 62
     7
370
    25
100
AcDbCircle
 10
594.6755927815
 20
581.2015321483
 30
0.0
 40
0.5000000000000162
100
AcDbArc
 50
316.1373625449
 51
343.2235523034
  0
LINE
  5
FE
330
1F
100
AcDbEntity
  8
0
  6
Continuous
 62
     7
370
    25
100
AcDbLine
 10
568.610773584
 20
587.6338878756
 30
0.0
 11
569.9263134329
 21
586.234133726
 31
0.0
  0
LINE
  5
FF
330
1F
100
AcDbEntity
  8
0
  6
Continuous
 62
     7
370
    25
100
AcDbLine
 10
569.5619698467
 20
585.8917103752
 30
0.0
 11
568.2464299978
 21
587.2914645247
 31
0.0
  0
LINE
  5
100
330
1F
100
AcDbEntity
  8
0
  6
Continuous
 62
     7
370
    25
100
AcDbLine
 10
568.610773584
 20
587.6338878756
 30
0.0
 11
568.2464299978
 21
587.2914645247
 31
0.0
  0
LINE
  5
101
330
1F
100
AcDbEntity
  8
0
  6
Continuous
 62
     7
370
    25
100
AcDbLine
 10
595.7087646234
 20
582.896381026
 30
0.0
 11
595.1543118953
 21
581.0572130224
 31
0.0
  0
ARC
  5
102
330
1F
100
AcDbEntity
  8
0
  6
Continuous
 62
     7
370
    25
100
AcDbCircle
 10
568.610773584
 20
587.6338878756
 30
0.0
 40
0.4999999999999964
100
AcDbArc
 50
196.1373625449
 51
223.2235523034
  0
LINE
  5
103
330
1F
100
AcDbEntity
  8
0
  6
Continuous
 62
     7
370
    25
100
AcDbLine
 10
568.610773584
 20
587.6338878756
 30
0.0
 11
568.1304745274
 21
587.4949173167
 31
0.0
  0
ARC
  5
104
330
1F
100
AcDbEntity
  8
0
  6
Continuous
 62
     7
370
    25
100
AcDbCircle
 10
583.5000443381
 20
591.941975202
 30
0.0
 40
15.50000000000013
100
AcDbArc
 50
190.309742062
 51
196.1373625449
  0
ARC
  5
105
330
1F
100
AcDbEntity
  8
0
  6
Continuous
 62
     7
370
    25
100
AcDbCircle
 10
583.5000443381
 20
591.941975202
 30
0.0
 40
16.00000000000009
100
AcDbArc
 50
190.309742062
 51
196.1373625449
  0
LINE
  5
106
330
1F
100
AcDbEntity
  8
0
  6
Continuous
 62
     7
370
    25
100
AcDbLine
 10
568.2502977005
 20
589.167947897
 30
0.0
 11
567.7583703896
 21
589.0784631452
 31
0.0
  0
LINE
  5
107
330
1F
100
AcDbEntity
  8
0
  6
Continuous
 62
     7
370
    25
100
AcDbLine
 10
568.8047504286
 20
591.0071159006
 30
0.0
 11
568.2502977005
 21
589.167947897
 31
0.0
  0
ARC
  5
108
330
1F
100
AcDbEntity
  8
0
  6
Continuous
 62
     7
370
    25
100
AcDbCircle
 10
568.2502977005
 20
589.167947897
 30
0.0
 40
0.5000000000000656
100
AcDbArc
 50
163.2235523034
 51
190.309742062
  0
LINE
  5
109
330
1F
100
AcDbEntity
  8
0
  6
Continuous
 62
     7
370
    25
100
AcDbLine
 10
568.2502977005
 20
589.167947897
 30
0.0
 11
567.7715785867
 21
589.3122670229
 31
0.0
  0
LINE
  5
10A
330
1F
100
AcDbEntity
  8
0
  6
Continuous
 62
     7
370
    25
100
AcDbLine
 10
567.7715785867
 20
589.3122670229
 30
0.0
 11
568.3260313148
 21
591.1514350265
 31
0.0
  0
LINE
  5
10B
330
1F
100
AcDbEntity
  8
0
  6
Continuous
 62
     7
370
    25
100
AcDbLine
 10
598.1953382476
 20
592.8768345033
 30
0.0
 11
598.7497909757
 21
594.7160025069
 31
0.0
  0
LINE
  5
10C
330
1F
100
AcDbEntity
  8
0
  6
Continuous
 62
     7
370
    25
100
AcDbLine
 10
598.7497909757
 20
594.7160025069
 30
0.0
 11
599.2285100895
 21
594.571683381
 31
0.0
  0
LINE
  5
10D
330
1F
100
AcDbEntity
  8
0
  6
Continuous
 62
     7
370
    25
100
AcDbLine
 10
599.2285100895
 20
594.571683381
 30
0.0
 11
598.6740573614
 21
592.7325153774
 31
0.0
  0
LINE
  5
10E
330
1F
100
AcDbEntity
  8
0
  6
Continuous
 62
     7
370
    25
100
AcDbLine
 10
598.3893150922
 20
596.2500625283
 30
0.0
 11
597.0737752432
 21
597.6498166779
 31
0.0
  0
ARC
  5
10F
330
1F
100
AcDbEntity
  8
0
  6
Continuous
 62
     7
370
    25
100
AcDbCircle
 10
583.5000443381
 20
591.941975202
 30
0.0
 40
15.49999999999996
100
AcDbArc
 50
10.309742062
 51
16.1373625449
  0
LINE
  5
110
330
1F
100
AcDbEntity
  8
0
  6
Continuous
 62
     7
370
    25
100
AcDbLine
 10
598.8696141487
 20
596.3890330872
 30
0.0
 11
598.3893150922
 21
596.2500625283
 31
0.0
  0
LINE
  5
111
330
1F
100
AcDbEntity
  8
0
  6
Continuous
 62
     7
370
    25
100
AcDbLine
 10
598.7536586783
 20
596.5924858792
 30
0.0
 11
598.3893150922
 21
596.2500625283
 31
0.0
  0
ARC
  5
112
330
1F
100
AcDbEntity
  8
0
  6
Continuous
 62
     7
370
    25
100
AcDbCircle
 10
598.3893150922
 20
596.2500625283
 30
0.0
 40
0.5000000000001065
100
AcDbArc
 50
16.1373625449
 51
43.2235523034
  0
LINE
  5
113
330
1F
100
AcDbEntity
  8
0
  6
Continuous
 62
     7
370
    25
100
AcDbLine
 10
597.4381188294
 20
597.9922400287
 30
0.0
 11
598.7536586783
 21
596.5924858792
 31
0.0
  0
ARC
  5
114
330
1F
100
AcDbEntity
  8
0
  6
Continuous
 62
     7
370
    25
100
AcDbCircle
 10
598.7497909757
 20
594.7160025069
 30
0.0
 40
0.5000000000000252
100
AcDbArc
 50
343.2235523034
 51
10.309742062
  0
LINE
  5
115
330
1F
100
AcDbEntity
  8
0
  6
Continuous
 62
     7
370
    25
100
AcDbLine
 10
599.2417182866
 20
594.8054872587
 30
0.0
 11
598.7497909757
 21
594.7160025069
 31
0.0
  0
ARC
  5
116
330
1F
100
AcDbEntity
  8
0
  6
Continuous
 62
     7
370
    25
100
AcDbCircle
 10
583.5000443381
 20
591.941975202
 30
0.0
 40
16.00000000000001
100
AcDbArc
 50
10.309742062
 51
16.1373625449
  0
ARC
  5
117
330
1F
100
AcDbEntity
  8
0
  6
Continuous
 62
     7
370
    25
100
AcDbCircle
 10
583.5000443381
 20
591.941975202
 30
0.0
 40
15.50000000000014
100
AcDbArc
 50
130.309742062
 51
136.1373625449
  0
LINE
  5
118
330
1F
100
AcDbEntity
  8
0
  6
Continuous
 62
     7
370
    25
100
AcDbLine
 10
572.3244958947
 20
602.6824182556
 30
0.0
 11
571.963994332
 21
603.0288841606
 31
0.0
  0
ARC
  5
119
330
1F
100
AcDbEntity
  8
0
  6
Continuous
 62
     7
370
    25
100
AcDbCircle
 10
583.5000443381
 20
591.941975202
 30
0.0
 40
16.00000000000007
100
AcDbArc
 50
130.309742062
 51
136.1373625449
  0
LINE
  5
11A
330
1F
100
AcDbEntity
  8
0
  6
Continuous
 62
     7
370
    25
100
AcDbLine
 10
573.4727929024
 20
603.7616295389
 30
0.0
 11
573.1493331787
 21
604.1429087111
 31
0.0
  0
LINE
  5
11B
330
1F
100
AcDbEntity
  8
0
  6
Continuous
 62
     7
370
    25
100
AcDbLine
 10
590.0380793889
 20
605.1359026943
 30
0.0
 11
588.72253954
 21
606.5356568439
 31
0.0
  0
LINE
  5
11C
330
1F
100
AcDbEntity
  8
0
  6
Continuous
 62
     7
370
    25
100
AcDbLine
 10
587.2137666488
 20
606.990505582
 30
0.0
 11
585.3437740717
 21
606.5510917279
 31
0.0
  0
ARC
  5
11D
330
1F
100
AcDbEntity
  8
0
  6
Continuous
 62
     7
370
    25
100
AcDbCircle
 10
583.5000443381
 20
591.941975202
 30
0.0
 40
15.49999999999998
100
AcDbArc
 50
70.309742062
 51
76.1373625449
  0
LINE
  5
11E
330
1F
100
AcDbEntity
  8
0
  6
Continuous
 62
     7
370
    25
100
AcDbLine
 10
575.3427854794
 20
604.201043393
 30
0.0
 11
573.4727929024
 21
603.7616295389
 31
0.0
  0
LINE
  5
11F
330
1F
100
AcDbEntity
  8
0
  6
Continuous
 62
     7
370
    25
100
AcDbLine
 10
573.4727929024
 20
603.7616295389
 30
0.0
 11
573.3584173748
 21
604.2483720157
 31
0.0
  0
LINE
  5
120
330
1F
100
AcDbEntity
  8
0
  6
Continuous
 62
     7
370
    25
100
AcDbLine
 10
573.3584173748
 20
604.2483720157
 30
0.0
 11
575.2284099518
 21
604.6877858698
 31
0.0
  0
ARC
  5
121
330
1F
100
AcDbEntity
  8
0
  6
Continuous
 62
     7
370
    25
100
AcDbCircle
 10
573.4727929024
 20
603.7616295389
 30
0.0
 40
0.5000000000000199
100
AcDbArc
 50
103.2235523034
 51
130.309742062
  0
LINE
  5
122
330
1F
100
AcDbEntity
  8
0
  6
Continuous
 62
     7
370
    25
100
AcDbLine
 10
571.2913240528
 20
600.9875693779
 30
0.0
 11
571.8457767809
 21
602.8267373815
 31
0.0
  0
LINE
  5
123
330
1F
100
AcDbEntity
  8
0
  6
Continuous
 62
     7
370
    25
100
AcDbLine
 10
571.8457767809
 20
602.8267373815
 30
0.0
 11
572.3244958947
 21
602.6824182556
 31
0.0
  0
LINE
  5
124
330
1F
100
AcDbEntity
  8
0
  6
Continuous
 62
     7
370
    25
100
AcDbLine
 10
572.3244958947
 20
602.6824182556
 30
0.0
 11
571.7700431666
 21
600.843250252
 31
0.0
  0
ARC
  5
125
330
1F
100
AcDbEntity
  8
0
  6
Continuous
 62
     7
370
    25
100
AcDbCircle
 10
572.3244958947
 20
602.6824182556
 30
0.0
 40
0.5
100
AcDbArc
 50
136.1373625448
 51
163.2235523034
  0
ARC
  5
126
330
1F
100
AcDbEntity
  8
0
  6
Continuous
 62
     7
370
    25
100
AcDbCircle
 10
583.5000443381
 20
591.941975202
 30
0.0
 40
15.99999999999994
100
AcDbArc
 50
70.309742062
 51
76.1373625449
  0
LINE
  5
127
330
1F
100
AcDbEntity
  8
0
  6
Continuous
 62
     7
370
    25
100
AcDbLine
 10
588.8910071272
 20
607.0064207678
 30
0.0
 11
588.72253954
 21
606.5356568439
 31
0.0
  0
LINE
  5
128
330
1F
100
AcDbEntity
  8
0
  6
Continuous
 62
     7
370
    25
100
AcDbLine
 10
587.2137666488
 20
606.990505582
 30
0.0
 11
587.3335641427
 21
607.4759420459
 31
0.0
  0
LINE
  5
129
330
1F
100
AcDbEntity
  8
0
  6
Continuous
 62
     7
370
    25
100
AcDbLine
 10
585.2293985441
 20
607.0378342047
 30
0.0
 11
587.0993911211
 21
607.4772480588
 31
0.0
  0
LINE
  5
12A
330
1F
100
AcDbEntity
  8
0
  6
Continuous
 62
     7
370
    25
100
AcDbLine
 10
587.0993911211
 20
607.4772480588
 30
0.0
 11
587.2137666488
 21
606.990505582
 31
0.0
  0
LINE
  5
12B
330
1F
100
AcDbEntity
  8
0
  6
Continuous
 62
     7
370
    25
100
AcDbLine
 10
588.72253954
 20
606.5356568439
 30
0.0
 11
589.0868831262
 21
606.8780801948
 31
0.0
  0
LINE
  5
12C
330
1F
100
AcDbEntity
  8
0
  6
Continuous
 62
     7
370
    25
100
AcDbLine
 10
589.0868831262
 20
606.8780801948
 30
0.0
 11
590.4024229751
 21
605.4783260452
 31
0.0
  0
ARC
  5
12D
330
1F
100
AcDbEntity
  8
0
  6
Continuous
 62
     7
370
    25
100
AcDbCircle
 10
588.72253954
 20
606.5356568439
 30
0.0
 40
0.4999999999999558
100
AcDbArc
 50
43.2235523034
 51
70.309742062
  0
ARC
  5
12E
330
1F
100
AcDbEntity
  8
0
  6
Continuous
 62
     7
370
    25
100
AcDbCircle
 10
587.2137666488
 20
606.990505582
 30
0.0
 40
0.500000000000021
100
AcDbArc
 50
76.1373625448
 51
103.2235523034
  0
ARC
  5
12F
330
1F
100
AcDbEntity
  8
0
  6
Continuous
 62
     7
370
    25
100
AcDbCircle
 10
583.5000443381
 20
591.941975202
 30
0.0
 40
9.575000000000028
100
AcDbArc
 50
325.5951096848
 51
214.4048903152
  0
ARC
  5
130
330
1F
100
AcDbEntity
  8
0
  6
Continuous
 62
     7
370
    25
100
AcDbCircle
 10
583.5000443381
 20
591.941975202
 30
0.0
 40
8.050000000000054
100
AcDbArc
 50
348.9219835539
 51
191.0780164461
  0
ARC
  5
131
330
1F
100
AcDbEntity
  8
0
  6
Continuous
 62
     7
370
    25
100
AcDbCircle
 10
583.5000443381
 20
591.941975202
 30
0.0
 40
8.250000000000059
100
AcDbArc
 50
343.2508741362
 51
196.7491258638
  0
CIRCLE
  5
132
330
1F
100
AcDbEntity
  8
0
  6
Continuous
 62
     7
370
    25
100
AcDbCircle
 10
685.1000443381
 20
591.941975202
 30
0.0
 40
5.328914336627577
  0
CIRCLE
  5
133
330
1F
100
AcDbEntity
  8
0
  6
Continuous
 62
     7
370
    25
100
AcDbCircle
 10
685.1000443381
 20
591.941975202
 30
0.0
 40
5.074569253689106
  0
CIRCLE
  5
134
330
1F
100
AcDbEntity
  8
0
  6
Continuous
 62
     7
370
    25
100
AcDbCircle
 10
685.1000443381
 20
591.941975202
 30
0.0
 40
5.925127771161328
  0
CIRCLE
  5
135
330
1F
100
AcDbEntity
  8
0
  6
Continuous
 62
     7
370
    25
100
AcDbCircle
 10
685.1000443381
 20
591.941975202
 30
0.0
 40
4.45210587105737
  0
CIRCLE
  5
136
330
1F
100
AcDbEntity
  8
0
  6
Continuous
 62
     7
370
    25
100
AcDbCircle
 10
685.1000443381
 20
591.941975202
 30
0.0
 40
7.149999999999977
  0
LINE
  5
137
330
1F
100
AcDbEntity
  8
0
  6
Continuous
 62
     7
370
    25
100
AcDbLine
 10
483.0634019475
 20
589.5406007887
 30
0.0
 11
481.8934713789
 21
589.2736504848
 31
0.0
  0
LINE
  5
138
330
1F
100
AcDbEntity
  8
0
  6
Continuous
 62
     7
370
    25
100
AcDbLine
 10
482.7853287142
 20
590.7592784643
 30
0.0
 11
483.0634019475
 21
589.5406007887
 31
0.0
  0
SPLINE
  5
139
330
1F
100
AcDbEntity
  8
0
  6
Continuous
 62
     7
370
    25
100
AcDbSpline
210
0.0
220
0.0
230
1.0
 70
     8
 71
     3
 72
    12
 73
     8
 74
     0
 42
0.00000001
 43
0.00000001
 40
0.0
 40
0.0
 40
0.0
 40
0.0
 40
0.2133534395476119
 40
0.4267919313634478
 40
0.6383539739091497
 40
0.849095035192757
 40
0.9999999999999999
 40
0.9999999999999999
 40
0.9999999999999999
 40
0.9999999999999999
 10
483.3496913796501
 20
591.6573290095608
 30
0.0
 10
483.2700920287211
 20
591.6308565470983
 30
0.0
 10
483.110861594985
 20
591.5779010690605
 30
0.0
 10
482.920975177718
 20
591.4038979339296
 30
0.0
 10
482.7978137909961
 20
591.1835850404746
 30
0.0
 10
482.7544075341864
 20
590.9572822572912
 30
0.0
 10
482.7762249183804
 20
590.8175746259203
 30
0.0
 10
482.7853287142372
 20
590.7592784642751
 30
0.0
  0
LINE
  5
13A
330
1F
100
AcDbEntity
  8
0
  6
Continuous
 62
     7
370
    25
100
AcDbLine
 10
484.5683690552
 20
591.9354022428
 30
0.0
 11
483.3496913797
 21
591.6573290096
 31
0.0
  0
LINE
  5
13B
330
1F
100
AcDbEntity
  8
0
  6
Continuous
 62
     7
370
    25
100
AcDbLine
 10
484.3014187513
 20
593.1053328113
 30
0.0
 11
484.5683690552
 21
591.9354022428
 31
0.0
  0
LINE
  5
13C
330
1F
100
AcDbEntity
  8
0
  6
Continuous
 62
     7
370
    25
100
AcDbLine
 10
483.0827410758
 20
592.8272595781
 30
0.0
 11
484.3014187513
 21
593.1053328113
 31
0.0
  0
SPLINE
  5
13D
330
1F
100
AcDbEntity
  8
0
  6
Continuous
 62
     7
370
    25
100
AcDbSpline
210
0.0
220
0.0
230
1.0
 70
     8
 71
     3
 72
    12
 73
     8
 74
     0
 42
0.00000001
 43
0.00000001
 40
0.0
 40
0.0
 40
0.0
 40
0.0
 40
0.2133534395476159
 40
0.4267919313634425
 40
0.6383539739091564
 40
0.849095035192758
 40
1.0
 40
1.0
 40
1.0
 40
1.0
 10
482.1846905304662
 20
593.3916222435327
 30
0.0
 10
482.2111629929287
 20
593.3120228926037
 30
0.0
 10
482.2641184709665
 20
593.1527924588676
 30
0.0
 10
482.4381216060975
 20
592.9629060416006
 30
0.0
 10
482.6584344995525
 20
592.8397446548788
 30
0.0
 10
482.8847372827357
 20
592.7963383980691
 30
0.0
 10
483.0244449141067
 20
592.8181557822629
 30
0.0
 10
483.0827410757519
 20
592.8272595781198
 30
0.0
  0
LINE
  5
13E
330
1F
100
AcDbEntity
  8
0
  6
Continuous
 62
     7
370
    25
100
AcDbLine
 10
481.9066172972
 20
594.6102999191
 30
0.0
 11
482.1846905305
 21
593.3916222435
 31
0.0
  0
LINE
  5
13F
330
1F
100
AcDbEntity
  8
0
  6
Continuous
 62
     7
370
    25
100
AcDbLine
 10
480.7366867287
 20
594.3433496152
 30
0.0
 11
481.9066172972
 21
594.6102999191
 31
0.0
  0
LINE
  5
140
330
1F
100
AcDbEntity
  8
0
  6
Continuous
 62
     7
370
    25
100
AcDbLine
 10
481.0147599619
 20
593.1246719396
 30
0.0
 11
480.7366867287
 21
594.3433496152
 31
0.0
  0
SPLINE
  5
141
330
1F
100
AcDbEntity
  8
0
  6
Continuous
 62
     7
370
    25
100
AcDbSpline
210
0.0
220
0.0
230
1.0
 70
     8
 71
     3
 72
    12
 73
     8
 74
     0
 42
0.00000001
 43
0.00000001
 40
0.0
 40
0.0
 40
0.0
 40
0.0
 40
0.213353439547612
 40
0.426791931363448
 40
0.63835397390915
 40
0.8490950351927569
 40
1.0
 40
1.0
 40
1.0
 40
1.0
 10
480.4503972964943
 20
592.2266213943489
 30
0.0
 10
480.5299966474233
 20
592.2530938568112
 30
0.0
 10
480.6892270811595
 20
592.3060493348491
 30
0.0
 10
480.8791134984264
 20
592.48005246998
 30
0.0
 10
481.0022748851483
 20
592.7003653634351
 30
0.0
 10
481.0456811419579
 20
592.9266681466183
 30
0.0
 10
481.0238637577641
 20
593.0663757779894
 30
0.0
 10
481.0147599619073
 20
593.1246719396346
 30
0.0
  0
LINE
  5
142
330
1F
100
AcDbEntity
  8
0
  6
Continuous
 62
     7
370
    25
100
AcDbLine
 10
479.2317196209
 20
591.9485481611
 30
0.0
 11
480.4503972965
 21
592.2266213943
 31
0.0
  0
LINE
  5
143
330
1F
100
AcDbEntity
  8
0
  6
Continuous
 62
     7
370
    25
100
AcDbLine
 10
479.4986699248
 20
590.7786175926
 30
0.0
 11
479.2317196209
 21
591.9485481611
 31
0.0
  0
LINE
  5
144
330
1F
100
AcDbEntity
  8
0
  6
Continuous
 62
     7
370
    25
100
AcDbLine
 10
480.7173476004
 20
591.0566908258
 30
0.0
 11
479.4986699248
 21
590.7786175926
 31
0.0
  0
SPLINE
  5
145
330
1F
100
AcDbEntity
  8
0
  6
Continuous
 62
     7
370
    25
100
AcDbSpline
210
0.0
220
0.0
230
1.0
 70
     8
 71
     3
 72
    12
 73
     8
 74
     0
 42
0.00000001
 43
0.00000001
 40
0.0
 40
0.0
 40
0.0
 40
0.0
 40
0.2133534395476155
 40
0.4267919313634422
 40
0.6383539739091563
 40
0.8490950351927579
 40
0.9999999999999999
 40
0.9999999999999999
 40
0.9999999999999999
 40
0.9999999999999999
 10
481.6153981456782
 20
590.4923281603769
 30
0.0
 10
481.5889256832157
 20
590.571927511306
 30
0.0
 10
481.5359702051778
 20
590.731157945042
 30
0.0
 10
481.361967070047
 20
590.921044362309
 30
0.0
 10
481.1416541765919
 20
591.044205749031
 30
0.0
 10
480.9153513934087
 20
591.0876120058406
 30
0.0
 10
480.7756437620377
 20
591.0657946216467
 30
0.0
 10
480.7173476003925
 20
591.0566908257899
 30
0.0
  0
LINE
  5
146
330
1F
100
AcDbEntity
  8
0
  6
Continuous
 62
     7
370
    25
100
AcDbLine
 10
481.8934713789
 20
589.2736504848
 30
0.0
 11
481.6153981457
 21
590.4923281604
 31
0.0
  0
CIRCLE
  5
147
330
1F
100
AcDbEntity
  8
0
  6
Continuous
 62
     7
370
    25
100
AcDbCircle
 10
481.9000443381
 20
591.941975202
 30
0.0
 40
4.197433366238889
  0
LINE
  5
148
330
1F
100
AcDbEntity
  8
0
  6
Continuous
 62
     7
370
    25
100
AcDbLine
 10
685.0934713789
 20
594.6102999191
 30
0.0
 11
686.2634019475
 21
594.3433496152
 31
0.0
  0
LINE
  5
149
330
1F
100
AcDbEntity
  8
0
  6
Continuous
 62
     7
370
    25
100
AcDbLine
 10
684.8153981457
 20
593.3916222435
 30
0.0
 11
685.0934713789
 21
594.6102999191
 31
0.0
  0
SPLINE
  5
14A
330
1F
100
AcDbEntity
  8
0
  6
Continuous
 62
     7
370
    25
100
AcDbSpline
210
0.0
220
0.0
230
1.0
 70
     8
 71
     3
 72
    12
 73
     8
 74
     0
 42
0.00000001
 43
0.00000001
 40
0.0
 40
0.0
 40
0.0
 40
0.0
 40
0.2133534395476135
 40
0.4267919313634461
 40
0.638353973909149
 40
0.8490950351927548
 40
0.9999999999999999
 40
0.9999999999999999
 40
0.9999999999999999
 40
0.9999999999999999
 10
683.9173476003925
 20
592.8272595781198
 30
0.0
 10
684.0005514745466
 20
592.8165842203786
 30
0.0
 10
684.1669923916577
 20
592.7952292492189
 30
0.0
 10
684.4135617573246
 20
592.8696435651296
 30
0.0
 10
684.6200979598711
 20
593.0147273176298
 30
0.0
 10
684.7573710734586
 20
593.1998033698155
 30
0.0
 10
684.7983138488049
 20
593.3351470422324
 30
0.0
 10
684.8153981456783
 20
593.3916222435327
 30
0.0
  0
LINE
  5
14B
330
1F
100
AcDbEntity
  8
0
  6
Continuous
 62
     7
370
    25
100
AcDbLine
 10
682.6986699248
 20
593.1053328113
 30
0.0
 11
683.9173476004
 21
592.8272595781
 31
0.0
  0
LINE
  5
14C
330
1F
100
AcDbEntity
  8
0
  6
Continuous
 62
     7
370
    25
100
AcDbLine
 10
682.4317196209
 20
591.9354022428
 30
0.0
 11
682.6986699248
 21
593.1053328113
 31
0.0
  0
LINE
  5
14D
330
1F
100
AcDbEntity
  8
0
  6
Continuous
 62
     7
370
    25
100
AcDbLine
 10
683.6503972965
 20
591.6573290096
 30
0.0
 11
682.4317196209
 21
591.9354022428
 31
0.0
  0
SPLINE
  5
14E
330
1F
100
AcDbEntity
  8
0
  6
Continuous
 62
     7
370
    25
100
AcDbSpline
210
0.0
220
0.0
230
1.0
 70
     8
 71
     3
 72
    12
 73
     8
 74
     0
 42
0.00000001
 43
0.00000001
 40
0.0
 40
0.0
 40
0.0
 40
0.0
 40
0.2133534395476132
 40
0.4267919313634478
 40
0.638353973909154
 40
0.8490950351927532
 40
1.0
 40
1.0
 40
1.0
 40
1.0
 10
684.2147599619074
 20
590.7592784642751
 30
0.0
 10
684.2254353196486
 20
590.842482338429
 30
0.0
 10
684.2467902908082
 20
591.0089232555403
 30
0.0
 10
684.1723759748975
 20
591.2554926212072
 30
0.0
 10
684.0272922223974
 20
591.4620288237536
 30
0.0
 10
683.8422161702116
 20
591.5993019373411
 30
0.0
 10
683.7068724977947
 20
591.6402447126876
 30
0.0
 10
683.6503972964944
 20
591.6573290095608
 30
0.0
  0
LINE
  5
14F
330
1F
100
AcDbEntity
  8
0
  6
Continuous
 62
     7
370
    25
100
AcDbLine
 10
683.9366867287
 20
589.5406007887
 30
0.0
 11
684.2147599619
 21
590.7592784643
 31
0.0
  0
LINE
  5
150
330
1F
100
AcDbEntity
  8
0
  6
Continuous
 62
     7
370
    25
100
AcDbLine
 10
685.1066172972
 20
589.2736504848
 30
0.0
 11
683.9366867287
 21
589.5406007887
 31
0.0
  0
LINE
  5
151
330
1F
100
AcDbEntity
  8
0
  6
Continuous
 62
     7
370
    25
100
AcDbLine
 10
685.3846905305
 20
590.4923281604
 30
0.0
 11
685.1066172972
 21
589.2736504848
 31
0.0
  0
SPLINE
  5
152
330
1F
100
AcDbEntity
  8
0
  6
Continuous
 62
     7
370
    25
100
AcDbSpline
210
0.0
220
0.0
230
1.0
 70
     8
 71
     3
 72
    12
 73
     8
 74
     0
 42
0.00000001
 43
0.00000001
 40
0.0
 40
0.0
 40
0.0
 40
0.0
 40
0.2133534395476136
 40
0.4267919313634463
 40
0.6383539739091494
 40
0.8490950351927551
 40
1.0
 40
1.0
 40
1.0
 40
1.0
 10
686.2827410757519
 20
591.0566908257899
 30
0.0
 10
686.199537201598
 20
591.067366183531
 30
0.0
 10
686.0330962844869
 20
591.0887211546907
 30
0.0
 10
685.7865269188201
 20
591.01430683878
 30
0.0
 10
685.5799907162735
 20
590.8692230862799
 30
0.0
 10
685.4427176026859
 20
590.6841470340942
 30
0.0
 10
685.4017748273395
 20
590.5488033616773
 30
0.0
 10
685.3846905304663
 20
590.4923281603769
 30
0.0
  0
LINE
  5
153
330
1F
100
AcDbEntity
  8
0
  6
Continuous
 62
     7
370
    25
100
AcDbLine
 10
687.5014187513
 20
590.7786175926
 30
0.0
 11
686.2827410758
 21
591.0566908258
 31
0.0
  0
LINE
  5
154
330
1F
100
AcDbEntity
  8
0
  6
Continuous
 62
     7
370
    25
100
AcDbLine
 10
687.7683690552
 20
591.9485481611
 30
0.0
 11
687.5014187513
 21
590.7786175926
 31
0.0
  0
LINE
  5
155
330
1F
100
AcDbEntity
  8
0
  6
Continuous
 62
     7
370
    25
100
AcDbLine
 10
686.5496913797
 20
592.2266213943
 30
0.0
 11
687.7683690552
 21
591.9485481611
 31
0.0
  0
SPLINE
  5
156
330
1F
100
AcDbEntity
  8
0
  6
Continuous
 62
     7
370
    25
100
AcDbSpline
210
0.0
220
0.0
230
1.0
 70
     8
 71
     3
 72
    12
 73
     8
 74
     0
 42
0.00000001
 43
0.00000001
 40
0.0
 40
0.0
 40
0.0
 40
0.0
 40
0.2133534395476131
 40
0.4267919313634476
 40
0.6383539739091537
 40
0.8490950351927532
 40
1.0
 40
1.0
 40
1.0
 40
1.0
 10
685.9853287142372
 20
593.1246719396346
 30
0.0
 10
685.974653356496
 20
593.0414680654806
 30
0.0
 10
685.9532983853363
 20
592.8750271483693
 30
0.0
 10
686.0277127012471
 20
592.6284577827025
 30
0.0
 10
686.1727964537471
 20
592.4219215801561
 30
0.0
 10
686.357872505933
 20
592.2846484665685
 30
0.0
 10
686.4932161783498
 20
592.2437056912221
 30
0.0
 10
686.5496913796502
 20
592.2266213943489
 30
0.0
  0
LINE
  5
157
330
1F
100
AcDbEntity
  8
0
  6
Continuous
 62
     7
370
    25
100
AcDbLine
 10
686.2634019475
 20
594.3433496152
 30
0.0
 11
685.9853287142
 21
593.1246719396
 31
0.0
  0
CIRCLE
  5
158
330
1F
100
AcDbEntity
  8
0
  6
Continuous
 62
     7
370
    25
100
AcDbCircle
 10
685.1000443381
 20
591.941975202
 30
0.0
 40
4.197433366238944
  0
CIRCLE
  5
159
330
1F
100
AcDbEntity
  8
0
  6
Continuous
 62
     7
370
    25
100
AcDbCircle
 10
481.9000443381
 20
591.941975202
 30
0.0
 40
5.328914336627577
  0
CIRCLE
  5
15A
330
1F
100
AcDbEntity
  8
0
  6
Continuous
 62
     7
370
    25
100
AcDbCircle
 10
481.9000443381
 20
591.941975202
 30
0.0
 40
5.074569253689106
  0
CIRCLE
  5
15B
330
1F
100
AcDbEntity
  8
0
  6
Continuous
 62
     7
370
    25
100
AcDbCircle
 10
481.9000443381
 20
591.941975202
 30
0.0
 40
5.925127771161442
  0
CIRCLE
  5
15C
330
1F
100
AcDbEntity
  8
0
  6
Continuous
 62
     7
370
    25
100
AcDbCircle
 10
481.9000443381
 20
591.941975202
 30
0.0
 40
4.45210587105737
  0
CIRCLE
  5
15D
330
1F
100
AcDbEntity
  8
0
  6
Continuous
 62
     7
370
    25
100
AcDbCircle
 10
481.9000443381
 20
591.941975202
 30
0.0
 40
7.150000000000091
  0
SPLINE
  5
15E
330
1F
100
AcDbEntity
  8
0
  6
Continuous
 62
     7
370
    25
100
AcDbSpline
210
0.0
220
0.0
230
1.0
 70
     8
 71
     3
 72
    11
 73
     7
 74
     0
 42
0.00000001
 43
0.00000001
 40
0.0
 40
0.0
 40
0.0
 40
0.0
 40
0.2200386424382255
 40
0.6637869905998169
 40
0.8890365590789576
 40
1.0
 40
1.0
 40
1.0
 40
1.0
 10
475.2224541934803
 20
586.1670781838321
 30
0.0
 10
475.0182327304788
 20
586.432096795091
 30
0.0
 10
474.4021611675952
 20
587.2315741253957
 30
0.0
 10
473.8786118165781
 20
588.4947433959236
 30
0.0
 10
473.626982616817
 20
589.6613132092477
 30
0.0
 10
473.6476898115392
 20
590.1725930079072
 30
0.0
 10
473.6545239955653
 20
590.3413353353794
 30
0.0
  0
SPLINE
  5
15F
330
1F
100
AcDbEntity
  8
0
  6
Continuous
 62
     7
370
    25
100
AcDbSpline
210
0.0
220
0.0
230
1.0
 70
     8
 71
     3
 72
     9
 73
     5
 74
     0
 42
0.00000001
 43
0.00000001
 40
0.0
 40
0.0
 40
0.0
 40
0.0
 40
0.9209630919903056
 40
1.0
 40
1.0
 40
1.0
 40
1.0
 10
473.582411830233
 20
586.4874014594658
 30
0.0
 10
474.0968333681059
 20
586.4305744005471
 30
0.0
 10
474.6554024816206
 20
586.3688704523511
 30
0.0
 10
475.1809189932899
 20
586.1818589914632
 30
0.0
 10
475.2224541934804
 20
586.1670781838321
 30
0.0
  0
SPLINE
  5
160
330
1F
100
AcDbEntity
  8
0
  6
Continuous
 62
     7
370
    25
100
AcDbSpline
210
0.0
220
0.0
230
1.0
 70
     8
 71
     3
 72
    10
 73
     6
 74
     0
 42
0.00000001
 43
0.00000001
 40
0.0
 40
0.0
 40
0.0
 40
0.0
 40
0.2596150688488836
 40
0.629760644481066
 40
0.9999999999999999
 40
0.9999999999999999
 40
0.9999999999999999
 40
0.9999999999999999
 10
426.4072508762958
 20
589.0789590284548
 30
0.0
 10
430.4850710950188
 20
588.7792048913564
 30
0.0
 10
440.3768339283841
 20
588.0520769961923
 30
0.0
 10
456.1064066110573
 20
587.2262301263022
 30
0.0
 10
467.756584872322
 20
586.7336984770363
 30
0.0
 10
473.582411830233
 20
586.4874014594658
 30
0.0
  0
SPLINE
  5
161
330
1F
100
AcDbEntity
  8
0
  6
Continuous
 62
     7
370
    25
100
AcDbSpline
210
0.0
220
0.0
230
1.0
 70
     8
 71
     3
 72
    11
 73
     7
 74
     0
 42
0.00000001
 43
0.00000001
 40
0.0
 40
0.0
 40
0.0
 40
0.0
 40
0.061464119541392
 40
0.4999988937835378
 40
0.9375097801832794
 40
1.0
 40
1.0
 40
1.0
 40
1.0
 10
426.407250876296
 20
594.8049913754568
 30
0.0
 10
426.3955816800936
 20
594.6885344030046
 30
0.0
 10
426.3006549938242
 20
593.7411791356735
 30
0.0
 10
426.2169521665581
 20
591.9439349372252
 30
0.0
 10
426.3005220900781
 20
590.1447369129844
 30
0.0
 10
426.3953937951235
 20
589.1973620885514
 30
0.0
 10
426.4072508762958
 20
589.0789590284548
 30
0.0
  0
SPLINE
  5
162
330
1F
100
AcDbEntity
  8
0
  6
Continuous
 62
     7
370
    25
100
AcDbSpline
210
0.0
220
0.0
230
1.0
 70
     8
 71
     3
 72
    10
 73
     6
 74
     0
 42
0.00000001
 43
0.00000001
 40
0.0
 40
0.0
 40
0.0
 40
0.0
 40
0.2594618540778875
 40
0.6296073956705976
 40
1.0
 40
1.0
 40
1.0
 40
1.0
 10
473.582411830233
 20
597.3965489444439
 30
0.0
 10
469.4995435921375
 20
597.2291646349183
 30
0.0
 10
459.5920986330729
 20
596.8229916366906
 30
0.0
 10
443.8608020716035
 20
596.0362082789601
 30
0.0
 10
432.2263951213922
 20
595.2154882811187
 30
0.0
 10
426.407250876296
 20
594.8049913754568
 30
0.0
  0
SPLINE
  5
163
330
1F
100
AcDbEntity
  8
0
  6
Continuous
 62
     7
370
    25
100
AcDbSpline
210
0.0
220
0.0
230
1.0
 70
     8
 71
     3
 72
     9
 73
     5
 74
     0
 42
0.00000001
 43
0.00000001
 40
0.0
 40
0.0
 40
0.0
 40
0.0
 40
0.0790369080192139
 40
1.0
 40
1.0
 40
1.0
 40
1.0
 10
475.2224541934795
 20
597.7168722200773
 30
0.0
 10
475.1809189932842
 20
597.7020914124445
 30
0.0
 10
474.655402481615
 20
597.5150799515566
 30
0.0
 10
474.0968333681004
 20
597.4533760033613
 30
0.0
 10
473.582411830233
 20
597.3965489444439
 30
0.0
  0
SPLINE
  5
164
330
1F
100
AcDbEntity
  8
0
  6
Continuous
 62
     7
370
    25
100
AcDbSpline
210
0.0
220
0.0
230
1.0
 70
     8
 71
     3
 72
    11
 73
     7
 74
     0
 42
0.00000001
 43
0.00000001
 40
0.0
 40
0.0
 40
0.0
 40
0.0
 40
0.0728838064943292
 40
0.4140719411596029
 40
0.9209668754550567
 40
1.0
 40
1.0
 40
1.0
 40
1.0
 10
473.6545239955691
 20
593.5426150685155
 30
0.0
 10
473.6468088464314
 20
593.6530615027544
 30
0.0
 10
473.6029770690669
 20
594.2805365430854
 30
0.0
 10
473.9474687805049
 20
595.6635285735505
 30
0.0
 10
474.5871581299914
 20
596.933460091328
 30
0.0
 10
475.146946879424
 20
597.623760757501
 30
0.0
 10
475.2224541934795
 20
597.7168722200773
 30
0.0
  0
SPLINE
  5
165
330
1F
100
AcDbEntity
  8
0
  6
Continuous
 62
     7
370
    25
100
AcDbSpline
210
0.0
220
0.0
230
1.0
 70
     8
 71
     3
 72
    10
 73
     6
 74
     0
 42
0.00000001
 43
0.00000001
 40
0.0
 40
0.0
 40
0.0
 40
0.0
 40
0.3880207377811389
 40
0.979063776650686
 40
1.0
 40
1.0
 40
1.0
 40
1.0
 10
473.6545239955653
 20
590.3413353353794
 30
0.0
 10
473.7278385263247
 20
590.7521751972353
 30
0.0
 10
473.912827611648
 20
591.7888167670835
 30
0.0
 10
473.817120685817
 20
592.8825860886548
 30
0.0
 10
473.6599025345691
 20
593.5207819573742
 30
0.0
 10
473.6545239955691
 20
593.5426150685155
 30
0.0
  0
ARC
  5
166
330
1F
100
AcDbEntity
  8
0
  6
Continuous
 62
     7
370
    25
100
AcDbCircle
 10
481.9000443381
 20
591.941975202
 30
0.0
 40
8.399443654264582
100
AcDbArc
 50
190.985757993
 51
169.0142420071
  0
SPLINE
  5
167
330
1F
100
AcDbEntity
  8
0
  6
Continuous
 62
     7
370
    25
100
AcDbSpline
210
0.0
220
0.0
230
1.0
 70
     8
 71
     3
 72
     9
 73
     5
 74
     0
 42
0.00000001
 43
0.00000001
 40
0.0
 40
0.0
 40
0.0
 40
0.0
 40
0.6817923421274312
 40
1.0
 40
1.0
 40
1.0
 40
1.0
 10
475.2224541934795
 20
597.7168722200773
 30
0.0
 10
475.3647177541225
 20
597.9067825751824
 30
0.0
 10
475.573378884283
 20
598.1853283190559
 30
0.0
 10
475.8028047181634
 20
598.4182326919989
 30
0.0
 10
475.875809775418
 20
598.4923446470214
 30
0.0
  0
ARC
  5
168
330
1F
100
AcDbEntity
  8
0
  6
Continuous
 62
     7
370
    25
100
AcDbCircle
 10
481.9000443381
 20
591.941975202
 30
0.0
 40
8.899367501836336
100
AcDbArc
 50
227.3959191961
 51
132.6040808039
  0
LINE
  5
169
330
1F
100
AcDbEntity
  8
0
  6
Continuous
 62
     7
370
    25
100
AcDbLine
 10
475.8758097754
 20
585.3916057569
 30
0.0
 11
475.2224541935
 21
586.1670781838
 31
0.0
  0
SPLINE
  5
16A
330
1F
100
AcDbEntity
  8
0
  6
Continuous
 62
     7
370
    25
100
AcDbSpline
210
0.0
220
0.0
230
1.0
 70
     8
 71
     3
 72
    10
 73
     6
 74
     0
 42
0.00000001
 43
0.00000001
 40
0.0
 40
0.0
 40
0.0
 40
0.0
 40
0.3702896688583046
 40
0.7405318123903298
 40
0.9999999999999999
 40
0.9999999999999999
 40
0.9999999999999999
 40
0.9999999999999999
 10
426.3957314131175
 20
595.24785095629
 30
0.0
 10
432.2157952593359
 20
595.5680419708162
 30
0.0
 10
443.8551759678396
 20
596.2083829045218
 30
0.0
 10
459.5740443746142
 20
597.0776172363851
 30
0.0
 10
469.4712181906241
 20
597.6263582379943
 30
0.0
 10
473.5492865110883
 20
597.852463521826
 30
0.0
  0
ARC
  5
16B
330
1F
100
AcDbEntity
  8
0
  6
Continuous
 62
     7
370
    25
100
AcDbCircle
 10
466.3341973037
 20
597.0990771551
 30
0.0
 40
7.254316183328329
100
AcDbArc
 50
2.3501399448
 51
5.9611177313
  0
ARC
  5
16C
330
1F
100
AcDbEntity
  8
0
  6
Continuous
 62
     7
370
    25
100
AcDbCircle
 10
430.6562539543
 20
595.1370941323
 30
0.0
 40
4.261961918900215
100
AcDbArc
 50
178.5108705387
 51
184.4691613065
  0
SPLINE
  5
16D
330
1F
100
AcDbEntity
  8
0
  6
Continuous
 62
     7
370
    25
100
AcDbSpline
210
0.0
220
0.0
230
1.0
 70
     8
 71
     3
 72
    10
 73
     6
 74
     0
 42
0.00000001
 43
0.00000001
 40
0.0
 40
0.0
 40
0.0
 40
0.0
 40
0.3702717503651152
 40
0.7405122151371749
 40
1.0
 40
1.0
 40
1.0
 40
1.0
 10
473.5492865110883
 20
586.0314868820836
 30
0.0
 10
467.729614449419
 20
586.3540153677516
 30
0.0
 10
456.0907620511222
 20
586.9990450874946
 30
0.0
 10
440.3716224671675
 20
587.8678595749735
 30
0.0
 10
430.4741250434689
 20
588.4119144857403
 30
0.0
 10
426.3957314131209
 20
588.6360994476195
 30
0.0
  0
ARC
  5
16E
330
1F
100
AcDbEntity
  8
0
  6
Continuous
 62
     7
370
    25
100
AcDbCircle
 10
430.6562539572
 20
588.7468562716
 30
0.0
 40
4.261961921797925
100
AcDbArc
 50
175.530838696
 51
181.4891294598
  0
ARC
  5
16F
330
1F
100
AcDbEntity
  8
0
  6
Continuous
 62
     7
370
    25
100
AcDbCircle
 10
466.3341973037
 20
586.7848732488
 30
0.0
 40
7.254316183397598
100
AcDbArc
 50
354.0388822687
 51
357.6498600552
  0
SPLINE
  5
170
330
1F
100
AcDbEntity
  8
0
  6
Continuous
 62
     7
370
    25
100
AcDbSpline
210
0.0
220
0.0
230
1.0
 70
     8
 71
     3
 72
    12
 73
     8
 74
     0
 42
0.00000001
 43
0.00000001
 40
0.0
 40
0.0
 40
0.0
 40
0.0
 40
0.1224290494151349
 40
0.3423522449770471
 40
0.5614228816909413
 40
0.7807229538533572
 40
1.0
 40
1.0
 40
1.0
 40
1.0
 10
424.4715234434483
 20
589.189633398111
 30
0.0
 10
424.4805275193123
 20
589.1872747136701
 30
0.0
 10
424.5057059030433
 20
589.1806790493454
 30
0.0
 10
424.7216935866881
 20
589.1636710816061
 30
0.0
 10
425.1575917164171
 20
589.1381601074517
 30
0.0
 10
425.7415173298473
 20
589.1086079248923
 30
0.0
 10
426.1853474614155
 20
589.0888416480134
 30
0.0
 10
426.4072508762958
 20
589.0789590284548
 30
0.0
  0
SPLINE
  5
171
330
1F
100
AcDbEntity
  8
0
  6
Continuous
 62
     7
370
    25
100
AcDbSpline
210
0.0
220
0.0
230
1.0
 70
     8
 71
     3
 72
    11
 73
     7
 74
     0
 42
0.00000001
 43
0.00000001
 40
0.0
 40
0.0
 40
0.0
 40
0.0
 40
0.0800485240044433
 40
0.5000005853538798
 40
0.9209248322279645
 40
1.0
 40
1.0
 40
1.0
 40
1.0
 10
424.4715234434483
 20
589.189633398111
 30
0.0
 10
424.4718096878624
 20
589.3358778232116
 30
0.0
 10
424.473597633067
 20
590.2493524820447
 30
0.0
 10
424.474833329897
 20
591.9437620698034
 30
0.0
 10
424.4735956318021
 20
593.636388921658
 30
0.0
 10
424.4718064098341
 20
594.5498522973019
 30
0.0
 10
424.4715234434482
 20
594.6943170057931
 30
0.0
  0
SPLINE
  5
172
330
1F
100
AcDbEntity
  8
0
  6
Continuous
 62
     7
370
    25
100
AcDbSpline
210
0.0
220
0.0
230
1.0
 70
     8
 71
     3
 72
    12
 73
     8
 74
     0
 42
0.00000001
 43
0.00000001
 40
0.0
 40
0.0
 40
0.0
 40
0.0
 40
0.1130367476169362
 40
0.3328594693548023
 40
0.5544127937945006
 40
0.7774207483513244
 40
1.0
 40
1.0
 40
1.0
 40
1.0
 10
426.407250876296
 20
594.8049913754568
 30
0.0
 10
426.2931800363091
 20
594.7999761297554
 30
0.0
 10
425.9572754737011
 20
594.7852077286994
 30
0.0
 10
425.4232076173064
 20
594.7596155245902
 30
0.0
 10
424.9066819794193
 20
594.7317402617192
 30
0.0
 10
424.5497872622648
 20
594.7082983881287
 30
0.0
 10
424.4975946447464
 20
594.698974476369
 30
0.0
 10
424.4715234434482
 20
594.6943170057931
 30
0.0
  0
SPLINE
  5
173
330
1F
100
AcDbEntity
  8
0
  6
Continuous
 62
     7
370
    25
100
AcDbSpline
210
0.0
220
0.0
230
1.0
 70
     8
 71
     3
 72
     9
 73
     5
 74
     0
 42
0.00000001
 43
0.00000001
 40
0.0
 40
0.0
 40
0.0
 40
0.0
 40
0.500010612381544
 40
1.0
 40
1.0
 40
1.0
 40
1.0
 10
476.3754176242609
 20
584.959774067642
 30
0.0
 10
475.94569625744
 20
585.2476146057353
 30
0.0
 10
475.0862717648794
 20
585.8232834634866
 30
0.0
 10
474.0616076796011
 20
585.9620867245734
 30
0.0
 10
473.5492865110883
 20
586.0314868820836
 30
0.0
  0
SPLINE
  5
174
330
1F
100
AcDbEntity
  8
0
  6
Continuous
 62
     7
370
    25
100
AcDbSpline
210
0.0
220
0.0
230
1.0
 70
     8
 71
     3
 72
     9
 73
     5
 74
     0
 42
0.00000001
 43
0.00000001
 40
0.0
 40
0.0
 40
0.0
 40
0.0
 40
0.9838702326459385
 40
1.0
 40
1.0
 40
1.0
 40
1.0
 10
475.875809775418
 20
585.3916057568882
 30
0.0
 10
476.0371505903526
 20
585.2467733438693
 30
0.0
 10
476.2011364592011
 20
585.0995665190125
 30
0.0
 10
476.372651132483
 20
584.9619930949659
 30
0.0
 10
476.3754176242609
 20
584.959774067642
 30
0.0
  0
SPLINE
  5
175
330
1F
100
AcDbEntity
  8
0
  6
Continuous
 62
     7
370
    25
100
AcDbSpline
210
0.0
220
0.0
230
1.0
 70
     8
 71
     3
 72
     9
 73
     5
 74
     0
 42
0.00000001
 43
0.00000001
 40
0.0
 40
0.0
 40
0.0
 40
0.0
 40
0.5055561057107305
 40
1.0
 40
1.0
 40
1.0
 40
1.0
 10
473.5492865110883
 20
597.852463521826
 30
0.0
 10
474.0673460284212
 20
597.9231195560961
 30
0.0
 10
475.0920780244966
 20
598.0628785926735
 30
0.0
 10
475.9508185932582
 20
598.6392118674693
 30
0.0
 10
476.3754176242609
 20
598.9241763362677
 30
0.0
  0
SPLINE
  5
176
330
1F
100
AcDbEntity
  8
0
  6
Continuous
 62
     7
370
    25
100
AcDbSpline
210
0.0
220
0.0
230
1.0
 70
     8
 71
     3
 72
     9
 73
     5
 74
     0
 42
0.00000001
 43
0.00000001
 40
0.0
 40
0.0
 40
0.0
 40
0.0
 40
0.0161297673533178
 40
0.9999999999999999
 40
0.9999999999999999
 40
0.9999999999999999
 40
0.9999999999999999
 10
476.3754176242609
 20
598.9241763362677
 30
0.0
 10
476.372651132483
 20
598.9219573089438
 30
0.0
 10
476.201136459197
 20
598.7843838848942
 30
0.0
 10
476.0371505903506
 20
598.637177060039
 30
0.0
 10
475.8758097754179
 20
598.4923446470214
 30
0.0
  0
SPLINE
  5
177
330
1F
100
AcDbEntity
  8
0
  6
Continuous
 62
     7
370
    25
100
AcDbSpline
210
0.0
220
0.0
230
1.0
 70
     8
 71
     3
 72
    12
 73
     8
 74
     0
 42
0.00000001
 43
0.00000001
 40
0.0
 40
0.0
 40
0.0
 40
0.0
 40
0.2230315344150378
 40
0.4461337558340359
 40
0.6675099896777023
 40
0.8870667292265011
 40
1.0
 40
1.0
 40
1.0
 40
1.0
 10
424.9438777085327
 20
595.1934800768415
 30
0.0
 10
424.9634114946587
 20
595.1915898295467
 30
0.0
 10
425.0024852578952
 20
595.1878087358674
 30
0.0
 10
425.2700744399514
 20
595.1947515721381
 30
0.0
 10
425.6576035237765
 20
595.2103403946279
 30
0.0
 10
426.0583256362395
 20
595.2296776746922
 30
0.0
 10
426.3101850584974
 20
595.2432432758685
 30
0.0
 10
426.3957314131175
 20
595.24785095629
 30
0.0
  0
ARC
  5
178
330
1F
100
AcDbEntity
  8
0
  6
Continuous
 62
     7
370
    25
100
AcDbCircle
 10
424.9716233311
 20
594.6941504204
 30
0.0
 40
0.500099915347071
100
AcDbArc
 50
93.1804119247
 51
179.9809145383
  0
SPLINE
  5
179
330
1F
100
AcDbEntity
  8
0
  6
Continuous
 62
     7
370
    25
100
AcDbSpline
210
0.0
220
0.0
230
1.0
 70
     8
 71
     3
 72
    12
 73
     8
 74
     0
 42
0.00000001
 43
0.00000001
 40
0.0
 40
0.0
 40
0.0
 40
0.0
 40
0.2190444340109334
 40
0.4380981679380241
 40
0.6571027493691853
 40
0.8772791087290019
 40
1.0
 40
1.0
 40
1.0
 40
1.0
 10
426.3957314131209
 20
588.6360994476195
 30
0.0
 10
426.2293136723501
 20
588.6449282605693
 30
0.0
 10
425.896471125251
 20
588.6625862613115
 30
0.0
 10
425.4583126826079
 20
588.6821047507206
 30
0.0
 10
425.1313468558482
 20
588.6934105343529
 30
0.0
 10
424.9695029788341
 20
588.6952344024295
 30
0.0
 10
424.9506316464219
 20
588.6917259731047
 30
0.0
 10
424.9438777085328
 20
588.6904703270682
 30
0.0
  0
ARC
  5
17A
330
1F
100
AcDbEntity
  8
0
  6
Continuous
 62
     7
370
    25
100
AcDbCircle
 10
424.9716233311
 20
589.1897999835
 30
0.0
 40
0.5000999153469153
100
AcDbArc
 50
180.0190854623
 51
266.8195880753
  0
LINE
  5
17B
330
1F
100
AcDbEntity
  8
0
  6
Continuous
 62
     7
370
    25
100
AcDbLine
 10
473.5492865111
 20
597.8524635218
 30
0.0
 11
473.5223003294
 21
597.9237537972
 31
0.0
  0
LINE
  5
17C
330
1F
100
AcDbEntity
  8
0
  6
Continuous
 62
     7
370
    25
100
AcDbLine
 10
424.9391873479
 20
595.1979185299
 30
0.0
 11
424.9438777085
 21
595.1934800768
 31
0.0
  0
ELLIPSE
  5
17D
330
1F
100
AcDbEntity
  8
0
  6
Continuous
 62
     7
370
    25
100
AcDbEllipse
 10
426.4389588906
 20
595.2812109799
 30
0.0
 11
1.499999304622804
 21
0.0828726334386829
 31
0.0
210
0.0
220
0.0
230
1.0
 40
0.0174284859
 41
2.255125316696336
 42
3.158083049610884
  0
LINE
  5
17E
330
1F
100
AcDbEntity
  8
0
  6
Continuous
 62
     7
370
    25
100
AcDbLine
 10
428.9545735596
 20
595.4899705679
 30
0.0
 11
425.4896103502
 21
595.2490792889
 31
0.0
  0
LINE
  5
17F
330
1F
100
AcDbEntity
  8
0
  6
Continuous
 62
     7
370
    25
100
AcDbLine
 10
428.9545735596
 20
595.4898721767
 30
0.0
 11
428.9545735596
 21
595.4899705679
 31
0.0
  0
ELLIPSE
  5
180
330
1F
100
AcDbEntity
  8
0
  6
Continuous
 62
     7
370
    25
100
AcDbEllipse
 10
438.4040599806
 20
595.8195182282
 30
0.0
 11
14.49999327802044
 21
0.8011021232407529
 31
0.0
210
0.0
220
0.0
230
1.0
 40
0.0174284859
 41
1.543516838852418
 42
2.279642175407704
  0
ELLIPSE
  5
181
330
1F
100
AcDbEntity
  8
0
  6
Continuous
 62
     7
370
    25
100
AcDbEllipse
 10
439.7250698961
 20
596.7698017774
 30
0.0
 11
35.70262504606006
 21
1.972514619921981
 31
0.0
210
0.0
220
0.0
230
1.0
 40
0.0174284859
 41
4.685109492442213
 42
5.167309992307962
  0
ELLIPSE
  5
182
330
1F
100
AcDbEntity
  8
0
  6
Continuous
 62
     7
370
    25
100
AcDbEllipse
 10
458.7452973682
 20
597.1421978372
 30
0.0
 11
7.499996523114022
 21
0.4143631671934145
 31
0.0
210
0.0
220
0.0
230
1.0
 40
0.0174284859
 41
1.834826681008196
 42
2.025717338718137
  0
LINE
  5
183
330
1F
100
AcDbEntity
  8
0
  6
Continuous
 62
     7
370
    25
100
AcDbLine
 10
456.8006449671
 20
597.009853386
 30
0.0
 11
456.7810267097
 21
597.1602439305
 31
0.0
  0
SPLINE
  5
184
330
1F
100
AcDbEntity
  8
0
  6
Continuous
 62
     7
370
    25
100
AcDbSpline
210
0.0
220
0.0
230
1.0
 70
     8
 71
     3
 72
    10
 73
     6
 74
     0
 42
0.00000001
 43
0.00000001
 40
0.0
 40
0.0
 40
0.0
 40
0.0
 40
0.0186368637457253
 40
0.3939469944633057
 40
1.0
 40
1.0
 40
1.0
 40
1.0
 10
456.9844162528185
 20
597.01033975323
 30
0.0
 10
456.9819600455698
 20
597.0102520027507
 30
0.0
 10
456.9300406090928
 20
597.0083971285578
 30
0.0
 10
456.8260417606149
 20
597.0057171471796
 30
0.0
 10
456.8103411032656
 20
597.0082742285772
 30
0.0
 10
456.800644967122
 20
597.009853385985
 30
0.0
  0
LINE
  5
185
330
1F
100
AcDbEntity
  8
0
  6
Continuous
 62
     7
370
    25
100
AcDbLine
 10
473.5223003294
 20
597.9237537972
 30
0.0
 11
456.9844162528
 21
597.0103397532
 31
0.0
  0
LINE
  5
186
330
1F
100
AcDbEntity
  8
0
  6
Continuous
 62
     7
370
    25
100
AcDbLine
 10
456.9823505209
 20
586.8574070019
 30
0.0
 11
473.5162589443
 21
585.9442125396
 31
0.0
  0
SPLINE
  5
187
330
1F
100
AcDbEntity
  8
0
  6
Continuous
 62
     7
370
    25
100
AcDbSpline
210
0.0
220
0.0
230
1.0
 70
     8
 71
     3
 72
    11
 73
     7
 74
     0
 42
0.00000001
 43
0.00000001
 40
0.0
 40
0.0
 40
0.0
 40
0.0
 40
0.4177469294495291
 40
0.8392770662410922
 40
0.9817832068819584
 40
1.0
 40
1.0
 40
1.0
 40
1.0
 10
456.7986450802501
 20
586.8587564471381
 30
0.0
 10
456.803282108282
 20
586.8598396383218
 30
0.0
 10
456.8125981582833
 20
586.8620158303048
 30
0.0
 10
456.8880946240336
 20
586.8608136534135
 30
0.0
 10
456.9583548246055
 20
586.8583431260735
 30
0.0
 10
456.9799076612632
 20
586.8575023031165
 30
0.0
 10
456.9823505208932
 20
586.857407001858
 30
0.0
  0
LINE
  5
188
330
1F
100
AcDbEntity
  8
0
  6
Continuous
 62
     7
370
    25
100
AcDbLine
 10
456.7810267097
 20
586.7237064734
 30
0.0
 11
456.7986450803
 21
586.8587564471
 31
0.0
  0
ELLIPSE
  5
189
330
1F
100
AcDbEntity
  8
0
  6
Continuous
 62
     7
370
    25
100
AcDbEllipse
 10
458.7452973682
 20
586.7417525667
 30
0.0
 11
7.499996523114022
 21
-0.4143631671934145
 31
0.0
210
0.0
220
0.0
230
1.0
 40
0.0174284859
 41
4.257467968461595
 42
4.448358626171667
  0
ELLIPSE
  5
18A
330
1F
100
AcDbEntity
  8
0
  6
Continuous
 62
     7
370
    25
100
AcDbEllipse
 10
439.7250698961
 20
587.1141486265
 30
0.0
 11
35.70262504606001
 21
-1.972514619921867
 31
0.0
210
0.0
220
0.0
230
1.0
 40
0.0174284859
 41
1.115875314871755
 42
1.598075814737379
  0
ELLIPSE
  5
18B
330
1F
100
AcDbEntity
  8
0
  6
Continuous
 62
     7
370
    25
100
AcDbEllipse
 10
438.4040599806
 20
588.0644321757
 30
0.0
 11
14.49999327802044
 21
-0.8011021232408666
 31
0.0
210
0.0
220
0.0
230
1.0
 40
0.0174284859
 41
4.003543131772627
 42
4.739668468327145
  0
LINE
  5
18C
330
1F
100
AcDbEntity
  8
0
  6
Continuous
 62
     7
370
    25
100
AcDbLine
 10
428.9545735596
 20
588.393979836
 30
0.0
 11
428.9545735596
 21
588.3940782272
 31
0.0
  0
LINE
  5
18D
330
1F
100
AcDbEntity
  8
0
  6
Continuous
 62
     7
370
    25
100
AcDbLine
 10
425.4896103502
 20
588.634871115
 30
0.0
 11
428.9545735596
 21
588.393979836
 31
0.0
  0
ELLIPSE
  5
18E
330
1F
100
AcDbEntity
  8
0
  6
Continuous
 62
     7
370
    25
100
AcDbEllipse
 10
426.4389588906
 20
588.602739424
 30
0.0
 11
1.499999304622804
 21
-0.08287263343856921
 31
0.0
210
0.0
220
0.0
230
1.0
 40
0.0174284859
 41
3.125102257560916
 42
4.028059990476914
  0
LINE
  5
18F
330
1F
100
AcDbEntity
  8
0
  6
Continuous
 62
     7
370
    25
100
AcDbLine
 10
424.9438777085
 20
588.6904703271
 30
0.0
 11
424.9391873479
 21
588.686031874
 31
0.0
  0
LINE
  5
190
330
1F
100
AcDbEntity
  8
0
  6
Continuous
 62
     7
370
    25
100
AcDbLine
 10
473.5162589443
 20
585.9442125396
 30
0.0
 11
473.5492865111
 21
586.0314868821
 31
0.0
  0
SPLINE
  5
191
330
1F
100
AcDbEntity
  8
0
  6
Continuous
 62
     7
370
    25
100
AcDbSpline
210
0.0
220
0.0
230
1.0
 70
     8
 71
     3
 72
     9
 73
     5
 74
     0
 42
0.00000001
 43
0.00000001
 40
0.0
 40
0.0
 40
0.0
 40
0.0
 40
0.5001021276704695
 40
1.0
 40
1.0
 40
1.0
 40
1.0
 10
476.3421987582054
 20
598.989867783228
 30
0.0
 10
475.9132509824981
 20
598.7033421491393
 30
0.0
 10
475.0555306250475
 20
598.1304079058416
 30
0.0
 10
474.0333074964324
 20
597.9926291193874
 30
0.0
 10
473.5223003293917
 20
597.9237537971869
 30
0.0
  0
LINE
  5
192
330
1F
100
AcDbEntity
  8
0
  6
Continuous
 62
     7
370
    25
100
AcDbLine
 10
476.3421987582
 20
598.9898677832
 30
0.0
 11
476.3754176243
 21
598.9241763363
 31
0.0
  0
SPLINE
  5
193
330
1F
100
AcDbEntity
  8
0
  6
Continuous
 62
     7
370
    25
100
AcDbSpline
210
0.0
220
0.0
230
1.0
 70
     8
 71
     3
 72
     9
 73
     5
 74
     0
 42
0.00000001
 43
0.00000001
 40
0.0
 40
0.0
 40
0.0
 40
0.0
 40
0.400722737156528
 40
1.0
 40
1.0
 40
1.0
 40
1.0
 10
473.51625894434
 20
585.9442125396434
 30
0.0
 10
473.9249450677493
 20
585.8958052775778
 30
0.0
 10
474.9448176267891
 20
585.775005388834
 30
0.0
 10
475.813893670615
 20
585.2148981154803
 30
0.0
 10
476.3347111833618
 20
584.8792385618062
 30
0.0
  0
LINE
  5
194
330
1F
100
AcDbEntity
  8
0
  6
Continuous
 62
     7
370
    25
100
AcDbLine
 10
476.3754176243
 20
584.9597740676
 30
0.0
 11
476.3347111834
 21
584.8792385618
 31
0.0
  0
ARC
  5
195
330
1F
100
AcDbEntity
  8
0
  6
Continuous
 62
     7
370
    25
100
AcDbCircle
 10
481.9000443381
 20
591.941975202
 30
0.0
 40
8.975658044222177
100
AcDbArc
 50
65.1648853947
 51
128.2586979829
  0
LWPOLYLINE
  5
196
330
1F
100
AcDbEntity
  8
0
  6
Continuous
 62
     7
370
    25
100
AcDbPolyline
 90
        3
 70
   128
 43
0.0
 10
485.8353577623
 20
600.1926349252
 10
485.7307761982
 20
600.126382514
 10
485.6698956555
 20
600.0875665477
  0
ARC
  5
197
330
1F
100
AcDbEntity
  8
0
  6
Continuous
 62
     7
370
    25
100
AcDbCircle
 10
481.9000443381
 20
591.941975202
 30
0.0
 40
9.141120151092183
100
AcDbArc
 50
295.4997164176
 51
64.5002794289
  0
LWPOLYLINE
  5
198
330
1F
100
AcDbEntity
  8
0
  6
Continuous
 62
     7
370
    25
100
AcDbPolyline
 90
        3
 70
   128
 43
0.0
 10
485.6861885659
 20
583.7859777855
 10
485.7307761982
 20
583.7575678899
 10
485.8353577626
 20
583.6913154785
  0
ARC
  5
199
330
1F
100
AcDbEntity
  8
0
  6
Continuous
 62
     7
370
    25
100
AcDbCircle
 10
481.9000443381
 20
591.941975202
 30
0.0
 40
8.991950954660869
100
AcDbArc
 50
231.762407147
 51
294.9014811666
  0
LINE
  5
19A
330
1F
100
AcDbEntity
  8
0
  6
Continuous
 62
     7
370
    25
100
AcDbLine
 10
424.4668330828
 20
589.185194945
 30
0.0
 11
424.4715234434
 21
589.1896333981
 31
0.0
  0
LINE
  5
19B
330
1F
100
AcDbEntity
  8
0
  6
Continuous
 62
     7
370
    25
100
AcDbLine
 10
424.4668330828
 20
594.6987554589
 30
0.0
 11
424.4668330828
 21
589.185194945
 31
0.0
  0
LINE
  5
19C
330
1F
100
AcDbEntity
  8
0
  6
Continuous
 62
     7
370
    25
100
AcDbLine
 10
424.4715234434
 20
594.6943170058
 30
0.0
 11
424.4668330828
 21
594.6987554589
 31
0.0
  0
ARC
  5
19D
330
1F
100
AcDbEntity
  8
0
  6
Continuous
 62
     7
370
    25
100
AcDbCircle
 10
424.9669329704
 20
589.1853615304
 30
0.0
 40
0.5000999153467998
100
AcDbArc
 50
180.0190854617
 51
266.8195880753
  0
ARC
  5
19E
330
1F
100
AcDbEntity
  8
0
  6
Continuous
 62
     7
370
    25
100
AcDbCircle
 10
424.9669329704
 20
594.6985888735
 30
0.0
 40
0.5000999153469543
100
AcDbArc
 50
93.1804119247
 51
179.9809145383
  0
LINE
  5
19F
330
1F
100
AcDbEntity
  8
0
  6
Continuous
 62
     7
370
    25
100
AcDbLine
 10
425.4896103502
 20
595.2490792889
 30
0.0
 11
425.4825026194
 21
595.2487122523
 31
0.0
  0
LINE
  5
1A0
330
1F
100
AcDbEntity
  8
0
  6
Continuous
 62
     7
370
    25
100
AcDbLine
 10
425.4896103502
 20
588.634871115
 30
0.0
 11
425.4825026194
 21
588.6352381516
 31
0.0
  0
SPLINE
  5
1A1
330
1F
100
AcDbEntity
  8
0
  6
Continuous
 62
     7
370
    25
100
AcDbSpline
210
0.0
220
0.0
230
1.0
 70
     8
 71
     3
 72
    12
 73
     8
 74
     0
 42
0.00000001
 43
0.00000001
 40
0.0
 40
0.0
 40
0.0
 40
0.0
 40
0.1662426524176545
 40
0.3368059756191297
 40
0.6054181071254586
 40
0.8801435087136193
 40
1.0
 40
1.0
 40
1.0
 40
1.0
 10
475.7779850907617
 20
603.6186355836257
 30
0.0
 10
476.4156666112978
 20
603.4631504081428
 30
0.0
 10
477.7076030880983
 20
603.1481389747876
 30
0.0
 10
479.8917894704477
 20
602.485173869789
 30
0.0
 10
482.2537638140075
 20
601.6329789529836
 30
0.0
 10
484.2193013759001
 20
600.7903502743716
 30
0.0
 10
485.3330763606957
 20
600.2524921816763
 30
0.0
 10
485.6713918388532
 20
600.0891147308491
 30
0.0
  0
LINE
  5
1A2
330
1F
100
AcDbEntity
  8
0
  6
Continuous
 62
     7
370
    25
100
AcDbLine
 10
475.7779850908
 20
603.6186355836
 30
0.0
 11
475.7938431677
 21
603.6881091152
 31
0.0
  0
ARC
  5
1A3
330
1F
100
AcDbEntity
  8
0
  6
Continuous
 62
     7
370
    25
100
AcDbCircle
 10
465.0720649312
 20
556.7164743029
 30
0.0
 40
48.17977797259051
100
AcDbArc
 50
64.4718479123
 51
77.1419190681
  0
LWPOLYLINE
  5
1A4
330
1F
100
AcDbEntity
  8
0
  6
Continuous
 62
     7
370
    25
100
AcDbPolyline
 90
        3
 70
   128
 43
0.0
 10
485.6713918389
 20
600.0891147308
 10
485.7307796892
 20
600.1266384344
 10
485.835357762
 20
600.1926364643
  0
SPLINE
  5
1A5
330
1F
100
AcDbEntity
  8
0
  6
Continuous
 62
     7
370
    25
100
AcDbSpline
210
0.0
220
0.0
230
1.0
 70
     8
 71
     3
 72
    11
 73
     7
 74
     0
 42
0.00000001
 43
0.00000001
 40
0.0
 40
0.0
 40
0.0
 40
0.0
 40
0.1345990676765959
 40
0.4126978815969493
 40
0.6969472592954598
 40
1.0
 40
1.0
 40
1.0
 40
1.0
 10
485.6706742618962
 20
600.0883731647751
 30
0.0
 10
485.2413682416478
 20
600.2792570499362
 30
0.0
 10
483.9250613149237
 20
600.8645313493562
 30
0.0
 10
481.5492512640404
 20
601.4869992333798
 30
0.0
 10
478.4955618791593
 20
601.86350191588
 30
0.0
 10
476.3045319707986
 20
601.8906432442129
 30
0.0
 10
475.1739424532606
 20
601.904648393658
 30
0.0
  0
ARC
  5
1A6
330
1F
100
AcDbEntity
  8
0
  6
Continuous
 62
     7
370
    25
100
AcDbCircle
 10
479.6664734463
 20
601.2848243491
 30
0.0
 40
4.535087272516783
100
AcDbArc
 50
149.0284626407
 51
172.1446266983
  0
LINE
  5
1A7
330
1F
100
AcDbEntity
  8
0
  6
Continuous
 62
     7
370
    25
100
AcDbLine
 10
485.6713918389
 20
600.0891147308
 30
0.0
 11
485.6706742619
 21
600.0883731648
 31
0.0
  0
LINE
  5
1A8
330
1F
100
AcDbEntity
  8
0
  6
Continuous
 62
     7
370
    25
100
AcDbLine
 10
476.3421987582
 20
598.9898677832
 30
0.0
 11
474.144326838
 21
601.7769846576
 31
0.0
  0
ARC
  5
1A9
330
1F
100
AcDbEntity
  8
0
  6
Continuous
 62
     7
370
    25
100
AcDbCircle
 10
481.9000443381
 20
591.941975202
 30
0.0
 40
12.52511736202734
100
AcDbArc
 50
127.8583068702
 51
128.2586979829
  0
LINE
  5
1AA
330
1F
100
AcDbEntity
  8
0
  6
Continuous
 62
     7
370
    25
100
AcDbLine
 10
475.1739424533
 20
601.9046483937
 30
0.0
 11
474.2132441044
 21
601.8309421399
 31
0.0
  0
LINE
  5
1AB
330
1F
100
AcDbEntity
  8
0
  6
Continuous
 62
     7
370
    25
100
AcDbLine
 10
485.6698956555
 20
600.0875665477
 30
0.0
 11
485.6706742619
 21
600.0883731648
 31
0.0
  0
LINE
  5
1AC
330
1F
100
AcDbEntity
  8
0
  6
Continuous
 62
     7
370
    25
100
AcDbLine
 10
471.2264737776
 20
601.3518206529
 30
0.0
 11
473.3265562937
 21
601.4678116016
 31
0.0
  0
LINE
  5
1AD
330
1F
100
AcDbEntity
  8
0
  6
Continuous
 62
     7
370
    25
100
AcDbLine
 10
473.5223003294
 20
597.9237537972
 30
0.0
 11
473.3265562937
 21
601.4678116016
 31
0.0
  0
SPLINE
  5
1AE
330
1F
100
AcDbEntity
  8
0
  6
Continuous
 62
     7
370
    25
100
AcDbSpline
210
0.0
220
0.0
230
1.0
 70
     8
 71
     3
 72
    16
 73
    12
 74
     0
 42
0.00000001
 43
0.00000001
 40
0.0
 40
0.0
 40
0.0
 40
0.0
 40
0.2861254310575669
 40
0.7591203623085425
 40
0.8520758313858449
 40
0.9266344548631255
 40
0.9604862301433736
 40
0.9835335436569232
 40
0.9930756629548352
 40
0.9972242292023619
 40
1.0
 40
1.0
 40
1.0
 40
1.0
 10
469.7858054155127
 20
600.8276769709399
 30
0.0
 10
468.557658578389
 20
600.297609661588
 30
0.0
 10
465.2992579933048
 20
598.8912862654607
 30
0.0
 10
461.5016765386974
 20
597.8734742625765
 30
0.0
 10
458.7040148887929
 20
597.3115540448049
 30
0.0
 10
457.8388819498985
 20
597.1570515289119
 30
0.0
 10
457.3132957811643
 20
597.0685308630815
 30
0.0
 10
457.0796335224504
 20
597.0294214794328
 30
0.0
 10
457.0019833752895
 20
597.0151015104632
 30
0.0
 10
456.9859017202544
 20
597.0113677718402
 30
0.0
 10
456.9848413323326
 20
597.0106339297571
 30
0.0
 10
456.9844162528185
 20
597.01033975323
 30
0.0
  0
LINE
  5
1AF
330
1F
100
AcDbEntity
  8
0
  6
Continuous
 62
     7
370
    25
100
AcDbLine
 10
471.2264737776
 20
601.3518206529
 30
0.0
 11
469.7858054155
 21
600.8276769709
 31
0.0
  0
ARC
  5
1B0
330
1F
100
AcDbEntity
  8
0
  6
Continuous
 62
     7
370
    25
100
AcDbCircle
 10
463.9823726244
 20
597.2185745901
 30
0.0
 40
6.834138728215444
100
AcDbArc
 50
31.8771071303
 51
46.9488007428
  0
SPLINE
  5
1B1
330
1F
100
AcDbEntity
  8
0
  6
Continuous
 62
     7
370
    25
100
AcDbSpline
210
0.0
220
0.0
230
1.0
 70
     8
 71
     3
 72
    10
 73
     6
 74
     0
 42
0.00000001
 43
0.00000001
 40
0.0
 40
0.0
 40
0.0
 40
0.0
 40
0.5975855365574454
 40
0.9790563563181981
 40
1.0
 40
1.0
 40
1.0
 40
1.0
 10
456.8743909331308
 20
597.0194666505694
 30
0.0
 10
456.8718717937774
 20
597.0157273528429
 30
0.0
 10
456.8677445529967
 20
597.0096010613195
 30
0.0
 10
456.9421156795523
 20
597.009224502463
 30
0.0
 10
456.9823236316566
 20
597.0102845814633
 30
0.0
 10
456.9844162528185
 20
597.01033975323
 30
0.0
  0
SPLINE
  5
1B2
330
1F
100
AcDbEntity
  8
0
  6
Continuous
 62
     7
370
    25
100
AcDbSpline
210
0.0
220
0.0
230
1.0
 70
     8
 71
     3
 72
    14
 73
    10
 74
     0
 42
0.00000001
 43
0.00000001
 40
0.0
 40
0.0
 40
0.0
 40
0.0
 40
0.0129036569231464
 40
0.0519665716781148
 40
0.131889182426121
 40
0.2280032005552168
 40
0.4679440229400842
 40
0.7079115564493631
 40
0.9999999999999999
 40
0.9999999999999999
 40
0.9999999999999999
 40
0.9999999999999999
 10
456.8743909331308
 20
597.0194666505694
 30
0.0
 10
456.9078595095951
 20
597.0273116246307
 30
0.0
 10
457.0426466624278
 20
597.0589054905631
 30
0.0
 10
457.4819201074204
 20
597.1612875378569
 30
0.0
 10
458.2933475256462
 20
597.363689046674
 30
0.0
 10
459.9468247074668
 20
597.8307397274401
 30
0.0
 10
462.2911147797105
 20
598.6681967868304
 30
0.0
 10
465.4362089562077
 20
600.1131370271809
 30
0.0
 10
467.5095076304002
 20
601.4685079099755
 30
0.0
 10
468.6477085131473
 20
602.2125803171252
 30
0.0
  0
LWPOLYLINE
  5
1B3
330
1F
100
AcDbEntity
  8
0
  6
Continuous
 62
     7
370
    25
100
AcDbPolyline
 90
        4
 70
   128
 43
0.0
 10
456.8548641191
 20
597.1705622268
 10
456.8571087547
 20
597.15320408
 10
456.8660837887
 20
597.0837713338
 10
456.8743909331
 20
597.0194666506
  0
LINE
  5
1B4
330
1F
100
AcDbEntity
  8
0
  6
Continuous
 62
     7
370
    25
100
AcDbLine
 10
458.6429884028
 20
597.6000897301
 30
0.0
 11
456.8548641191
 21
597.1705622268
 31
0.0
  0
ARC
  5
1B5
330
1F
100
AcDbEntity
  8
0
  6
Continuous
 62
     7
370
    25
100
AcDbCircle
 10
450.4574300043
 20
628.025783324
 30
0.0
 40
31.50755777528337
100
AcDbArc
 50
285.0579972479
 51
305.1719294169
  0
LINE
  5
1B6
330
1F
100
AcDbEntity
  8
0
  6
Continuous
 62
     7
370
    25
100
AcDbLine
 10
468.6477085131
 20
602.2125803171
 30
0.0
 11
468.6067886269
 21
602.2706483302
 31
0.0
  0
SPLINE
  5
1B7
330
1F
100
AcDbEntity
  8
0
  6
Continuous
 62
     7
370
    25
100
AcDbSpline
210
0.0
220
0.0
230
1.0
 70
     8
 71
     3
 72
     9
 73
     5
 74
     0
 42
0.00000001
 43
0.00000001
 40
0.0
 40
0.0
 40
0.0
 40
0.0
 40
0.4998978730609624
 40
1.0
 40
1.0
 40
1.0
 40
1.0
 10
473.3265562936864
 20
601.4678116016307
 30
0.0
 10
473.4747512095822
 20
601.487777939633
 30
0.0
 10
473.7712015925142
 20
601.5277187737076
 30
0.0
 10
474.0199348212908
 20
601.6938847162783
 30
0.0
 10
474.1443268380424
 20
601.7769846575827
 30
0.0
  0
ARC
  5
1B8
330
1F
100
AcDbEntity
  8
0
  6
Continuous
 62
     7
370
    25
100
AcDbCircle
 10
456.7730556182
 20
597.5091680904
 30
0.0
 40
0.5000763403713241
100
AcDbArc
 50
273.1626296399
 51
281.6913635618
  0
SPLINE
  5
1B9
330
1F
100
AcDbEntity
  8
0
  6
Continuous
 62
     7
370
    25
100
AcDbSpline
210
0.0
220
0.0
230
1.0
 70
     8
 71
     3
 72
    12
 73
     8
 74
     0
 42
0.00000001
 43
0.00000001
 40
0.0
 40
0.0
 40
0.0
 40
0.0
 40
0.046072672532115
 40
0.2494576442748305
 40
0.4755636088397373
 40
0.7057929889265022
 40
1.0
 40
1.0
 40
1.0
 40
1.0
 10
485.6874228125434
 20
583.7847034418525
 30
0.0
 10
485.559087403368
 20
583.722198742513
 30
0.0
 10
484.8642232444108
 20
583.3837709023996
 30
0.0
 10
483.5114242748886
 20
582.7681874862592
 30
0.0
 10
481.5035556308071
 20
581.9607281810047
 30
0.0
 10
479.0082838158015
 20
581.0876080634769
 30
0.0
 10
477.0693376276668
 20
580.5902584238338
 30
0.0
 10
475.9815954872303
 20
580.3112469871674
 30
0.0
  0
LINE
  5
1BA
330
1F
100
AcDbEntity
  8
0
  6
Continuous
 62
     7
370
    25
100
AcDbLine
 10
475.5281354093
 20
582.2588495164
 30
0.0
 11
475.9815954872
 21
580.3112469872
 31
0.0
  0
SPLINE
  5
1BB
330
1F
100
AcDbEntity
  8
0
  6
Continuous
 62
     7
370
    25
100
AcDbSpline
210
0.0
220
0.0
230
1.0
 70
     8
 71
     3
 72
    13
 73
     9
 74
     0
 42
0.00000001
 43
0.00000001
 40
0.0
 40
0.0
 40
0.0
 40
0.0
 40
0.2574896950994368
 40
0.4890886589321025
 40
0.7206004760683485
 40
0.9447506334961274
 40
0.9460032291293288
 40
1.0
 40
1.0
 40
1.0
 40
1.0
 10
475.5281354093433
 20
582.2588495163812
 30
0.0
 10
476.4468609853312
 20
582.2307865522665
 30
0.0
 10
478.1919337724693
 20
582.1774823706012
 30
0.0
 10
480.6864990183827
 20
582.3420464894392
 30
0.0
 10
483.0021488243836
 20
582.7554204844494
 30
0.0
 10
484.4792574259876
 20
583.2549776710125
 30
0.0
 10
485.3505188705283
 20
583.6292205259426
 30
0.0
 10
485.5205652793512
 20
583.7082009444277
 30
0.0
 10
485.6867564514064
 20
583.7853907446024
 30
0.0
  0
LINE
  5
1BC
330
1F
100
AcDbEntity
  8
0
  6
Continuous
 62
     7
370
    25
100
AcDbLine
 10
485.6867564514
 20
583.7853907446
 30
0.0
 11
485.6874228125
 21
583.7847034419
 31
0.0
  0
ARC
  5
1BD
330
1F
100
AcDbEntity
  8
0
  6
Continuous
 62
     7
370
    25
100
AcDbCircle
 10
465.0720649312
 20
627.167476101
 30
0.0
 40
48.10950076354631
100
AcDbArc
 50
282.8580809319
 51
283.1066633214
  0
LWPOLYLINE
  5
1BE
330
1F
100
AcDbEntity
  8
0
  6
Continuous
 62
     7
370
    25
100
AcDbPolyline
 90
        3
 70
   128
 43
0.0
 10
485.6874228125
 20
583.7847034419
 10
485.7307796892
 20
583.7573119695
 10
485.8353577623
 20
583.6913139394
  0
ARC
  5
1BF
330
1F
100
AcDbEntity
  8
0
  6
Continuous
 62
     7
370
    25
100
AcDbCircle
 10
465.0720649312
 20
627.167476101
 30
0.0
 40
48.17977797259059
100
AcDbArc
 50
282.8580809319
 51
295.5281512988
  0
LINE
  5
1C0
330
1F
100
AcDbEntity
  8
0
  6
Continuous
 62
     7
370
    25
100
AcDbLine
 10
475.7782038957
 20
580.2643562454
 30
0.0
 11
475.7938431677
 21
580.1958412887
 31
0.0
  0
LINE
  5
1C1
330
1F
100
AcDbEntity
  8
0
  6
Continuous
 62
     7
370
    25
100
AcDbLine
 10
473.5162589443
 20
585.9442125396
 30
0.0
 11
473.3728971154
 21
583.3485645702
 31
0.0
  0
LINE
  5
1C2
330
1F
100
AcDbEntity
  8
0
  6
Continuous
 62
     7
370
    25
100
AcDbLine
 10
473.3728971154
 20
583.3485645702
 30
0.0
 11
469.4228160936
 21
583.5667339239
 31
0.0
  0
SPLINE
  5
1C3
330
1F
100
AcDbEntity
  8
0
  6
Continuous
 62
     7
370
    25
100
AcDbSpline
210
0.0
220
0.0
230
1.0
 70
     8
 71
     3
 72
    17
 73
    13
 74
     0
 42
0.00000001
 43
0.00000001
 40
0.0
 40
0.0
 40
0.0
 40
0.0
 40
0.0068264277560524
 40
0.0088450004853816
 40
0.0223994102884418
 40
0.0309598270239211
 40
0.0563228448230689
 40
0.1198844474831666
 40
0.1957493698893797
 40
0.555871606010061
 40
0.7769840750939091
 40
1.0
 40
1.0
 40
1.0
 40
1.0
 10
456.9823505208932
 20
586.857407001858
 30
0.0
 10
456.9859706660624
 20
586.8563688188133
 30
0.0
 10
456.9906612871197
 20
586.85502364534
 30
0.0
 10
457.0341939997513
 20
586.8474336572616
 30
0.0
 10
457.1087259237108
 20
586.8356821505306
 30
0.0
 10
457.2755581619944
 20
586.8099632549497
 30
0.0
 10
457.6571344082461
 20
586.7514486823286
 30
0.0
 10
458.3400339345517
 20
586.6422516263683
 30
0.0
 10
460.445049735584
 20
586.2750802107316
 30
0.0
 10
463.2531760039865
 20
585.6419133083758
 30
0.0
 10
466.6527416892441
 20
584.6294674319003
 30
0.0
 10
468.4968234892063
 20
583.921989135533
 30
0.0
 10
469.4228160935665
 20
583.5667339238634
 30
0.0
  0
LINE
  5
1C4
330
1F
100
AcDbEntity
  8
0
  6
Continuous
 62
     7
370
    25
100
AcDbLine
 10
469.4228160936
 20
583.5667339239
 30
0.0
 11
468.2933406761
 21
581.9165621342
 31
0.0
  0
SPLINE
  5
1C5
330
1F
100
AcDbEntity
  8
0
  6
Continuous
 62
     7
370
    25
100
AcDbSpline
210
0.0
220
0.0
230
1.0
 70
     8
 71
     3
 72
    14
 73
    10
 74
     0
 42
0.00000001
 43
0.00000001
 40
0.0
 40
0.0
 40
0.0
 40
0.0
 40
0.2256458607195977
 40
0.4518169308148961
 40
0.8157761447763431
 40
0.8946140573305374
 40
0.9637846180221655
 40
0.994079914312567
 40
1.0
 40
1.0
 40
1.0
 40
1.0
 10
468.2933406760745
 20
581.9165621342246
 30
0.0
 10
467.4475931290034
 20
582.4615858567258
 30
0.0
 10
465.7541294875995
 20
583.552901889453
 30
0.0
 10
462.5739073875473
 20
585.118342974255
 30
0.0
 10
459.9026293243808
 20
586.071721808491
 30
0.0
 10
457.9521008371296
 20
586.5931699546201
 30
0.0
 10
457.3080243266878
 20
586.7485506292622
 30
0.0
 10
456.9800734304611
 20
586.8241006901067
 30
0.0
 10
456.8875360978624
 20
586.8456214642517
 30
0.0
 10
456.8724091294762
 20
586.849139439765
 30
0.0
  0
SPLINE
  5
1C6
330
1F
100
AcDbEntity
  8
0
  6
Continuous
 62
     7
370
    25
100
AcDbSpline
210
0.0
220
0.0
230
1.0
 70
     8
 71
     3
 72
    11
 73
     7
 74
     0
 42
0.00000001
 43
0.00000001
 40
0.0
 40
0.0
 40
0.0
 40
0.0
 40
0.0195561212295927
 40
0.1681891996744411
 40
0.5898876540792777
 40
1.0
 40
1.0
 40
1.0
 40
1.0
 10
456.9823505208932
 20
586.857407001858
 30
0.0
 10
456.9803918077452
 20
586.8574651155737
 30
0.0
 10
456.9635462179224
 20
586.8579649130145
 30
0.0
 10
456.9116456541633
 20
586.8588113304279
 30
0.0
 10
456.8623610220977
 20
586.8567220319059
 30
0.0
 10
456.8690910071741
 20
586.8516433907224
 30
0.0
 10
456.8724091294761
 20
586.849139439765
 30
0.0
  0
LINE
  5
1C7
330
1F
100
AcDbEntity
  8
0
  6
Continuous
 62
     7
370
    25
100
AcDbLine
 10
476.3347111834
 20
584.8792385618
 30
0.0
 11
474.7257541901
 21
582.8373770608
 31
0.0
  0
LINE
  5
1C8
330
1F
100
AcDbEntity
  8
0
  6
Continuous
 62
     7
370
    25
100
AcDbLine
 10
485.6867564514
 20
583.7853907446
 30
0.0
 11
485.6861885659
 21
583.7859777855
 31
0.0
  0
ARC
  5
1C9
330
1F
100
AcDbEntity
  8
0
  6
Continuous
 62
     7
370
    25
100
AcDbCircle
 10
481.9000443381
 20
591.941975202
 30
0.0
 40
11.59155496206746
100
AcDbArc
 50
231.762407147
 51
236.6533814372
  0
LWPOLYLINE
  5
1CA
330
1F
100
AcDbEntity
  8
0
  6
Continuous
 62
     7
370
    25
100
AcDbPolyline
 90
        4
 70
   128
 43
0.0
 10
456.8724091295
 20
586.8491394398
 10
456.8701668832
 20
586.8317811848
 10
456.8611944003
 20
586.7623483231
 10
456.8548641191
 20
586.7133881771
  0
ARC
  5
1CB
330
1F
100
AcDbEntity
  8
0
  6
Continuous
 62
     7
370
    25
100
AcDbCircle
 10
450.4574300043
 20
555.8581670799
 30
0.0
 40
31.57783498432749
100
AcDbArc
 50
54.8280705831
 51
55.6099480104
  0
LINE
  5
1CC
330
1F
100
AcDbEntity
  8
0
  6
Continuous
 62
     7
370
    25
100
AcDbLine
 10
468.6472705418
 20
581.6707485765
 30
0.0
 11
468.6067886269
 21
581.6133020737
 31
0.0
  0
ARC
  5
1CD
330
1F
100
AcDbEntity
  8
0
  6
Continuous
 62
     7
370
    25
100
AcDbCircle
 10
450.4574300043
 20
555.8581670799
 30
0.0
 40
31.50755777528337
100
AcDbArc
 50
54.8280705831
 51
74.9420027521
  0
LINE
  5
1CE
330
1F
100
AcDbEntity
  8
0
  6
Continuous
 62
     7
370
    25
100
AcDbLine
 10
456.8548641191
 20
586.7133881771
 30
0.0
 11
458.6429884028
 21
586.2838606738
 31
0.0
  0
LINE
  5
1CF
330
1F
100
AcDbEntity
  8
0
  6
Continuous
 62
     7
370
    25
100
AcDbLine
 10
456.7810267097
 20
597.1602439305
 30
0.0
 11
456.8548641191
 21
597.1705622268
 31
0.0
  0
SPLINE
  5
1D0
330
1F
100
AcDbEntity
  8
0
  6
Continuous
 62
     7
370
    25
100
AcDbSpline
210
0.0
220
0.0
230
1.0
 70
     8
 71
     3
 72
    10
 73
     6
 74
     0
 42
0.00000001
 43
0.00000001
 40
0.0
 40
0.0
 40
0.0
 40
0.0
 40
0.0490769085761659
 40
0.599580584366531
 40
1.0
 40
1.0
 40
1.0
 40
1.0
 10
474.7257541901034
 20
582.8373770608299
 30
0.0
 10
474.7068066517343
 20
582.8519997964313
 30
0.0
 10
474.4753214898278
 20
583.0306481386203
 30
0.0
 10
474.0294477150104
 20
583.2647001320416
 30
0.0
 10
473.567441138126
 20
583.3237145050592
 30
0.0
 10
473.3728971153724
 20
583.3485645701916
 30
0.0
  0
ARC
  5
1D1
330
1F
100
AcDbEntity
  8
0
  6
Continuous
 62
     7
370
    25
100
AcDbCircle
 10
456.7710557285
 20
586.3594417427
 30
0.0
 40
0.5000763405425795
100
AcDbArc
 50
78.3065203382
 51
86.8373700343
  0
SPLINE
  5
1D2
330
1F
100
AcDbEntity
  8
0
  6
Continuous
 62
     7
370
    25
100
AcDbSpline
210
0.0
220
0.0
230
1.0
 70
     8
 71
     3
 72
     9
 73
     5
 74
     0
 42
0.00000001
 43
0.00000001
 40
0.0
 40
0.0
 40
0.0
 40
0.0
 40
0.8458911907785839
 40
1.0
 40
1.0
 40
1.0
 40
1.0
 10
456.8548641190656
 20
586.7133881770787
 30
0.0
 10
456.8340235229546
 20
586.717202984071
 30
0.0
 10
456.8093860798198
 20
586.7217127922283
 30
0.0
 10
456.7848135526435
 20
586.7234402559794
 30
0.0
 10
456.7810267097407
 20
586.7237064733611
 30
0.0
  0
LINE
  5
1D3
330
1F
100
AcDbEntity
  8
0
  6
Continuous
 62
     7
370
    25
100
AcDbLine
 10
438.7856065121
 20
587.7899623266
 30
0.0
 11
438.7860645319
 21
587.7899372402
 31
0.0
  0
LINE
  5
1D4
330
1F
100
AcDbEntity
  8
0
  6
Continuous
 62
     7
370
    25
100
AcDbLine
 10
468.6477085131
 20
602.2125803171
 30
0.0
 11
470.4864493625
 21
603.2095465528
 31
0.0
  0
LINE
  5
1D5
330
1F
100
AcDbEntity
  8
0
  6
Continuous
 62
     7
370
    25
100
AcDbLine
 10
471.2264737776
 20
601.3518206529
 30
0.0
 11
470.4864493625
 21
603.2095465528
 31
0.0
  0
LINE
  5
1D6
330
1F
100
AcDbEntity
  8
0
  6
Continuous
 62
     7
370
    25
100
AcDbLine
 10
474.2132441044
 20
601.8309421399
 30
0.0
 11
474.335077851
 21
603.8269226489
 31
0.0
  0
LINE
  5
1D7
330
1F
100
AcDbEntity
  8
0
  6
Continuous
 62
     7
370
    25
100
AcDbLine
 10
474.335077851
 20
603.8269226489
 30
0.0
 11
475.7779850908
 21
603.6186355836
 31
0.0
  0
ARC
  5
1D8
330
1F
100
AcDbEntity
  8
0
  6
Continuous
 62
     7
370
    25
100
AcDbCircle
 10
465.0720649312
 20
627.167476101
 30
0.0
 40
46.10980537323367
100
AcDbArc
 50
282.8580809319
 51
283.1066633214
  0
LINE
  5
1D9
330
1F
100
AcDbEntity
  8
0
  6
Continuous
 62
     7
370
    25
100
AcDbLine
 10
475.3331978908
 20
582.2139078116
 30
0.0
 11
475.7782038957
 21
580.2643562454
 31
0.0
  0
ARC
  5
1DA
330
1F
100
AcDbEntity
  8
0
  6
Continuous
 62
     7
370
    25
100
AcDbCircle
 10
450.4574300043
 20
555.8581670799
 30
0.0
 40
33.57753037464028
100
AcDbArc
 50
54.8280705831
 51
55.6099480104
  0
ARC
  5
1DB
330
1F
100
AcDbEntity
  8
0
  6
Continuous
 62
     7
370
    25
100
AcDbCircle
 10
473.7910291328
 20
588.9700807261
 30
0.0
 40
6.929946387144284
100
AcDbArc
 50
234.8280705831
 51
282.8580809319
  0
ARC
  5
1DC
330
1F
100
AcDbEntity
  8
0
  6
Continuous
 62
     7
370
    25
100
AcDbCircle
 10
473.7910291328
 20
588.9700807261
 30
0.0
 40
8.929641777457059
100
AcDbArc
 50
234.8280705831
 51
282.8580809319
  0
LINE
  5
1DD
330
1F
100
AcDbEntity
  8
0
  6
Continuous
 62
     7
370
    25
100
AcDbLine
 10
469.7991588929
 20
583.305353997
 30
0.0
 11
468.6472705418
 21
581.6707485765
 31
0.0
  0
ARC
  5
1DE
330
1F
100
AcDbEntity
  8
0
  6
Continuous
 62
     7
370
    25
100
AcDbCircle
 10
473.7910291328
 20
594.9138696778
 30
0.0
 40
6.929946387144414
100
AcDbArc
 50
86.5070253286
 51
111.7198462835
  0
ARC
  5
1DF
330
1F
100
AcDbEntity
  8
0
  6
Continuous
 62
     7
370
    25
100
AcDbCircle
 10
473.7910291328
 20
594.9138696778
 30
0.0
 40
8.929641777457107
100
AcDbArc
 50
86.5070253286
 51
111.7198462835
  0
ARC
  5
1E0
330
1F
100
AcDbEntity
  8
0
  6
Continuous
 62
     7
370
    25
100
AcDbCircle
 10
473.7910291328
 20
594.9138696778
 30
0.0
 40
8.999918986501271
100
AcDbArc
 50
77.1419190681
 51
125.1719294169
  0
ARC
  5
1E1
330
1F
100
AcDbEntity
  8
0
  6
Continuous
 62
     7
370
    25
100
AcDbCircle
 10
473.7910291328
 20
588.9700807261
 30
0.0
 40
8.999918986501177
100
AcDbArc
 50
234.8280705831
 51
282.8580809319
  0
SPLINE
  5
1E2
330
1F
100
AcDbEntity
  8
0
  6
Continuous
 62
     7
370
    25
100
AcDbSpline
210
0.0
220
0.0
230
1.0
 70
     8
 71
     3
 72
    11
 73
     7
 74
     0
 42
0.00000001
 43
0.00000001
 40
0.0
 40
0.0
 40
0.0
 40
0.0
 40
0.2200386424382255
 40
0.6637869905998169
 40
0.8890365590789576
 40
1.0
 40
1.0
 40
1.0
 40
1.0
 10
691.7776344826642
 20
597.9622935089058
 30
0.0
 10
691.9818559456656
 20
597.697274897647
 30
0.0
 10
692.5979275085492
 20
596.8977975673422
 30
0.0
 10
693.1214768595664
 20
595.6346282968143
 30
0.0
 10
693.3731060593276
 20
594.4680584834903
 30
0.0
 10
693.3523988646052
 20
593.9567786848309
 30
0.0
 10
693.3455646805792
 20
593.7880363573586
 30
0.0
  0
SPLINE
  5
1E3
330
1F
100
AcDbEntity
  8
0
  6
Continuous
 62
     7
370
    25
100
AcDbSpline
210
0.0
220
0.0
230
1.0
 70
     8
 71
     3
 72
     9
 73
     5
 74
     0
 42
0.00000001
 43
0.00000001
 40
0.0
 40
0.0
 40
0.0
 40
0.0
 40
0.9209630919903056
 40
1.0
 40
1.0
 40
1.0
 40
1.0
 10
693.4176768459115
 20
597.6419702332722
 30
0.0
 10
692.9032553080386
 20
597.6987972921909
 30
0.0
 10
692.3446861945238
 20
597.7605012403868
 30
0.0
 10
691.8191696828545
 20
597.9475127012747
 30
0.0
 10
691.7776344826642
 20
597.9622935089058
 30
0.0
  0
SPLINE
  5
1E4
330
1F
100
AcDbEntity
  8
0
  6
Continuous
 62
     7
370
    25
100
AcDbSpline
210
0.0
220
0.0
230
1.0
 70
     8
 71
     3
 72
    10
 73
     6
 74
     0
 42
0.00000001
 43
0.00000001
 40
0.0
 40
0.0
 40
0.0
 40
0.0
 40
0.2596150688488836
 40
0.629760644481066
 40
0.9999999999999999
 40
0.9999999999999999
 40
0.9999999999999999
 40
0.9999999999999999
 10
740.5928377998488
 20
595.0504126642832
 30
0.0
 10
736.5150175811257
 20
595.3501668013816
 30
0.0
 10
726.6232547477604
 20
596.0772946965457
 30
0.0
 10
710.8936820650872
 20
596.9031415664359
 30
0.0
 10
699.2435038038225
 20
597.3956732157015
 30
0.0
 10
693.4176768459115
 20
597.6419702332722
 30
0.0
  0
SPLINE
  5
1E5
330
1F
100
AcDbEntity
  8
0
  6
Continuous
 62
     7
370
    25
100
AcDbSpline
210
0.0
220
0.0
230
1.0
 70
     8
 71
     3
 72
    11
 73
     7
 74
     0
 42
0.00000001
 43
0.00000001
 40
0.0
 40
0.0
 40
0.0
 40
0.0
 40
0.061464119541392
 40
0.4999988937835377
 40
0.9375097801832794
 40
1.0
 40
1.0
 40
1.0
 40
1.0
 10
740.5928377998486
 20
589.3243803172813
 30
0.0
 10
740.6045069960509
 20
589.4408372897333
 30
0.0
 10
740.6994336823203
 20
590.3881925570645
 30
0.0
 10
740.7831365095866
 20
592.1854367555128
 30
0.0
 10
740.6995665860662
 20
593.9846347797536
 30
0.0
 10
740.604694881021
 20
594.9320096041866
 30
0.0
 10
740.5928377998488
 20
595.0504126642832
 30
0.0
  0
SPLINE
  5
1E6
330
1F
100
AcDbEntity
  8
0
  6
Continuous
 62
     7
370
    25
100
AcDbSpline
210
0.0
220
0.0
230
1.0
 70
     8
 71
     3
 72
    10
 73
     6
 74
     0
 42
0.00000001
 43
0.00000001
 40
0.0
 40
0.0
 40
0.0
 40
0.0
 40
0.2594618540778875
 40
0.6296073956705976
 40
1.0
 40
1.0
 40
1.0
 40
1.0
 10
693.4176768459115
 20
586.7328227482941
 30
0.0
 10
697.500545084007
 20
586.9002070578197
 30
0.0
 10
707.4079900430715
 20
587.3063800560474
 30
0.0
 10
723.139286604541
 20
588.0931634137778
 30
0.0
 10
734.7736935547523
 20
588.9138834116192
 30
0.0
 10
740.5928377998486
 20
589.3243803172813
 30
0.0
  0
SPLINE
  5
1E7
330
1F
100
AcDbEntity
  8
0
  6
Continuous
 62
     7
370
    25
100
AcDbSpline
210
0.0
220
0.0
230
1.0
 70
     8
 71
     3
 72
     9
 73
     5
 74
     0
 42
0.00000001
 43
0.00000001
 40
0.0
 40
0.0
 40
0.0
 40
0.0
 40
0.0790369080192139
 40
1.0
 40
1.0
 40
1.0
 40
1.0
 10
691.7776344826649
 20
586.4124994726607
 30
0.0
 10
691.8191696828603
 20
586.4272802802934
 30
0.0
 10
692.3446861945295
 20
586.6142917411814
 30
0.0
 10
692.9032553080441
 20
586.6759956893767
 30
0.0
 10
693.4176768459115
 20
586.7328227482941
 30
0.0
  0
SPLINE
  5
1E8
330
1F
100
AcDbEntity
  8
0
  6
Continuous
 62
     7
370
    25
100
AcDbSpline
210
0.0
220
0.0
230
1.0
 70
     8
 71
     3
 72
    11
 73
     7
 74
     0
 42
0.00000001
 43
0.00000001
 40
0.0
 40
0.0
 40
0.0
 40
0.0
 40
0.0728838064943292
 40
0.4140719411596028
 40
0.9209668754550567
 40
1.0
 40
1.0
 40
1.0
 40
1.0
 10
693.3455646805754
 20
590.5867566242226
 30
0.0
 10
693.3532798297131
 20
590.4763101899836
 30
0.0
 10
693.3971116070776
 20
589.8488351496526
 30
0.0
 10
693.0526198956396
 20
588.4658431191876
 30
0.0
 10
692.4129305461533
 20
587.1959116014101
 30
0.0
 10
691.8531417967204
 20
586.505610935237
 30
0.0
 10
691.7776344826649
 20
586.4124994726607
 30
0.0
  0
SPLINE
  5
1E9
330
1F
100
AcDbEntity
  8
0
  6
Continuous
 62
     7
370
    25
100
AcDbSpline
210
0.0
220
0.0
230
1.0
 70
     8
 71
     3
 72
    10
 73
     6
 74
     0
 42
0.00000001
 43
0.00000001
 40
0.0
 40
0.0
 40
0.0
 40
0.0
 40
0.3880207377811385
 40
0.9790637766506849
 40
1.0
 40
1.0
 40
1.0
 40
1.0
 10
693.3455646805791
 20
593.7880363573586
 30
0.0
 10
693.2722501498198
 20
593.3771964955029
 30
0.0
 10
693.0872610644964
 20
592.3405549256545
 30
0.0
 10
693.1829679903275
 20
591.2467856040832
 30
0.0
 10
693.3401861415754
 20
590.6085897353638
 30
0.0
 10
693.3455646805754
 20
590.5867566242226
 30
0.0
  0
ARC
  5
1EA
330
1F
100
AcDbEntity
  8
0
  6
Continuous
 62
     7
370
    25
100
AcDbCircle
 10
685.1000443381
 20
592.1873964908
 30
0.0
 40
8.399443654264472
100
AcDbArc
 50
10.985757993
 51
349.0142420071
  0
SPLINE
  5
1EB
330
1F
100
AcDbEntity
  8
0
  6
Continuous
 62
     7
370
    25
100
AcDbSpline
210
0.0
220
0.0
230
1.0
 70
     8
 71
     3
 72
     9
 73
     5
 74
     0
 42
0.00000001
 43
0.00000001
 40
0.0
 40
0.0
 40
0.0
 40
0.0
 40
0.681792342127431
 40
1.0
 40
1.0
 40
1.0
 40
1.0
 10
691.7776344826649
 20
586.4124994726607
 30
0.0
 10
691.6353709220218
 20
586.2225891175557
 30
0.0
 10
691.4267097918615
 20
585.944043373682
 30
0.0
 10
691.1972839579811
 20
585.711139000739
 30
0.0
 10
691.1242789007266
 20
585.6370270457165
 30
0.0
  0
ARC
  5
1EC
330
1F
100
AcDbEntity
  8
0
  6
Continuous
 62
     7
370
    25
100
AcDbCircle
 10
685.1000443381
 20
592.1873964908
 30
0.0
 40
8.899367501836373
100
AcDbArc
 50
47.3959191961
 51
312.6040808039
  0
LINE
  5
1ED
330
1F
100
AcDbEntity
  8
0
  6
Continuous
 62
     7
370
    25
100
AcDbLine
 10
691.1242789007
 20
598.7377659358
 30
0.0
 11
691.7776344827
 21
597.9622935089
 31
0.0
  0
SPLINE
  5
1EE
330
1F
100
AcDbEntity
  8
0
  6
Continuous
 62
     7
370
    25
100
AcDbSpline
210
0.0
220
0.0
230
1.0
 70
     8
 71
     3
 72
    10
 73
     6
 74
     0
 42
0.00000001
 43
0.00000001
 40
0.0
 40
0.0
 40
0.0
 40
0.0
 40
0.3702896688583046
 40
0.7405318123903298
 40
0.9999999999999999
 40
0.9999999999999999
 40
0.9999999999999999
 40
0.9999999999999999
 10
740.6043572630269
 20
588.881520736448
 30
0.0
 10
734.7842934168085
 20
588.5613297219218
 30
0.0
 10
723.1449127083049
 20
587.9209887882162
 30
0.0
 10
707.4260443015302
 20
587.0517544563529
 30
0.0
 10
697.5288704855203
 20
586.5030134547437
 30
0.0
 10
693.4508021650563
 20
586.276908170912
 30
0.0
  0
ARC
  5
1EF
330
1F
100
AcDbEntity
  8
0
  6
Continuous
 62
     7
370
    25
100
AcDbCircle
 10
700.6658913723
 20
587.0302945376
 30
0.0
 40
7.254316183171352
100
AcDbArc
 50
182.3501399448
 51
185.9611177314
  0
ARC
  5
1F0
330
1F
100
AcDbEntity
  8
0
  6
Continuous
 62
     7
370
    25
100
AcDbCircle
 10
736.3438347218
 20
588.9922775604
 30
0.0
 40
4.261961918916777
100
AcDbArc
 50
358.5108705386
 51
4.4691613064
  0
SPLINE
  5
1F1
330
1F
100
AcDbEntity
  8
0
  6
Continuous
 62
     7
370
    25
100
AcDbSpline
210
0.0
220
0.0
230
1.0
 70
     8
 71
     3
 72
    10
 73
     6
 74
     0
 42
0.00000001
 43
0.00000001
 40
0.0
 40
0.0
 40
0.0
 40
0.0
 40
0.3702717503651152
 40
0.7405122151371749
 40
1.0
 40
1.0
 40
1.0
 40
1.0
 10
693.4508021650562
 20
598.0978848106544
 30
0.0
 10
699.2704742267254
 20
597.7753563249864
 30
0.0
 10
710.9093266250222
 20
597.1303266052435
 30
0.0
 10
726.6284662089769
 20
596.2615121177645
 30
0.0
 10
736.5259636326755
 20
595.7174572069977
 30
0.0
 10
740.6043572630235
 20
595.4932722451185
 30
0.0
  0
ARC
  5
1F2
330
1F
100
AcDbEntity
  8
0
  6
Continuous
 62
     7
370
    25
100
AcDbCircle
 10
736.3438347189
 20
595.3825154212
 30
0.0
 40
4.261961921800733
100
AcDbArc
 50
355.530838696
 51
1.4891294598
  0
ARC
  5
1F3
330
1F
100
AcDbEntity
  8
0
  6
Continuous
 62
     7
370
    25
100
AcDbCircle
 10
700.6658913726
 20
597.344498444
 30
0.0
 40
7.254316183498027
100
AcDbArc
 50
174.0388822687
 51
177.6498600551
  0
SPLINE
  5
1F4
330
1F
100
AcDbEntity
  8
0
  6
Continuous
 62
     7
370
    25
100
AcDbSpline
210
0.0
220
0.0
230
1.0
 70
     8
 71
     3
 72
    12
 73
     8
 74
     0
 42
0.00000001
 43
0.00000001
 40
0.0
 40
0.0
 40
0.0
 40
0.0
 40
0.1224290494151348
 40
0.3423522449770467
 40
0.5614228816909441
 40
0.7807229538533574
 40
1.0
 40
1.0
 40
1.0
 40
1.0
 10
742.5285652326962
 20
594.939738294627
 30
0.0
 10
742.5195611568322
 20
594.9420969790679
 30
0.0
 10
742.494382773101
 20
594.9486926433926
 30
0.0
 10
742.2783950894564
 20
594.9657006111319
 30
0.0
 10
741.8424969597272
 20
594.9912115852862
 30
0.0
 10
741.2585713462971
 20
595.0207637678457
 30
0.0
 10
740.814741214729
 20
595.0405300447246
 30
0.0
 10
740.5928377998488
 20
595.0504126642832
 30
0.0
  0
SPLINE
  5
1F5
330
1F
100
AcDbEntity
  8
0
  6
Continuous
 62
     7
370
    25
100
AcDbSpline
210
0.0
220
0.0
230
1.0
 70
     8
 71
     3
 72
    11
 73
     7
 74
     0
 42
0.00000001
 43
0.00000001
 40
0.0
 40
0.0
 40
0.0
 40
0.0
 40
0.0800485240044433
 40
0.5000005853538798
 40
0.9209248322279645
 40
1.0
 40
1.0
 40
1.0
 40
1.0
 10
742.5285652326962
 20
594.939738294627
 30
0.0
 10
742.528278988282
 20
594.7934938695263
 30
0.0
 10
742.5264910430774
 20
593.8800192106933
 30
0.0
 10
742.5252553462475
 20
592.1856096229346
 30
0.0
 10
742.5264930443424
 20
590.49298277108
 30
0.0
 10
742.5282822663104
 20
589.5795193954361
 30
0.0
 10
742.5285652326963
 20
589.4350546869449
 30
0.0
  0
SPLINE
  5
1F6
330
1F
100
AcDbEntity
  8
0
  6
Continuous
 62
     7
370
    25
100
AcDbSpline
210
0.0
220
0.0
230
1.0
 70
     8
 71
     3
 72
    12
 73
     8
 74
     0
 42
0.00000001
 43
0.00000001
 40
0.0
 40
0.0
 40
0.0
 40
0.0
 40
0.1130367476169362
 40
0.3328594693548023
 40
0.5544127937945006
 40
0.7774207483513244
 40
1.0
 40
1.0
 40
1.0
 40
1.0
 10
740.5928377998486
 20
589.3243803172813
 30
0.0
 10
740.7069086398353
 20
589.3293955629827
 30
0.0
 10
741.0428132024433
 20
589.3441639640384
 30
0.0
 10
741.576881058838
 20
589.3697561681478
 30
0.0
 10
742.0934066967252
 20
589.3976314310189
 30
0.0
 10
742.4503014138797
 20
589.4210733046092
 30
0.0
 10
742.5024940313981
 20
589.430397216369
 30
0.0
 10
742.5285652326963
 20
589.4350546869449
 30
0.0
  0
SPLINE
  5
1F7
330
1F
100
AcDbEntity
  8
0
  6
Continuous
 62
     7
370
    25
100
AcDbSpline
210
0.0
220
0.0
230
1.0
 70
     8
 71
     3
 72
     9
 73
     5
 74
     0
 42
0.00000001
 43
0.00000001
 40
0.0
 40
0.0
 40
0.0
 40
0.0
 40
0.500010612381544
 40
1.0
 40
1.0
 40
1.0
 40
1.0
 10
690.6246710518836
 20
599.1695976250961
 30
0.0
 10
691.0543924187044
 20
598.8817570870027
 30
0.0
 10
691.913816911265
 20
598.3060882292514
 30
0.0
 10
692.9384809965433
 20
598.1672849681646
 30
0.0
 10
693.4508021650562
 20
598.0978848106544
 30
0.0
  0
SPLINE
  5
1F8
330
1F
100
AcDbEntity
  8
0
  6
Continuous
 62
     7
370
    25
100
AcDbSpline
210
0.0
220
0.0
230
1.0
 70
     8
 71
     3
 72
     9
 73
     5
 74
     0
 42
0.00000001
 43
0.00000001
 40
0.0
 40
0.0
 40
0.0
 40
0.0
 40
0.9838702326459385
 40
1.0
 40
1.0
 40
1.0
 40
1.0
 10
691.1242789007266
 20
598.7377659358497
 30
0.0
 10
690.9629380857918
 20
598.8825983488687
 30
0.0
 10
690.7989522169435
 20
599.0298051737255
 30
0.0
 10
690.6274375436614
 20
599.1673785977721
 30
0.0
 10
690.6246710518836
 20
599.1695976250961
 30
0.0
  0
SPLINE
  5
1F9
330
1F
100
AcDbEntity
  8
0
  6
Continuous
 62
     7
370
    25
100
AcDbSpline
210
0.0
220
0.0
230
1.0
 70
     8
 71
     3
 72
     9
 73
     5
 74
     0
 42
0.00000001
 43
0.00000001
 40
0.0
 40
0.0
 40
0.0
 40
0.0
 40
0.5055561057107305
 40
1.0
 40
1.0
 40
1.0
 40
1.0
 10
693.4508021650563
 20
586.276908170912
 30
0.0
 10
692.9327426477232
 20
586.2062521366419
 30
0.0
 10
691.9080106516478
 20
586.0664931000646
 30
0.0
 10
691.0492700828863
 20
585.4901598252687
 30
0.0
 10
690.6246710518836
 20
585.2051953564703
 30
0.0
  0
SPLINE
  5
1FA
330
1F
100
AcDbEntity
  8
0
  6
Continuous
 62
     7
370
    25
100
AcDbSpline
210
0.0
220
0.0
230
1.0
 70
     8
 71
     3
 72
     9
 73
     5
 74
     0
 42
0.00000001
 43
0.00000001
 40
0.0
 40
0.0
 40
0.0
 40
0.0
 40
0.0161297673533178
 40
0.9999999999999999
 40
0.9999999999999999
 40
0.9999999999999999
 40
0.9999999999999999
 10
690.6246710518836
 20
585.2051953564703
 30
0.0
 10
690.6274375436614
 20
585.2074143837942
 30
0.0
 10
690.7989522169476
 20
585.3449878078438
 30
0.0
 10
690.9629380857939
 20
585.4921946326991
 30
0.0
 10
691.1242789007266
 20
585.6370270457165
 30
0.0
  0
SPLINE
  5
1FB
330
1F
100
AcDbEntity
  8
0
  6
Continuous
 62
     7
370
    25
100
AcDbSpline
210
0.0
220
0.0
230
1.0
 70
     8
 71
     3
 72
    12
 73
     8
 74
     0
 42
0.00000001
 43
0.00000001
 40
0.0
 40
0.0
 40
0.0
 40
0.0
 40
0.2230315344150434
 40
0.4461337558340359
 40
0.6675099896777019
 40
0.8870667292265005
 40
1.0
 40
1.0
 40
1.0
 40
1.0
 10
742.0562109676116
 20
588.9358916158965
 30
0.0
 10
742.0366771814859
 20
588.9377818631913
 30
0.0
 10
741.9976034182492
 20
588.9415629568706
 30
0.0
 10
741.7300142361931
 20
588.9346201205999
 30
0.0
 10
741.342485152368
 20
588.9190312981101
 30
0.0
 10
740.9417630399049
 20
588.8996940180459
 30
0.0
 10
740.6899036176471
 20
588.8861284168694
 30
0.0
 10
740.6043572630269
 20
588.881520736448
 30
0.0
  0
ARC
  5
1FC
330
1F
100
AcDbEntity
  8
0
  6
Continuous
 62
     7
370
    25
100
AcDbCircle
 10
742.0284653451
 20
589.4352212723
 30
0.0
 40
0.5000999153470616
100
AcDbArc
 50
273.1804119247
 51
359.9809145383
  0
SPLINE
  5
1FD
330
1F
100
AcDbEntity
  8
0
  6
Continuous
 62
     7
370
    25
100
AcDbSpline
210
0.0
220
0.0
230
1.0
 70
     8
 71
     3
 72
    12
 73
     8
 74
     0
 42
0.00000001
 43
0.00000001
 40
0.0
 40
0.0
 40
0.0
 40
0.0
 40
0.2190444340109334
 40
0.4380981679380241
 40
0.6571027493691853
 40
0.8772791087290019
 40
1.0
 40
1.0
 40
1.0
 40
1.0
 10
740.6043572630235
 20
595.4932722451185
 30
0.0
 10
740.7707750037944
 20
595.4844434321686
 30
0.0
 10
741.1036175508935
 20
595.4667854314265
 30
0.0
 10
741.5417759935366
 20
595.4472669420174
 30
0.0
 10
741.8687418202962
 20
595.435961158385
 30
0.0
 10
742.0305856973104
 20
595.4341372903085
 30
0.0
 10
742.0494570297226
 20
595.4376457196333
 30
0.0
 10
742.0562109676116
 20
595.4389013656698
 30
0.0
  0
ARC
  5
1FE
330
1F
100
AcDbEntity
  8
0
  6
Continuous
 62
     7
370
    25
100
AcDbCircle
 10
742.0284653451
 20
594.9395717093
 30
0.0
 40
0.500099915347029
100
AcDbArc
 50
0.0190854623
 51
86.8195880753
  0
LINE
  5
1FF
330
1F
100
AcDbEntity
  8
0
  6
Continuous
 62
     7
370
    25
100
AcDbLine
 10
693.4508021651
 20
586.2769081709
 30
0.0
 11
693.4777883468
 21
586.2056178956
 31
0.0
  0
LINE
  5
200
330
1F
100
AcDbEntity
  8
0
  6
Continuous
 62
     7
370
    25
100
AcDbLine
 10
742.0609013283
 20
588.9314531628
 30
0.0
 11
742.0562109676
 21
588.9358916159
 31
0.0
  0
ELLIPSE
  5
201
330
1F
100
AcDbEntity
  8
0
  6
Continuous
 62
     7
370
    25
100
AcDbEllipse
 10
740.5611297855
 20
588.8481607128
 30
0.0
 11
1.499999304622747
 21
0.08287263343879657
 31
0.0
210
0.0
220
0.0
230
1.0
 40
0.0174284859
 41
5.39671797028966
 42
6.299675703199679
  0
LINE
  5
202
330
1F
100
AcDbEntity
  8
0
  6
Continuous
 62
     7
370
    25
100
AcDbLine
 10
738.0455151165
 20
588.6394011248
 30
0.0
 11
741.510478326
 21
588.8802924038
 31
0.0
  0
LINE
  5
203
330
1F
100
AcDbEntity
  8
0
  6
Continuous
 62
     7
370
    25
100
AcDbLine
 10
738.0455151165
 20
588.639499516
 30
0.0
 11
738.0455151165
 21
588.6394011248
 31
0.0
  0
ELLIPSE
  5
204
330
1F
100
AcDbEntity
  8
0
  6
Continuous
 62
     7
370
    25
100
AcDbEllipse
 10
728.5960286956
 20
588.3098534646
 30
0.0
 11
14.49999327802038
 21
0.8011021232406392
 31
0.0
210
0.0
220
0.0
230
1.0
 40
0.0174284859
 41
4.685109492442225
 42
5.42123482899781
  0
ELLIPSE
  5
205
330
1F
100
AcDbEntity
  8
0
  6
Continuous
 62
     7
370
    25
100
AcDbEllipse
 10
727.27501878
 20
587.3595699153
 30
0.0
 11
35.70262504606012
 21
1.972514619921981
 31
0.0
210
0.0
220
0.0
230
1.0
 40
0.0174284859
 41
1.543516838852426
 42
2.025717338717931
  0
ELLIPSE
  5
206
330
1F
100
AcDbEntity
  8
0
  6
Continuous
 62
     7
370
    25
100
AcDbEllipse
 10
708.254791308
 20
586.9871738556
 30
0.0
 11
7.499996523114078
 21
0.4143631671935282
 31
0.0
210
0.0
220
0.0
230
1.0
 40
0.0174284859
 41
4.976419334597757
 42
5.167309992307915
  0
LINE
  5
207
330
1F
100
AcDbEntity
  8
0
  6
Continuous
 62
     7
370
    25
100
AcDbLine
 10
710.199443709
 20
587.1195183068
 30
0.0
 11
710.2190619664
 21
586.9691277622
 31
0.0
  0
SPLINE
  5
208
330
1F
100
AcDbEntity
  8
0
  6
Continuous
 62
     7
370
    25
100
AcDbSpline
210
0.0
220
0.0
230
1.0
 70
     8
 71
     3
 72
    10
 73
     6
 74
     0
 42
0.00000001
 43
0.00000001
 40
0.0
 40
0.0
 40
0.0
 40
0.0
 40
0.0186368637457253
 40
0.3939469944633057
 40
1.0
 40
1.0
 40
1.0
 40
1.0
 10
710.015672423326
 20
587.119031939508
 30
0.0
 10
710.0181286305747
 20
587.1191196899874
 30
0.0
 10
710.0700480670516
 20
587.1209745641803
 30
0.0
 10
710.1740469155295
 20
587.1236545455585
 30
0.0
 10
710.1897475728789
 20
587.1210974641608
 30
0.0
 10
710.1994437090225
 20
587.119518306753
 30
0.0
  0
LINE
  5
209
330
1F
100
AcDbEntity
  8
0
  6
Continuous
 62
     7
370
    25
100
AcDbLine
 10
693.4777883468
 20
586.2056178956
 30
0.0
 11
710.0156724233
 21
587.1190319395
 31
0.0
  0
LINE
  5
20A
330
1F
100
AcDbEntity
  8
0
  6
Continuous
 62
     7
370
    25
100
AcDbLine
 10
710.0177381553
 20
597.2719646909
 30
0.0
 11
693.4838297318
 21
598.1851591531
 31
0.0
  0
SPLINE
  5
20B
330
1F
100
AcDbEntity
  8
0
  6
Continuous
 62
     7
370
    25
100
AcDbSpline
210
0.0
220
0.0
230
1.0
 70
     8
 71
     3
 72
    11
 73
     7
 74
     0
 42
0.00000001
 43
0.00000001
 40
0.0
 40
0.0
 40
0.0
 40
0.0
 40
0.4177469294495291
 40
0.8392770662410922
 40
0.9817832068819584
 40
1.0
 40
1.0
 40
1.0
 40
1.0
 10
710.2014435958944
 20
597.2706152455999
 30
0.0
 10
710.1968065678624
 20
597.2695320544162
 30
0.0
 10
710.1874905178611
 20
597.2673558624332
 30
0.0
 10
710.1119940521107
 20
597.2685580393246
 30
0.0
 10
710.041733851539
 20
597.2710285666645
 30
0.0
 10
710.0201810148812
 20
597.2718693896215
 30
0.0
 10
710.0177381552512
 20
597.2719646908799
 30
0.0
  0
LINE
  5
20C
330
1F
100
AcDbEntity
  8
0
  6
Continuous
 62
     7
370
    25
100
AcDbLine
 10
710.2190619664
 20
597.4056652194
 30
0.0
 11
710.2014435959
 21
597.2706152456
 31
0.0
  0
ELLIPSE
  5
20D
330
1F
100
AcDbEntity
  8
0
  6
Continuous
 62
     7
370
    25
100
AcDbEllipse
 10
708.254791308
 20
597.387619126
 30
0.0
 11
7.499996523114078
 21
-0.4143631671935282
 31
0.0
210
0.0
220
0.0
230
1.0
 40
0.0174284859
 41
1.115875314871806
 42
1.306765972581644
  0
ELLIPSE
  5
20E
330
1F
100
AcDbEntity
  8
0
  6
Continuous
 62
     7
370
    25
100
AcDbEllipse
 10
727.27501878
 20
597.0152230663
 30
0.0
 11
35.70262504606012
 21
-1.972514619921867
 31
0.0
210
0.0
220
0.0
230
1.0
 40
0.0174284859
 41
4.257467968461693
 42
4.739668468327165
  0
ELLIPSE
  5
20F
330
1F
100
AcDbEntity
  8
0
  6
Continuous
 62
     7
370
    25
100
AcDbEllipse
 10
728.5960286956
 20
596.064939517
 30
0.0
 11
14.49999327802038
 21
-0.8011021232406392
 31
0.0
210
0.0
220
0.0
230
1.0
 40
0.0174284859
 41
0.8619504781816757
 42
1.598075814737387
  0
LINE
  5
210
330
1F
100
AcDbEntity
  8
0
  6
Continuous
 62
     7
370
    25
100
AcDbLine
 10
738.0455151165
 20
595.7353918568
 30
0.0
 11
738.0455151165
 21
595.7352934655
 31
0.0
  0
LINE
  5
211
330
1F
100
AcDbEntity
  8
0
  6
Continuous
 62
     7
370
    25
100
AcDbLine
 10
741.510478326
 20
595.4945005778
 30
0.0
 11
738.0455151165
 21
595.7353918568
 31
0.0
  0
ELLIPSE
  5
212
330
1F
100
AcDbEntity
  8
0
  6
Continuous
 62
     7
370
    25
100
AcDbEllipse
 10
740.5611297855
 20
595.5266322687
 30
0.0
 11
1.499999304622747
 21
-0.08287263343879657
 31
0.0
210
0.0
220
0.0
230
1.0
 40
0.0174284859
 41
6.266694911160209
 42
7.169652644071951
  0
LINE
  5
213
330
1F
100
AcDbEntity
  8
0
  6
Continuous
 62
     7
370
    25
100
AcDbLine
 10
742.0562109676
 20
595.4389013657
 30
0.0
 11
742.0609013283
 21
595.4433398187
 31
0.0
  0
LINE
  5
214
330
1F
100
AcDbEntity
  8
0
  6
Continuous
 62
     7
370
    25
100
AcDbLine
 10
693.4838297318
 20
598.1851591531
 30
0.0
 11
693.4508021651
 21
598.0978848107
 31
0.0
  0
SPLINE
  5
215
330
1F
100
AcDbEntity
  8
0
  6
Continuous
 62
     7
370
    25
100
AcDbSpline
210
0.0
220
0.0
230
1.0
 70
     8
 71
     3
 72
     9
 73
     5
 74
     0
 42
0.00000001
 43
0.00000001
 40
0.0
 40
0.0
 40
0.0
 40
0.0
 40
0.5001021276704695
 40
1.0
 40
1.0
 40
1.0
 40
1.0
 10
690.6578899179391
 20
585.1395039095102
 30
0.0
 10
691.0868376936464
 20
585.4260295435987
 30
0.0
 10
691.944558051097
 20
585.9989637868964
 30
0.0
 10
692.966781179712
 20
586.1367425733506
 30
0.0
 10
693.4777883467527
 20
586.2056178955512
 30
0.0
  0
LINE
  5
216
330
1F
100
AcDbEntity
  8
0
  6
Continuous
 62
     7
370
    25
100
AcDbLine
 10
690.6578899179
 20
585.1395039095
 30
0.0
 11
690.6246710519
 21
585.2051953565
 31
0.0
  0
SPLINE
  5
217
330
1F
100
AcDbEntity
  8
0
  6
Continuous
 62
     7
370
    25
100
AcDbSpline
210
0.0
220
0.0
230
1.0
 70
     8
 71
     3
 72
     9
 73
     5
 74
     0
 42
0.00000001
 43
0.00000001
 40
0.0
 40
0.0
 40
0.0
 40
0.0
 40
0.400722737156528
 40
1.0
 40
1.0
 40
1.0
 40
1.0
 10
693.4838297318045
 20
598.1851591530946
 30
0.0
 10
693.0751436083951
 20
598.2335664151601
 30
0.0
 10
692.0552710493554
 20
598.354366303904
 30
0.0
 10
691.1861950055295
 20
598.9144735772577
 30
0.0
 10
690.6653774927827
 20
599.2501331309318
 30
0.0
  0
LINE
  5
218
330
1F
100
AcDbEntity
  8
0
  6
Continuous
 62
     7
370
    25
100
AcDbLine
 10
690.6246710519
 20
599.1695976251
 30
0.0
 11
690.6653774928
 21
599.2501331309
 31
0.0
  0
ARC
  5
219
330
1F
100
AcDbEntity
  8
0
  6
Continuous
 62
     7
370
    25
100
AcDbCircle
 10
685.1000443381
 20
592.1873964908
 30
0.0
 40
8.975658044222099
100
AcDbArc
 50
245.1648853947
 51
308.2586979829
  0
LWPOLYLINE
  5
21A
330
1F
100
AcDbEntity
  8
0
  6
Continuous
 62
     7
370
    25
100
AcDbPolyline
 90
        3
 70
   128
 43
0.0
 10
681.1647309138
 20
583.9367367675
 10
681.269312478
 20
584.0029891787
 10
681.3301930207
 20
584.0418051451
  0
ARC
  5
21B
330
1F
100
AcDbEntity
  8
0
  6
Continuous
 62
     7
370
    25
100
AcDbCircle
 10
685.1000443381
 20
592.1873964908
 30
0.0
 40
9.141120151092107
100
AcDbArc
 50
115.4997164176
 51
244.5002794289
  0
LWPOLYLINE
  5
21C
330
1F
100
AcDbEntity
  8
0
  6
Continuous
 62
     7
370
    25
100
AcDbPolyline
 90
        3
 70
   128
 43
0.0
 10
681.3139001103
 20
600.3433939072
 10
681.269312478
 20
600.3718038028
 10
681.1647309135
 20
600.4380562143
  0
ARC
  5
21D
330
1F
100
AcDbEntity
  8
0
  6
Continuous
 62
     7
370
    25
100
AcDbCircle
 10
685.1000443381
 20
592.1873964908
 30
0.0
 40
8.991950954660766
100
AcDbArc
 50
51.762407147
 51
114.9014811666
  0
LINE
  5
21E
330
1F
100
AcDbEntity
  8
0
  6
Continuous
 62
     7
370
    25
100
AcDbLine
 10
742.5332555934
 20
594.9441767477
 30
0.0
 11
742.5285652327
 21
594.9397382946
 31
0.0
  0
LINE
  5
21F
330
1F
100
AcDbEntity
  8
0
  6
Continuous
 62
     7
370
    25
100
AcDbLine
 10
742.5332555934
 20
589.4306162339
 30
0.0
 11
742.5332555934
 21
594.9441767477
 31
0.0
  0
LINE
  5
220
330
1F
100
AcDbEntity
  8
0
  6
Continuous
 62
     7
370
    25
100
AcDbLine
 10
742.5285652327
 20
589.4350546869
 30
0.0
 11
742.5332555934
 21
589.4306162339
 31
0.0
  0
ARC
  5
221
330
1F
100
AcDbEntity
  8
0
  6
Continuous
 62
     7
370
    25
100
AcDbCircle
 10
742.0331557058
 20
594.9440101623
 30
0.0
 40
0.5000999153471408
100
AcDbArc
 50
0.0190854617
 51
86.8195880752
  0
ARC
  5
222
330
1F
100
AcDbEntity
  8
0
  6
Continuous
 62
     7
370
    25
100
AcDbCircle
 10
742.0331557058
 20
589.4307828192
 30
0.0
 40
0.5000999153471408
100
AcDbArc
 50
273.1804119248
 51
359.9809145383
  0
LINE
  5
223
330
1F
100
AcDbEntity
  8
0
  6
Continuous
 62
     7
370
    25
100
AcDbLine
 10
741.510478326
 20
588.8802924038
 30
0.0
 11
741.5175860567
 21
588.8806594404
 31
0.0
  0
LINE
  5
224
330
1F
100
AcDbEntity
  8
0
  6
Continuous
 62
     7
370
    25
100
AcDbLine
 10
741.510478326
 20
595.4945005778
 30
0.0
 11
741.5175860567
 21
595.4941335411
 31
0.0
  0
SPLINE
  5
225
330
1F
100
AcDbEntity
  8
0
  6
Continuous
 62
     7
370
    25
100
AcDbSpline
210
0.0
220
0.0
230
1.0
 70
     8
 71
     3
 72
    12
 73
     8
 74
     0
 42
0.00000001
 43
0.00000001
 40
0.0
 40
0.0
 40
0.0
 40
0.0
 40
0.1662426524176545
 40
0.3368059756191297
 40
0.6054181071254586
 40
0.8801435087136193
 40
1.0
 40
1.0
 40
1.0
 40
1.0
 10
691.2221035853828
 20
580.5107361091121
 30
0.0
 10
690.5844220648468
 20
580.6662212845952
 30
0.0
 10
689.2924855880461
 20
580.9812327179504
 30
0.0
 10
687.1082992056968
 20
581.644197822949
 30
0.0
 10
684.7463248621369
 20
582.4963927397544
 30
0.0
 10
682.7807873002444
 20
583.3390214183664
 30
0.0
 10
681.6670123154488
 20
583.8768795110616
 30
0.0
 10
681.3286968372912
 20
584.0402569618889
 30
0.0
  0
LINE
  5
226
330
1F
100
AcDbEntity
  8
0
  6
Continuous
 62
     7
370
    25
100
AcDbLine
 10
691.2221035854
 20
580.5107361091
 30
0.0
 11
691.2062455084
 21
580.4412625775
 31
0.0
  0
ARC
  5
227
330
1F
100
AcDbEntity
  8
0
  6
Continuous
 62
     7
370
    25
100
AcDbCircle
 10
701.9280237449
 20
627.4128973898
 30
0.0
 40
48.17977797259059
100
AcDbArc
 50
244.4718479123
 51
257.1419190681
  0
LWPOLYLINE
  5
228
330
1F
100
AcDbEntity
  8
0
  6
Continuous
 62
     7
370
    25
100
AcDbPolyline
 90
        3
 70
   128
 43
0.0
 10
681.3286968373
 20
584.0402569619
 10
681.2693089869
 20
584.0027332583
 10
681.1647309141
 20
583.9367352284
  0
SPLINE
  5
229
330
1F
100
AcDbEntity
  8
0
  6
Continuous
 62
     7
370
    25
100
AcDbSpline
210
0.0
220
0.0
230
1.0
 70
     8
 71
     3
 72
    11
 73
     7
 74
     0
 42
0.00000001
 43
0.00000001
 40
0.0
 40
0.0
 40
0.0
 40
0.0
 40
0.1345990676765959
 40
0.4126978815969493
 40
0.6969472592954598
 40
1.0
 40
1.0
 40
1.0
 40
1.0
 10
681.3294144142483
 20
584.0409985279629
 30
0.0
 10
681.7587204344966
 20
583.8501146428017
 30
0.0
 10
683.0750273612208
 20
583.2648403433819
 30
0.0
 10
685.4508374121041
 20
582.6423724593583
 30
0.0
 10
688.5045267969851
 20
582.2658697768579
 30
0.0
 10
690.6955567053459
 20
582.2387284485251
 30
0.0
 10
691.8261462228838
 20
582.22472329908
 30
0.0
  0
ARC
  5
22A
330
1F
100
AcDbEntity
  8
0
  6
Continuous
 62
     7
370
    25
100
AcDbCircle
 10
687.3336152299
 20
582.8445473436
 30
0.0
 40
4.535087272520486
100
AcDbArc
 50
329.0284626407
 51
352.1446266983
  0
LINE
  5
22B
330
1F
100
AcDbEntity
  8
0
  6
Continuous
 62
     7
370
    25
100
AcDbLine
 10
681.3286968373
 20
584.0402569619
 30
0.0
 11
681.3294144142
 21
584.040998528
 31
0.0
  0
LINE
  5
22C
330
1F
100
AcDbEntity
  8
0
  6
Continuous
 62
     7
370
    25
100
AcDbLine
 10
690.6578899179
 20
585.1395039095
 30
0.0
 11
692.8557618381
 21
582.3523870352
 31
0.0
  0
ARC
  5
22D
330
1F
100
AcDbEntity
  8
0
  6
Continuous
 62
     7
370
    25
100
AcDbCircle
 10
685.1000443381
 20
592.1873964908
 30
0.0
 40
12.52511736202731
100
AcDbArc
 50
307.8583068702
 51
308.2586979829
  0
LINE
  5
22E
330
1F
100
AcDbEntity
  8
0
  6
Continuous
 62
     7
370
    25
100
AcDbLine
 10
691.8261462229
 20
582.2247232991
 30
0.0
 11
692.7868445718
 21
582.2984295528
 31
0.0
  0
LINE
  5
22F
330
1F
100
AcDbEntity
  8
0
  6
Continuous
 62
     7
370
    25
100
AcDbLine
 10
681.3301930207
 20
584.0418051451
 30
0.0
 11
681.3294144142
 21
584.040998528
 31
0.0
  0
LINE
  5
230
330
1F
100
AcDbEntity
  8
0
  6
Continuous
 62
     7
370
    25
100
AcDbLine
 10
695.7736148985
 20
582.7775510398
 30
0.0
 11
693.6735323825
 21
582.6615600911
 31
0.0
  0
LINE
  5
231
330
1F
100
AcDbEntity
  8
0
  6
Continuous
 62
     7
370
    25
100
AcDbLine
 10
693.4777883468
 20
586.2056178956
 30
0.0
 11
693.6735323825
 21
582.6615600911
 31
0.0
  0
SPLINE
  5
232
330
1F
100
AcDbEntity
  8
0
  6
Continuous
 62
     7
370
    25
100
AcDbSpline
210
0.0
220
0.0
230
1.0
 70
     8
 71
     3
 72
    16
 73
    12
 74
     0
 42
0.00000001
 43
0.00000001
 40
0.0
 40
0.0
 40
0.0
 40
0.0
 40
0.2861254310575669
 40
0.7591203623085425
 40
0.8520758313858449
 40
0.9266344548631255
 40
0.9604862301433736
 40
0.9835335436569232
 40
0.9930756629548352
 40
0.9972242292023619
 40
1.0
 40
1.0
 40
1.0
 40
1.0
 10
697.2142832606319
 20
583.301694721798
 30
0.0
 10
698.4424300977555
 20
583.8317620311501
 30
0.0
 10
701.7008306828398
 20
585.2380854272773
 30
0.0
 10
705.4984121374471
 20
586.2558974301616
 30
0.0
 10
708.2960737873516
 20
586.8178176479332
 30
0.0
 10
709.1612067262461
 20
586.9723201638261
 30
0.0
 10
709.6867928949802
 20
587.0608408296565
 30
0.0
 10
709.9204551536942
 20
587.0999502133052
 30
0.0
 10
709.998105300855
 20
587.1142701822748
 30
0.0
 10
710.0141869558901
 20
587.1180039208978
 30
0.0
 10
710.0152473438118
 20
587.1187377629809
 30
0.0
 10
710.015672423326
 20
587.119031939508
 30
0.0
  0
LINE
  5
233
330
1F
100
AcDbEntity
  8
0
  6
Continuous
 62
     7
370
    25
100
AcDbLine
 10
695.7736148985
 20
582.7775510398
 30
0.0
 11
697.2142832606
 21
583.3016947218
 31
0.0
  0
ARC
  5
234
330
1F
100
AcDbEntity
  8
0
  6
Continuous
 62
     7
370
    25
100
AcDbCircle
 10
703.0177160518
 20
586.9107971026
 30
0.0
 40
6.834138728211602
100
AcDbArc
 50
211.8771071303
 51
226.9488007428
  0
SPLINE
  5
235
330
1F
100
AcDbEntity
  8
0
  6
Continuous
 62
     7
370
    25
100
AcDbSpline
210
0.0
220
0.0
230
1.0
 70
     8
 71
     3
 72
    10
 73
     6
 74
     0
 42
0.00000001
 43
0.00000001
 40
0.0
 40
0.0
 40
0.0
 40
0.0
 40
0.5975855365574454
 40
0.9790563563181981
 40
1.0
 40
1.0
 40
1.0
 40
1.0
 10
710.1256977430137
 20
587.1099050421686
 30
0.0
 10
710.128216882367
 20
587.113644339895
 30
0.0
 10
710.1323441231477
 20
587.1197706314185
 30
0.0
 10
710.0579729965921
 20
587.120147190275
 30
0.0
 10
710.0177650444879
 20
587.1190871112746
 30
0.0
 10
710.015672423326
 20
587.119031939508
 30
0.0
  0
SPLINE
  5
236
330
1F
100
AcDbEntity
  8
0
  6
Continuous
 62
     7
370
    25
100
AcDbSpline
210
0.0
220
0.0
230
1.0
 70
     8
 71
     3
 72
    14
 73
    10
 74
     0
 42
0.00000001
 43
0.00000001
 40
0.0
 40
0.0
 40
0.0
 40
0.0
 40
0.0129036569231464
 40
0.0519665716781148
 40
0.1318891824261205
 40
0.2280032005552168
 40
0.4679440229400844
 40
0.7079115564493632
 40
1.0
 40
1.0
 40
1.0
 40
1.0
 10
710.1256977430137
 20
587.1099050421686
 30
0.0
 10
710.0922291665494
 20
587.1020600681073
 30
0.0
 10
709.9574420137167
 20
587.0704662021749
 30
0.0
 10
709.5181685687241
 20
586.968084154881
 30
0.0
 10
708.7067411504983
 20
586.765682646064
 30
0.0
 10
707.0532639686776
 20
586.2986319652979
 30
0.0
 10
704.7089738964339
 20
585.4611749059076
 30
0.0
 10
701.5638797199368
 20
584.016234665557
 30
0.0
 10
699.4905810457442
 20
582.6608637827624
 30
0.0
 10
698.3523801629972
 20
581.9167913756127
 30
0.0
  0
LWPOLYLINE
  5
237
330
1F
100
AcDbEntity
  8
0
  6
Continuous
 62
     7
370
    25
100
AcDbPolyline
 90
        4
 70
   128
 43
0.0
 10
710.1452245571
 20
586.9588094659
 10
710.1429799214
 20
586.9761676128
 10
710.1340048875
 20
587.0456003589
 10
710.125697743
 20
587.1099050422
  0
LINE
  5
238
330
1F
100
AcDbEntity
  8
0
  6
Continuous
 62
     7
370
    25
100
AcDbLine
 10
708.3571002733
 20
586.5292819626
 30
0.0
 11
710.1452245571
 21
586.9588094659
 31
0.0
  0
ARC
  5
239
330
1F
100
AcDbEntity
  8
0
  6
Continuous
 62
     7
370
    25
100
AcDbCircle
 10
716.5426586719
 20
556.1035883688
 30
0.0
 40
31.50755777528337
100
AcDbArc
 50
105.0579972479
 51
125.1719294169
  0
LINE
  5
23A
330
1F
100
AcDbEntity
  8
0
  6
Continuous
 62
     7
370
    25
100
AcDbLine
 10
698.352380163
 20
581.9167913756
 30
0.0
 11
698.3933000492
 21
581.8587233626
 31
0.0
  0
SPLINE
  5
23B
330
1F
100
AcDbEntity
  8
0
  6
Continuous
 62
     7
370
    25
100
AcDbSpline
210
0.0
220
0.0
230
1.0
 70
     8
 71
     3
 72
     9
 73
     5
 74
     0
 42
0.00000001
 43
0.00000001
 40
0.0
 40
0.0
 40
0.0
 40
0.0
 40
0.4998978730609624
 40
1.0
 40
1.0
 40
1.0
 40
1.0
 10
693.673532382458
 20
582.6615600911073
 30
0.0
 10
693.5253374665622
 20
582.641593753105
 30
0.0
 10
693.2288870836303
 20
582.6016529190304
 30
0.0
 10
692.9801538548537
 20
582.4354869764597
 30
0.0
 10
692.855761838102
 20
582.3523870351554
 30
0.0
  0
ARC
  5
23C
330
1F
100
AcDbEntity
  8
0
  6
Continuous
 62
     7
370
    25
100
AcDbCircle
 10
710.2270330579
 20
586.6202036023
 30
0.0
 40
0.500076340385948
100
AcDbArc
 50
93.16262964
 51
101.6913635617
  0
SPLINE
  5
23D
330
1F
100
AcDbEntity
  8
0
  6
Continuous
 62
     7
370
    25
100
AcDbSpline
210
0.0
220
0.0
230
1.0
 70
     8
 71
     3
 72
    12
 73
     8
 74
     0
 42
0.00000001
 43
0.00000001
 40
0.0
 40
0.0
 40
0.0
 40
0.0
 40
0.0460726725321159
 40
0.2494576442748312
 40
0.4755636088397377
 40
0.7057929889265024
 40
1.0
 40
1.0
 40
1.0
 40
1.0
 10
681.3126658636011
 20
600.3446682508857
 30
0.0
 10
681.4410012727765
 20
600.4071729502249
 30
0.0
 10
682.1358654317338
 20
600.7456007903382
 30
0.0
 10
683.4886644012558
 20
601.3611842064788
 30
0.0
 10
685.4965330453374
 20
602.1686435117333
 30
0.0
 10
687.991804860343
 20
603.0417636292613
 30
0.0
 10
689.9307510484776
 20
603.5391132689042
 30
0.0
 10
691.0184931889141
 20
603.8181247055708
 30
0.0
  0
LINE
  5
23E
330
1F
100
AcDbEntity
  8
0
  6
Continuous
 62
     7
370
    25
100
AcDbLine
 10
691.4719532668
 20
601.8705221764
 30
0.0
 11
691.0184931889
 21
603.8181247056
 31
0.0
  0
SPLINE
  5
23F
330
1F
100
AcDbEntity
  8
0
  6
Continuous
 62
     7
370
    25
100
AcDbSpline
210
0.0
220
0.0
230
1.0
 70
     8
 71
     3
 72
    13
 73
     9
 74
     0
 42
0.00000001
 43
0.00000001
 40
0.0
 40
0.0
 40
0.0
 40
0.0
 40
0.2574896950994368
 40
0.4890886589321025
 40
0.7206004760683485
 40
0.9447506334961274
 40
0.9460032291293288
 40
1.0
 40
1.0
 40
1.0
 40
1.0
 10
691.4719532668012
 20
601.8705221763568
 30
0.0
 10
690.5532276908133
 20
601.8985851404715
 30
0.0
 10
688.8081549036752
 20
601.9518893221368
 30
0.0
 10
686.3135896577617
 20
601.7873252032988
 30
0.0
 10
683.997939851761
 20
601.3739512082888
 30
0.0
 10
682.5208312501568
 20
600.8743940217254
 30
0.0
 10
681.6495698056162
 20
600.5001511667954
 30
0.0
 10
681.4795233967933
 20
600.4211707483103
 30
0.0
 10
681.313332224738
 20
600.3439809481356
 30
0.0
  0
LINE
  5
240
330
1F
100
AcDbEntity
  8
0
  6
Continuous
 62
     7
370
    25
100
AcDbLine
 10
681.3133322247
 20
600.3439809481
 30
0.0
 11
681.3126658636
 21
600.3446682509
 31
0.0
  0
ARC
  5
241
330
1F
100
AcDbEntity
  8
0
  6
Continuous
 62
     7
370
    25
100
AcDbCircle
 10
701.9280237449
 20
556.9618955918
 30
0.0
 40
48.10950076354645
100
AcDbArc
 50
102.8580809319
 51
103.1066633214
  0
LWPOLYLINE
  5
242
330
1F
100
AcDbEntity
  8
0
  6
Continuous
 62
     7
370
    25
100
AcDbPolyline
 90
        3
 70
   128
 43
0.0
 10
681.3126658636
 20
600.3446682509
 10
681.2693089869
 20
600.3720597232
 10
681.1647309138
 20
600.4380577533
  0
ARC
  5
243
330
1F
100
AcDbEntity
  8
0
  6
Continuous
 62
     7
370
    25
100
AcDbCircle
 10
701.9280237449
 20
556.9618955918
 30
0.0
 40
48.17977797259051
100
AcDbArc
 50
102.8580809319
 51
115.5281512988
  0
LINE
  5
244
330
1F
100
AcDbEntity
  8
0
  6
Continuous
 62
     7
370
    25
100
AcDbLine
 10
691.2218847804
 20
603.8650154474
 30
0.0
 11
691.2062455084
 21
603.933530404
 31
0.0
  0
LINE
  5
245
330
1F
100
AcDbEntity
  8
0
  6
Continuous
 62
     7
370
    25
100
AcDbLine
 10
693.4838297318
 20
598.1851591531
 30
0.0
 11
693.6271915608
 21
600.7808071225
 31
0.0
  0
LINE
  5
246
330
1F
100
AcDbEntity
  8
0
  6
Continuous
 62
     7
370
    25
100
AcDbLine
 10
693.6271915608
 20
600.7808071225
 30
0.0
 11
697.5772725826
 21
600.5626377689
 31
0.0
  0
SPLINE
  5
247
330
1F
100
AcDbEntity
  8
0
  6
Continuous
 62
     7
370
    25
100
AcDbSpline
210
0.0
220
0.0
230
1.0
 70
     8
 71
     3
 72
    17
 73
    13
 74
     0
 42
0.00000001
 43
0.00000001
 40
0.0
 40
0.0
 40
0.0
 40
0.0
 40
0.0068264277560524
 40
0.0088450004853816
 40
0.0223994102884418
 40
0.0309598270239211
 40
0.0563228448230689
 40
0.1198844474831666
 40
0.1957493698893797
 40
0.555871606010061
 40
0.7769840750939091
 40
1.0
 40
1.0
 40
1.0
 40
1.0
 10
710.0177381552512
 20
597.2719646908799
 30
0.0
 10
710.014118010082
 20
597.2730028739247
 30
0.0
 10
710.0094273890247
 20
597.274348047398
 30
0.0
 10
709.9658946763932
 20
597.2819380354764
 30
0.0
 10
709.8913627524337
 20
597.2936895422074
 30
0.0
 10
709.72453051415
 20
597.3194084377882
 30
0.0
 10
709.3429542678984
 20
597.3779230104094
 30
0.0
 10
708.6600547415927
 20
597.4871200663697
 30
0.0
 10
706.5550389405605
 20
597.8542914820064
 30
0.0
 10
703.7469126721579
 20
598.4874583843622
 30
0.0
 10
700.3473469869003
 20
599.4999042608378
 30
0.0
 10
698.5032651869382
 20
600.207382557205
 30
0.0
 10
697.577272582578
 20
600.5626377688747
 30
0.0
  0
LINE
  5
248
330
1F
100
AcDbEntity
  8
0
  6
Continuous
 62
     7
370
    25
100
AcDbLine
 10
697.5772725826
 20
600.5626377689
 30
0.0
 11
698.7067480001
 21
602.2128095585
 31
0.0
  0
SPLINE
  5
249
330
1F
100
AcDbEntity
  8
0
  6
Continuous
 62
     7
370
    25
100
AcDbSpline
210
0.0
220
0.0
230
1.0
 70
     8
 71
     3
 72
    14
 73
    10
 74
     0
 42
0.00000001
 43
0.00000001
 40
0.0
 40
0.0
 40
0.0
 40
0.0
 40
0.2256458607195977
 40
0.4518169308148963
 40
0.815776144776343
 40
0.8946140573305373
 40
0.9637846180221654
 40
0.9940799143125669
 40
0.9999999999999999
 40
0.9999999999999999
 40
0.9999999999999999
 40
0.9999999999999999
 10
698.70674800007
 20
602.2128095585134
 30
0.0
 10
699.552495547141
 20
601.6677858360122
 30
0.0
 10
701.2459591885449
 20
600.576469803285
 30
0.0
 10
704.4261812885973
 20
599.0110287184829
 30
0.0
 10
707.0974593517637
 20
598.057649884247
 30
0.0
 10
709.0479878390148
 20
597.5362017381179
 30
0.0
 10
709.6920643494566
 20
597.3808210634758
 30
0.0
 10
710.0200152456833
 20
597.3052710026313
 30
0.0
 10
710.1125525782821
 20
597.2837502284863
 30
0.0
 10
710.1276795466682
 20
597.280232252973
 30
0.0
  0
SPLINE
  5
24A
330
1F
100
AcDbEntity
  8
0
  6
Continuous
 62
     7
370
    25
100
AcDbSpline
210
0.0
220
0.0
230
1.0
 70
     8
 71
     3
 72
    11
 73
     7
 74
     0
 42
0.00000001
 43
0.00000001
 40
0.0
 40
0.0
 40
0.0
 40
0.0
 40
0.019556121229571
 40
0.168189199674442
 40
0.5898876540792781
 40
1.0
 40
1.0
 40
1.0
 40
1.0
 10
710.0177381552512
 20
597.2719646908799
 30
0.0
 10
710.0196968683993
 20
597.2719065771643
 30
0.0
 10
710.0365424582219
 20
597.2714067797235
 30
0.0
 10
710.0884430219813
 20
597.2705603623101
 30
0.0
 10
710.1377276540468
 20
597.272649660832
 30
0.0
 10
710.1309976689704
 20
597.2777283020156
 30
0.0
 10
710.1276795466683
 20
597.280232252973
 30
0.0
  0
LINE
  5
24B
330
1F
100
AcDbEntity
  8
0
  6
Continuous
 62
     7
370
    25
100
AcDbLine
 10
690.6653774928
 20
599.2501331309
 30
0.0
 11
692.274334486
 21
601.2919946319
 31
0.0
  0
LINE
  5
24C
330
1F
100
AcDbEntity
  8
0
  6
Continuous
 62
     7
370
    25
100
AcDbLine
 10
681.3133322247
 20
600.3439809481
 30
0.0
 11
681.3139001103
 21
600.3433939072
 31
0.0
  0
ARC
  5
24D
330
1F
100
AcDbEntity
  8
0
  6
Continuous
 62
     7
370
    25
100
AcDbCircle
 10
685.1000443381
 20
592.1873964908
 30
0.0
 40
11.59155496206743
100
AcDbArc
 50
51.762407147
 51
56.6533814372
  0
LWPOLYLINE
  5
24E
330
1F
100
AcDbEntity
  8
0
  6
Continuous
 62
     7
370
    25
100
AcDbPolyline
 90
        4
 70
   128
 43
0.0
 10
710.1276795467
 20
597.280232253
 10
710.129921793
 20
597.297590508
 10
710.1388942759
 20
597.3670233696
 10
710.1452245571
 20
597.4159835157
  0
ARC
  5
24F
330
1F
100
AcDbEntity
  8
0
  6
Continuous
 62
     7
370
    25
100
AcDbCircle
 10
716.5426586719
 20
628.2712046128
 30
0.0
 40
31.57783498432752
100
AcDbArc
 50
234.8280705831
 51
235.6099480104
  0
LINE
  5
250
330
1F
100
AcDbEntity
  8
0
  6
Continuous
 62
     7
370
    25
100
AcDbLine
 10
698.3528181344
 20
602.4586231162
 30
0.0
 11
698.3933000492
 21
602.516069619
 31
0.0
  0
ARC
  5
251
330
1F
100
AcDbEntity
  8
0
  6
Continuous
 62
     7
370
    25
100
AcDbCircle
 10
716.5426586719
 20
628.2712046128
 30
0.0
 40
31.50755777528333
100
AcDbArc
 50
234.8280705831
 51
254.9420027521
  0
LINE
  5
252
330
1F
100
AcDbEntity
  8
0
  6
Continuous
 62
     7
370
    25
100
AcDbLine
 10
710.1452245571
 20
597.4159835157
 30
0.0
 11
708.3571002733
 21
597.845511019
 31
0.0
  0
LINE
  5
253
330
1F
100
AcDbEntity
  8
0
  6
Continuous
 62
     7
370
    25
100
AcDbLine
 10
710.2190619664
 20
586.9691277622
 30
0.0
 11
710.1452245571
 21
586.9588094659
 31
0.0
  0
SPLINE
  5
254
330
1F
100
AcDbEntity
  8
0
  6
Continuous
 62
     7
370
    25
100
AcDbSpline
210
0.0
220
0.0
230
1.0
 70
     8
 71
     3
 72
    10
 73
     6
 74
     0
 42
0.00000001
 43
0.00000001
 40
0.0
 40
0.0
 40
0.0
 40
0.0
 40
0.0490769085761659
 40
0.599580584366531
 40
1.0
 40
1.0
 40
1.0
 40
1.0
 10
692.2743344860412
 20
601.2919946319081
 30
0.0
 10
692.2932820244102
 20
601.2773718963067
 30
0.0
 10
692.5247671863167
 20
601.0987235541177
 30
0.0
 10
692.970640961134
 20
600.8646715606964
 30
0.0
 10
693.4326475380185
 20
600.8056571876788
 30
0.0
 10
693.6271915607721
 20
600.7808071225464
 30
0.0
  0
ARC
  5
255
330
1F
100
AcDbEntity
  8
0
  6
Continuous
 62
     7
370
    25
100
AcDbCircle
 10
710.2290329476
 20
597.76992995
 30
0.0
 40
0.50007634052771
100
AcDbArc
 50
258.306520338
 51
266.8373700345
  0
SPLINE
  5
256
330
1F
100
AcDbEntity
  8
0
  6
Continuous
 62
     7
370
    25
100
AcDbSpline
210
0.0
220
0.0
230
1.0
 70
     8
 71
     3
 72
     9
 73
     5
 74
     0
 42
0.00000001
 43
0.00000001
 40
0.0
 40
0.0
 40
0.0
 40
0.0
 40
0.8458911907785723
 40
1.0
 40
1.0
 40
1.0
 40
1.0
 10
710.1452245570788
 20
597.4159835156593
 30
0.0
 10
710.16606515319
 20
597.4121687086669
 30
0.0
 10
710.1907025963247
 20
597.4076589005097
 30
0.0
 10
710.215275123501
 20
597.4059314367586
 30
0.0
 10
710.2190619664037
 20
597.4056652193768
 30
0.0
  0
LINE
  5
257
330
1F
100
AcDbEntity
  8
0
  6
Continuous
 62
     7
370
    25
100
AcDbLine
 10
728.214482164
 20
596.3394093661
 30
0.0
 11
728.2140241442
 21
596.3394344526
 31
0.0
  0
LINE
  5
258
330
1F
100
AcDbEntity
  8
0
  6
Continuous
 62
     7
370
    25
100
AcDbLine
 10
698.352380163
 20
581.9167913756
 30
0.0
 11
696.5136393137
 21
580.9198251399
 31
0.0
  0
LINE
  5
259
330
1F
100
AcDbEntity
  8
0
  6
Continuous
 62
     7
370
    25
100
AcDbLine
 10
695.7736148985
 20
582.7775510398
 30
0.0
 11
696.5136393137
 21
580.9198251399
 31
0.0
  0
LINE
  5
25A
330
1F
100
AcDbEntity
  8
0
  6
Continuous
 62
     7
370
    25
100
AcDbLine
 10
692.7868445718
 20
582.2984295528
 30
0.0
 11
692.6650108251
 21
580.3024490439
 31
0.0
  0
LINE
  5
25B
330
1F
100
AcDbEntity
  8
0
  6
Continuous
 62
     7
370
    25
100
AcDbLine
 10
692.6650108251
 20
580.3024490439
 30
0.0
 11
691.2221035854
 21
580.5107361091
 31
0.0
  0
ARC
  5
25C
330
1F
100
AcDbEntity
  8
0
  6
Continuous
 62
     7
370
    25
100
AcDbCircle
 10
701.9280237449
 20
556.9618955918
 30
0.0
 40
46.10980537323368
100
AcDbArc
 50
102.8580809319
 51
103.1066633214
  0
LINE
  5
25D
330
1F
100
AcDbEntity
  8
0
  6
Continuous
 62
     7
370
    25
100
AcDbLine
 10
691.6668907854
 20
601.9154638811
 30
0.0
 11
691.2218847804
 21
603.8650154474
 31
0.0
  0
ARC
  5
25E
330
1F
100
AcDbEntity
  8
0
  6
Continuous
 62
     7
370
    25
100
AcDbCircle
 10
693.2090595433
 20
589.215502015
 30
0.0
 40
6.929946387144304
100
AcDbArc
 50
266.5070253286
 51
291.7198462835
  0
ARC
  5
25F
330
1F
100
AcDbEntity
  8
0
  6
Continuous
 62
     7
370
    25
100
AcDbCircle
 10
693.2090595433
 20
589.215502015
 30
0.0
 40
8.929641777456995
100
AcDbArc
 50
266.5070253286
 51
291.7198462835
  0
ARC
  5
260
330
1F
100
AcDbEntity
  8
0
  6
Continuous
 62
     7
370
    25
100
AcDbCircle
 10
716.5426586719
 20
628.2712046128
 30
0.0
 40
33.57753037464025
100
AcDbArc
 50
234.8280705831
 51
235.6099480104
  0
ARC
  5
261
330
1F
100
AcDbEntity
  8
0
  6
Continuous
 62
     7
370
    25
100
AcDbCircle
 10
693.2090595433
 20
595.1592909666
 30
0.0
 40
6.92994638714442
100
AcDbArc
 50
54.8280705831
 51
102.8580809319
  0
ARC
  5
262
330
1F
100
AcDbEntity
  8
0
  6
Continuous
 62
     7
370
    25
100
AcDbCircle
 10
693.2090595433
 20
595.1592909666
 30
0.0
 40
8.929641777457086
100
AcDbArc
 50
54.8280705831
 51
102.8580809319
  0
LINE
  5
263
330
1F
100
AcDbEntity
  8
0
  6
Continuous
 62
     7
370
    25
100
AcDbLine
 10
697.2009297832
 20
600.8240176958
 30
0.0
 11
698.3528181344
 21
602.4586231162
 31
0.0
  0
ARC
  5
264
330
1F
100
AcDbEntity
  8
0
  6
Continuous
 62
     7
370
    25
100
AcDbCircle
 10
693.2090595433
 20
589.215502015
 30
0.0
 40
8.999918986501177
100
AcDbArc
 50
257.1419190681
 51
305.1719294169
  0
ARC
  5
265
330
1F
100
AcDbEntity
  8
0
  6
Continuous
 62
     7
370
    25
100
AcDbCircle
 10
693.2090595433
 20
595.1592909666
 30
0.0
 40
8.999918986501271
100
AcDbArc
 50
54.8280705831
 51
102.8580809319
  0
SPLINE
  5
266
330
1F
100
AcDbEntity
  8
0
  6
Continuous
 62
     7
370
    25
100
AcDbSpline
210
0.0
220
0.0
230
1.0
 70
    24
 71
     3
 72
    10
 73
     6
 74
     0
 42
0.00000001
 43
0.00000001
 40
0.0
 40
0.0
 40
0.0
 40
0.0
 40
0.4659072110093477
 40
0.9422777323363251
 40
1.0
 40
1.0
 40
1.0
 40
1.0
 10
685.1323791333949
 20
582.4419752019548
 30
0.0
 10
684.4941607669392
 20
582.4419752019548
 30
0.0
 10
683.203390972292
 20
582.4419752019548
 30
0.0
 10
681.8791457139686
 20
582.4419752019548
 30
0.0
 10
681.1941281102127
 20
582.4419752019548
 30
0.0
 10
681.1200945896458
 20
582.4419752019548
 30
0.0
  0
ARC
  5
267
330
1F
100
AcDbEntity
  8
0
  6
Continuous
 62
     7
370
    25
100
AcDbCircle
 10
685.1000443381
 20
591.941975202
 30
0.0
 40
10.30000000000002
100
AcDbArc
 50
232.7308609266
 51
247.2691390734
  0
SPLINE
  5
268
330
1F
100
AcDbEntity
  8
0
  6
Continuous
 62
     7
370
    25
100
AcDbSpline
210
0.0
220
0.0
230
1.0
 70
    24
 71
     3
 72
    11
 73
     7
 74
     0
 42
0.00000001
 43
0.00000001
 40
0.0
 40
0.0
 40
0.0
 40
0.0
 40
0.2431641197380911
 40
0.4936284730588937
 40
0.7421706076863289
 40
1.0
 40
1.0
 40
1.0
 40
1.0
 10
678.8627778763333
 20
583.745237614032
 30
0.0
 10
678.5490188746365
 20
584.2886841463029
 30
0.0
 10
677.9120812496167
 20
585.3918924740897
 30
0.0
 10
676.9016922806101
 20
587.1419375038162
 30
0.0
 10
675.8699851527741
 20
588.9289066677591
 30
0.0
 10
675.2158794098758
 20
590.0618510479813
 30
0.0
 10
674.8828281279069
 20
590.6387127898777
 30
0.0
  0
ARC
  5
269
330
1F
100
AcDbEntity
  8
0
  6
Continuous
 62
     7
370
    25
100
AcDbCircle
 10
685.1000443381
 20
591.941975202
 30
0.0
 40
10.29999999999995
100
AcDbArc
 50
172.7308609266
 51
187.2691390734
  0
SPLINE
  5
26A
330
1F
100
AcDbEntity
  8
0
  6
Continuous
 62
     7
370
    25
100
AcDbSpline
210
0.0
220
0.0
230
1.0
 70
    24
 71
     3
 72
    11
 73
     7
 74
     0
 42
0.00000001
 43
0.00000001
 40
0.0
 40
0.0
 40
0.0
 40
0.0
 40
0.2431641197380909
 40
0.4936284730588934
 40
0.7421706076863288
 40
1.0
 40
1.0
 40
1.0
 40
1.0
 10
674.8828281279069
 20
593.245237614032
 30
0.0
 10
675.1965871296036
 20
593.7886841463029
 30
0.0
 10
675.8335247546236
 20
594.8918924740897
 30
0.0
 10
676.8439137236301
 20
596.6419375038162
 30
0.0
 10
677.8756208514661
 20
598.4289066677591
 30
0.0
 10
678.5297265943644
 20
599.5618510479815
 30
0.0
 10
678.8627778763333
 20
600.1387127898777
 30
0.0
  0
ARC
  5
26B
330
1F
100
AcDbEntity
  8
0
  6
Continuous
 62
     7
370
    25
100
AcDbCircle
 10
685.1000443381
 20
591.941975202
 30
0.0
 40
10.30000000000002
100
AcDbArc
 50
112.7308609266
 51
127.2691390734
  0
SPLINE
  5
26C
330
1F
100
AcDbEntity
  8
0
  6
Continuous
 62
     7
370
    25
100
AcDbSpline
210
0.0
220
0.0
230
1.0
 70
    24
 71
     3
 72
    10
 73
     6
 74
     0
 42
0.00000001
 43
0.00000001
 40
0.0
 40
0.0
 40
0.0
 40
0.0
 40
0.0993746184585311
 40
0.9194937980719894
 40
1.0
 40
1.0
 40
1.0
 40
1.0
 10
681.1200945896459
 20
601.4419752019548
 30
0.0
 10
681.1941522048579
 20
601.4419752019548
 30
0.0
 10
681.8793927516269
 20
601.4419752019548
 30
0.0
 10
682.6420996282377
 20
601.4419752019548
 30
0.0
 10
683.3555681729314
 20
601.4419752019548
 30
0.0
 10
683.4193445708718
 20
601.4419752019548
 30
0.0
  0
ARC
  5
26D
330
1F
100
AcDbEntity
  8
0
  6
Continuous
 62
     7
370
    25
100
AcDbCircle
 10
481.9000443381
 20
591.941975202
 30
0.0
 40
10.29999999999999
100
AcDbArc
 50
292.7308609266
 51
307.2691390734
  0
SPLINE
  5
26E
330
1F
100
AcDbEntity
  8
0
  6
Continuous
 62
     7
370
    25
100
AcDbSpline
210
0.0
220
0.0
230
1.0
 70
    24
 71
     3
 72
    10
 73
     6
 74
     0
 42
0.00000001
 43
0.00000001
 40
0.0
 40
0.0
 40
0.0
 40
0.0
 40
0.076279423592935
 40
0.6729425033993409
 40
1.0
 40
1.0
 40
1.0
 40
1.0
 10
485.8799940864987
 20
582.4419752019548
 30
0.0
 10
485.8047821212636
 20
582.4419752019548
 30
0.0
 10
485.1412568114633
 20
582.4419752019548
 30
0.0
 10
484.1275682650364
 20
582.4419752019548
 30
0.0
 10
483.1572727432971
 20
582.4419752019548
 30
0.0
 10
482.8137246699854
 20
582.4419752019548
 30
0.0
  0
SPLINE
  5
26F
330
1F
100
AcDbEntity
  8
0
  6
Continuous
 62
     7
370
    25
100
AcDbSpline
210
0.0
220
0.0
230
1.0
 70
    24
 71
     3
 72
    10
 73
     6
 74
     0
 42
0.00000001
 43
0.00000001
 40
0.0
 40
0.0
 40
0.0
 40
0.0
 40
0.3848035719694788
 40
0.9302662133992883
 40
1.0
 40
1.0
 40
1.0
 40
1.0
 10
482.5191487592244
 20
601.4419752019548
 30
0.0
 10
482.9615704559499
 20
601.4419752019548
 30
0.0
 10
484.0311290217189
 20
601.4419752019548
 30
0.0
 10
485.1412924181413
 20
601.4419752019548
 30
0.0
 10
485.8047857464336
 20
601.4419752019548
 30
0.0
 10
485.8799940864987
 20
601.4419752019548
 30
0.0
  0
ARC
  5
270
330
1F
100
AcDbEntity
  8
0
  6
Continuous
 62
     7
370
    25
100
AcDbCircle
 10
481.9000443381
 20
591.941975202
 30
0.0
 40
10.29999999999999
100
AcDbArc
 50
52.7308609266
 51
67.2691390734
  0
SPLINE
  5
271
330
1F
100
AcDbEntity
  8
0
  6
Continuous
 62
     7
370
    25
100
AcDbSpline
210
0.0
220
0.0
230
1.0
 70
    24
 71
     3
 72
    11
 73
     7
 74
     0
 42
0.00000001
 43
0.00000001
 40
0.0
 40
0.0
 40
0.0
 40
0.0
 40
0.2431641197380913
 40
0.4936284730588932
 40
0.7421706076863291
 40
1.0
 40
1.0
 40
1.0
 40
1.0
 10
488.1373107998111
 20
600.1387127898777
 30
0.0
 10
488.4510698015079
 20
599.5952662576068
 30
0.0
 10
489.0880074265278
 20
598.49205792982
 30
0.0
 10
490.0983963955344
 20
596.7420129000934
 30
0.0
 10
491.1301035233705
 20
594.9550437361506
 30
0.0
 10
491.7842092662686
 20
593.8220993559282
 30
0.0
 10
492.1172605482376
 20
593.245237614032
 30
0.0
  0
ARC
  5
272
330
1F
100
AcDbEntity
  8
0
  6
Continuous
 62
     7
370
    25
100
AcDbCircle
 10
481.9000443381
 20
591.941975202
 30
0.0
 40
10.29999999999995
100
AcDbArc
 50
352.7308609266
 51
7.2691390734
  0
SPLINE
  5
273
330
1F
100
AcDbEntity
  8
0
  6
Continuous
 62
     7
370
    25
100
AcDbSpline
210
0.0
220
0.0
230
1.0
 70
    24
 71
     3
 72
    11
 73
     7
 74
     0
 42
0.00000001
 43
0.00000001
 40
0.0
 40
0.0
 40
0.0
 40
0.0
 40
0.2431641197380911
 40
0.493628473058894
 40
0.742170607686329
 40
1.0
 40
1.0
 40
1.0
 40
1.0
 10
492.1172605482376
 20
590.6387127898777
 30
0.0
 10
491.8035015465409
 20
590.0952662576068
 30
0.0
 10
491.1665639215209
 20
588.99205792982
 30
0.0
 10
490.1561749525143
 20
587.2420129000935
 30
0.0
 10
489.1244678246784
 20
585.4550437361505
 30
0.0
 10
488.4703620817802
 20
584.3220993559282
 30
0.0
 10
488.1373107998111
 20
583.745237614032
 30
0.0
  0
ARC
  5
274
330
1F
100
AcDbEntity
  8
0
  6
Continuous
 62
     7
370
    25
100
AcDbCircle
 10
481.9000443381
 20
591.941975202
 30
0.0
 40
10.57500000000004
100
AcDbArc
 50
261.6509017607
 51
30.0
  0
ARC
  5
275
330
1F
100
AcDbEntity
  8
0
  6
Continuous
 62
     7
370
    25
100
AcDbCircle
 10
481.9000443381
 20
591.941975202
 30
0.0
 40
10.57499999999994
100
AcDbArc
 50
30.0
 51
98.3490982393
  0
ARC
  5
276
330
1F
100
AcDbEntity
  8
0
  6
Continuous
 62
     7
370
    25
100
AcDbCircle
 10
481.9000443381
 20
591.941975202
 30
0.0
 40
14.87499999999995
100
AcDbArc
 50
233.3837470415
 51
30.0
  0
ARC
  5
277
330
1F
100
AcDbEntity
  8
0
  6
Continuous
 62
     7
370
    25
100
AcDbCircle
 10
481.9000443381
 20
591.941975202
 30
0.0
 40
14.87499999999994
100
AcDbArc
 50
30.0
 51
126.6162529585
  0
ARC
  5
278
330
1F
100
AcDbEntity
  8
0
  6
Continuous
 62
     7
370
    25
100
AcDbCircle
 10
481.9000443381
 20
591.941975202
 30
0.0
 40
16.20000000000004
100
AcDbArc
 50
223.9250761661
 51
136.0749238339
  0
SPLINE
  5
279
330
1F
100
AcDbEntity
  8
0
  6
Continuous
 62
     7
370
    25
100
AcDbSpline
210
0.0
220
0.0
230
1.0
 70
     8
 71
     3
 72
     9
 73
     5
 74
     0
 42
0.00000001
 43
0.00000001
 40
0.0
 40
0.0
 40
0.0
 40
0.0
 40
0.5850553834534097
 40
1.0
 40
1.0
 40
1.0
 40
1.0
 10
470.7736336901574
 20
578.7134837500187
 30
0.0
 10
471.0334086099662
 20
578.3269372244546
 30
0.0
 10
471.4774262656546
 20
577.6662364831293
 30
0.0
 10
472.1492774576875
 20
577.1880776510033
 30
0.0
 10
472.4280584929419
 20
576.9896682177583
 30
0.0
  0
LINE
  5
27A
330
1F
100
AcDbEntity
  8
0
  6
Continuous
 62
     7
370
    25
100
AcDbLine
 10
469.2683084108
 20
581.3207836157
 30
0.0
 11
470.7736336902
 21
578.71348375
 31
0.0
  0
SPLINE
  5
27B
330
1F
100
AcDbEntity
  8
0
  6
Continuous
 62
     7
370
    25
100
AcDbSpline
210
0.0
220
0.0
230
1.0
 70
    24
 71
     3
 72
     9
 73
     5
 74
     0
 42
0.00000001
 43
0.00000001
 40
0.0
 40
0.0
 40
0.0
 40
0.0
 40
0.9286188355902005
 40
1.0
 40
1.0
 40
1.0
 40
1.0
 10
470.7736336901582
 20
605.1704666538924
 30
0.0
 10
470.329672470016
 20
604.4015032640159
 30
0.0
 10
469.8515847949367
 20
603.5734311203059
 30
0.0
 10
469.3521046891344
 20
602.7083061996865
 30
0.0
 10
469.3164512175827
 20
602.6465525754928
 30
0.0
  0
SPLINE
  5
27C
330
1F
100
AcDbEntity
  8
0
  6
Continuous
 62
     7
370
    25
100
AcDbSpline
210
0.0
220
0.0
230
1.0
 70
     8
 71
     3
 72
     9
 73
     5
 74
     0
 42
0.00000001
 43
0.00000001
 40
0.0
 40
0.0
 40
0.0
 40
0.0
 40
0.584191749740925
 40
1.0
 40
1.0
 40
1.0
 40
1.0
 10
472.4280584929419
 20
606.8942821861514
 30
0.0
 10
472.0404022274913
 20
606.6050062826515
 30
0.0
 10
471.3768251303782
 20
606.109833415818
 30
0.0
 10
470.9507847819697
 20
605.4463489632068
 30
0.0
 10
470.7736336901582
 20
605.1704666538924
 30
0.0
  0
ARC
  5
27D
330
1F
100
AcDbEntity
  8
0
  6
Continuous
 62
     7
370
    25
100
AcDbCircle
 10
481.9000443381
 20
591.941975202
 30
0.0
 40
17.70000000000005
100
AcDbArc
 50
117.6465635726
 51
122.3534364274
  0
SPLINE
  5
27E
330
1F
100
AcDbEntity
  8
0
  6
Continuous
 62
     7
370
    25
100
AcDbSpline
210
0.0
220
0.0
230
1.0
 70
     8
 71
     3
 72
     9
 73
     5
 74
     0
 42
0.00000001
 43
0.00000001
 40
0.0
 40
0.0
 40
0.0
 40
0.0
 40
0.5850553834536162
 40
1.0
 40
1.0
 40
1.0
 40
1.0
 10
476.007040010906
 20
608.1919752019548
 30
0.0
 10
475.5423934401186
 20
608.1602767849162
 30
0.0
 10
474.7482009859881
 20
608.1060965860237
 30
0.0
 10
473.9981776943071
 20
607.7633358022237
 30
0.0
 10
473.6869595671398
 20
607.6211090602226
 30
0.0
  0
SPLINE
  5
27F
330
1F
100
AcDbEntity
  8
0
  6
Continuous
 62
     7
370
    25
100
AcDbSpline
210
0.0
220
0.0
230
1.0
 70
    24
 71
     3
 72
    11
 73
     7
 74
     0
 42
0.00000001
 43
0.00000001
 40
0.0
 40
0.0
 40
0.0
 40
0.0
 40
0.2328716322111479
 40
0.4710265024313248
 40
0.7311421212560302
 40
0.9999999999999999
 40
0.9999999999999999
 40
0.9999999999999999
 40
0.9999999999999999
 10
487.7930486652384
 20
608.1919752019548
 30
0.0
 10
486.899192234918
 20
608.1919752019548
 30
0.0
 10
485.0912001490987
 20
608.1919752019548
 30
0.0
 10
482.1635274085357
 20
608.1919752019548
 30
0.0
 10
479.0764284980577
 20
608.1919752019548
 30
0.0
 10
477.0413804770716
 20
608.1919752019548
 30
0.0
 10
476.007040010906
 20
608.1919752019548
 30
0.0
  0
SPLINE
  5
280
330
1F
100
AcDbEntity
  8
0
  6
Continuous
 62
     7
370
    25
100
AcDbSpline
210
0.0
220
0.0
230
1.0
 70
     8
 71
     3
 72
     9
 73
     5
 74
     0
 42
0.00000001
 43
0.00000001
 40
0.0
 40
0.0
 40
0.0
 40
0.0
 40
0.5841917497409234
 40
1.0
 40
1.0
 40
1.0
 40
1.0
 10
490.1131291090047
 20
607.6211090602226
 30
0.0
 10
489.668780695146
 20
607.8121912822892
 30
0.0
 10
488.9081598646467
 20
608.139279472342
 30
0.0
 10
488.1205452994652
 20
608.1764990107952
 30
0.0
 10
487.7930486652384
 20
608.1919752019548
 30
0.0
  0
ARC
  5
281
330
1F
100
AcDbEntity
  8
0
  6
Continuous
 62
     7
370
    25
100
AcDbCircle
 10
481.9000443381
 20
591.941975202
 30
0.0
 40
17.70000000000002
100
AcDbArc
 50
57.6465635726
 51
62.3534364274
  0
SPLINE
  5
282
330
1F
100
AcDbEntity
  8
0
  6
Continuous
 62
     7
370
    25
100
AcDbSpline
210
0.0
220
0.0
230
1.0
 70
     8
 71
     3
 72
     9
 73
     5
 74
     0
 42
0.00000001
 43
0.00000001
 40
0.0
 40
0.0
 40
0.0
 40
0.0
 40
0.5850553834536193
 40
1.0
 40
1.0
 40
1.0
 40
1.0
 10
493.0264549859862
 20
605.1704666538924
 30
0.0
 10
492.7666800661773
 20
605.5570131794562
 30
0.0
 10
492.322662410489
 20
606.217713920781
 30
0.0
 10
491.6508112184566
 20
606.6958727529066
 30
0.0
 10
491.3720301832025
 20
606.8942821861514
 30
0.0
  0
SPLINE
  5
283
330
1F
100
AcDbEntity
  8
0
  6
Continuous
 62
     7
370
    25
100
AcDbSpline
210
0.0
220
0.0
230
1.0
 70
    24
 71
     3
 72
    11
 73
     7
 74
     0
 42
0.00000001
 43
0.00000001
 40
0.0
 40
0.0
 40
0.0
 40
0.0
 40
0.2556279644380972
 40
0.5185037642963867
 40
0.7560467972580103
 40
1.0
 40
1.0
 40
1.0
 40
1.0
 10
498.9194593131525
 20
594.9634837500173
 30
0.0
 10
498.4281662348843
 20
595.8144283229847
 30
0.0
 10
497.4316504154402
 20
597.5404443528079
 30
0.0
 10
495.9114395089871
 20
600.1735268810052
 30
0.0
 10
494.4197237874389
 20
602.7572543011757
 30
0.0
 10
493.4949816239325
 20
604.3589547122702
 30
0.0
 10
493.0264549859862
 20
605.1704666538924
 30
0.0
  0
SPLINE
  5
284
330
1F
100
AcDbEntity
  8
0
  6
Continuous
 62
     7
370
    25
100
AcDbSpline
210
0.0
220
0.0
230
1.0
 70
     8
 71
     3
 72
     9
 73
     5
 74
     0
 42
0.00000001
 43
0.00000001
 40
0.0
 40
0.0
 40
0.0
 40
0.0
 40
0.5841917497409242
 40
1.0
 40
1.0
 40
1.0
 40
1.0
 10
499.5851149541351
 20
592.668802076026
 30
0.0
 10
499.5284228057268
 20
593.1491602015924
 30
0.0
 10
499.4313790723408
 20
593.9714212584787
 30
0.0
 10
499.0698048555677
 20
594.6721252495431
 30
0.0
 10
498.9194593131525
 20
594.9634837500173
 30
0.0
  0
ARC
  5
285
330
1F
100
AcDbEntity
  8
0
  6
Continuous
 62
     7
370
    25
100
AcDbCircle
 10
481.9000443381
 20
591.941975202
 30
0.0
 40
17.70000000000003
100
AcDbArc
 50
357.6465635726
 51
2.3534364274
  0
SPLINE
  5
286
330
1F
100
AcDbEntity
  8
0
  6
Continuous
 62
     7
370
    25
100
AcDbSpline
210
0.0
220
0.0
230
1.0
 70
     8
 71
     3
 72
     9
 73
     5
 74
     0
 42
0.00000001
 43
0.00000001
 40
0.0
 40
0.0
 40
0.0
 40
0.0
 40
0.5850553834536182
 40
0.9999999999999999
 40
0.9999999999999999
 40
0.9999999999999999
 40
0.9999999999999999
 10
498.9194593131525
 20
588.9204666538924
 30
0.0
 10
499.1243309641309
 20
589.3387115964948
 30
0.0
 10
499.4745057625732
 20
590.0535925367121
 30
0.0
 10
499.5526778622217
 20
590.8745121526379
 30
0.0
 10
499.585114954135
 20
591.2151483278835
 30
0.0
  0
SPLINE
  5
287
330
1F
100
AcDbEntity
  8
0
  6
Continuous
 62
     7
370
    25
100
AcDbSpline
210
0.0
220
0.0
230
1.0
 70
    24
 71
     3
 72
    11
 73
     7
 74
     0
 42
0.00000001
 43
0.00000001
 40
0.0
 40
0.0
 40
0.0
 40
0.0
 40
0.2328716322111471
 40
0.471026502431323
 40
0.7311421212560296
 40
1.0
 40
1.0
 40
1.0
 40
1.0
 10
493.0264549859862
 20
578.7134837500172
 30
0.0
 10
493.4733832011464
 20
579.4875861260108
 30
0.0
 10
494.377379244056
 20
581.0533532021716
 30
0.0
 10
495.8412156143376
 20
583.5887921694663
 30
0.0
 10
497.3847650695765
 20
586.2622982499355
 30
0.0
 10
498.4022890800696
 20
588.0247015340308
 30
0.0
 10
498.9194593131525
 20
588.9204666538924
 30
0.0
  0
SPLINE
  5
288
330
1F
100
AcDbEntity
  8
0
  6
Continuous
 62
     7
370
    25
100
AcDbSpline
210
0.0
220
0.0
230
1.0
 70
     8
 71
     3
 72
     9
 73
     5
 74
     0
 42
0.00000001
 43
0.00000001
 40
0.0
 40
0.0
 40
0.0
 40
0.0
 40
0.5841917497409237
 40
1.0
 40
1.0
 40
1.0
 40
1.0
 10
491.3720301832025
 20
576.9896682177583
 30
0.0
 10
491.7596864486531
 20
577.2789441212581
 30
0.0
 10
492.4232635457663
 20
577.7741169880917
 30
0.0
 10
492.8493038941747
 20
578.4376014407029
 30
0.0
 10
493.0264549859862
 20
578.7134837500172
 30
0.0
  0
ARC
  5
289
330
1F
100
AcDbEntity
  8
0
  6
Continuous
 62
     7
370
    25
100
AcDbCircle
 10
481.9000443381
 20
591.941975202
 30
0.0
 40
17.70000000000002
100
AcDbArc
 50
297.6465635726
 51
302.3534364274
  0
SPLINE
  5
28A
330
1F
100
AcDbEntity
  8
0
  6
Continuous
 62
     7
370
    25
100
AcDbSpline
210
0.0
220
0.0
230
1.0
 70
     8
 71
     3
 72
     9
 73
     5
 74
     0
 42
0.00000001
 43
0.00000001
 40
0.0
 40
0.0
 40
0.0
 40
0.0
 40
0.5850553834536171
 40
1.0
 40
1.0
 40
1.0
 40
1.0
 10
487.7930486652384
 20
575.6919752019548
 30
0.0
 10
488.2576952360258
 20
575.7236736189934
 30
0.0
 10
489.0518876901563
 20
575.777853817886
 30
0.0
 10
489.8019109818372
 20
576.120614601686
 30
0.0
 10
490.1131291090047
 20
576.2628413436871
 30
0.0
  0
SPLINE
  5
28B
330
1F
100
AcDbEntity
  8
0
  6
Continuous
 62
     7
370
    25
100
AcDbSpline
210
0.0
220
0.0
230
1.0
 70
    24
 71
     3
 72
    11
 73
     7
 74
     0
 42
0.00000001
 43
0.00000001
 40
0.0
 40
0.0
 40
0.0
 40
0.0
 40
0.2328716322111485
 40
0.471026502431326
 40
0.7311421212560308
 40
1.0
 40
1.0
 40
1.0
 40
1.0
 10
476.007040010906
 20
575.6919752019548
 30
0.0
 10
476.9008964412265
 20
575.6919752019548
 30
0.0
 10
478.7088885270458
 20
575.6919752019548
 30
0.0
 10
481.6365612676087
 20
575.6919752019548
 30
0.0
 10
484.7236601780867
 20
575.6919752019548
 30
0.0
 10
486.7587081990728
 20
575.6919752019548
 30
0.0
 10
487.7930486652384
 20
575.6919752019548
 30
0.0
  0
SPLINE
  5
28C
330
1F
100
AcDbEntity
  8
0
  6
Continuous
 62
     7
370
    25
100
AcDbSpline
210
0.0
220
0.0
230
1.0
 70
     8
 71
     3
 72
     9
 73
     5
 74
     0
 42
0.00000001
 43
0.00000001
 40
0.0
 40
0.0
 40
0.0
 40
0.0
 40
0.5841917497409266
 40
1.0
 40
1.0
 40
1.0
 40
1.0
 10
473.6869595671398
 20
576.2628413436871
 30
0.0
 10
474.1313079809984
 20
576.0717591216205
 30
0.0
 10
474.8919288114977
 20
575.7446709315677
 30
0.0
 10
475.6795433766793
 20
575.7074513931145
 30
0.0
 10
476.007040010906
 20
575.6919752019548
 30
0.0
  0
ARC
  5
28D
330
1F
100
AcDbEntity
  8
0
  6
Continuous
 62
     7
370
    25
100
AcDbCircle
 10
481.9000443381
 20
591.941975202
 30
0.0
 40
17.70000000000005
100
AcDbArc
 50
237.6465635726
 51
242.3534364274
  0
LINE
  5
28E
330
1F
100
AcDbEntity
  8
0
  6
Continuous
 62
     7
370
    25
100
AcDbLine
 10
676.6562966512
 20
587.066975202
 30
0.0
 11
676.0704947009
 21
588.2636966169
 31
0.0
  0
LINE
  5
28F
330
1F
100
AcDbEntity
  8
0
  6
Continuous
 62
     7
370
    25
100
AcDbLine
 10
675.9958689746
 20
595.431458108
 30
0.0
 11
676.1011541899
 21
595.6946377369
 31
0.0
  0
LWPOLYLINE
  5
290
330
1F
100
AcDbEntity
  8
0
  6
Continuous
 62
     7
370
    25
100
AcDbPolyline
 90
        3
 70
   128
 43
0.0
 10
677.9236923053
 20
585.3417879697
 10
677.7314859881
 20
585.557083046
 10
676.6562966512
 20
587.066975202
  0
ARC
  5
291
330
1F
100
AcDbEntity
  8
0
  6
Continuous
 62
     7
370
    25
100
AcDbCircle
 10
685.1000443381
 20
591.941975202
 30
0.0
 40
10.57500000000003
100
AcDbArc
 50
84.5490172093
 51
281.0490866707
  0
ARC
  5
292
330
1F
100
AcDbEntity
  8
0
  6
Continuous
 62
     7
370
    25
100
AcDbCircle
 10
685.1000443381
 20
591.941975202
 30
0.0
 40
14.87500000000004
100
AcDbArc
 50
55.1611835908
 51
308.4167037132
  0
SPLINE
  5
293
330
1F
100
AcDbEntity
  8
0
  6
Continuous
 62
     7
370
    25
100
AcDbSpline
210
0.0
220
0.0
230
1.0
 70
     8
 71
     3
 72
     9
 73
     5
 74
     0
 42
0.00000001
 43
0.00000001
 40
0.0
 40
0.0
 40
0.0
 40
0.0
 40
0.5850553834534097
 40
1.0
 40
1.0
 40
1.0
 40
1.0
 10
673.9736336901574
 20
578.7134837500187
 30
0.0
 10
674.2334086099663
 20
578.3269372244546
 30
0.0
 10
674.6774262656546
 20
577.6662364831293
 30
0.0
 10
675.3492774576874
 20
577.1880776510033
 30
0.0
 10
675.6280584929419
 20
576.9896682177583
 30
0.0
  0
SPLINE
  5
294
330
1F
100
AcDbEntity
  8
0
  6
Continuous
 62
     7
370
    25
100
AcDbSpline
210
0.0
220
0.0
230
1.0
 70
    24
 71
     3
 72
    11
 73
     7
 74
     0
 42
0.00000001
 43
0.00000001
 40
0.0
 40
0.0
 40
0.0
 40
0.0
 40
0.2379053903768482
 40
0.4814905141303176
 40
0.7366519444348056
 40
0.9999999999999999
 40
0.9999999999999999
 40
0.9999999999999999
 40
0.9999999999999999
 10
668.0806293629919
 20
588.9204666538926
 30
0.0
 10
668.5373614737671
 20
588.1293834325818
 30
0.0
 10
669.4617296795006
 20
586.52833073535
 30
0.0
 10
670.9380557720203
 20
583.9712589345662
 30
0.0
 10
672.4701891564838
 20
581.317526068703
 30
0.0
 10
673.4672381211303
 20
579.5905866043014
 30
0.0
 10
673.9736336901574
 20
578.7134837500187
 30
0.0
  0
SPLINE
  5
295
330
1F
100
AcDbEntity
  8
0
  6
Continuous
 62
     7
370
    25
100
AcDbSpline
210
0.0
220
0.0
230
1.0
 70
     8
 71
     3
 72
     9
 73
     5
 74
     0
 42
0.00000001
 43
0.00000001
 40
0.0
 40
0.0
 40
0.0
 40
0.0
 40
0.5841917497409942
 40
1.0
 40
1.0
 40
1.0
 40
1.0
 10
667.4149737220094
 20
591.2151483278835
 30
0.0
 10
667.4716658704176
 20
590.7347902023173
 30
0.0
 10
667.5687096038037
 20
589.9125291454311
 30
0.0
 10
667.9302838205767
 20
589.2118251543667
 30
0.0
 10
668.0806293629919
 20
588.9204666538926
 30
0.0
  0
ARC
  5
296
330
1F
100
AcDbEntity
  8
0
  6
Continuous
 62
     7
370
    25
100
AcDbCircle
 10
685.1000443381
 20
591.941975202
 30
0.0
 40
17.70000000000003
100
AcDbArc
 50
177.6465635726
 51
182.3534364274
  0
SPLINE
  5
297
330
1F
100
AcDbEntity
  8
0
  6
Continuous
 62
     7
370
    25
100
AcDbSpline
210
0.0
220
0.0
230
1.0
 70
     8
 71
     3
 72
     9
 73
     5
 74
     0
 42
0.00000001
 43
0.00000001
 40
0.0
 40
0.0
 40
0.0
 40
0.0
 40
0.5850553834536183
 40
1.0
 40
1.0
 40
1.0
 40
1.0
 10
668.0806293629921
 20
594.9634837500173
 30
0.0
 10
667.8757577120135
 20
594.5452388074148
 30
0.0
 10
667.5255829135714
 20
593.8303578671976
 30
0.0
 10
667.4474108139228
 20
593.0094382512718
 30
0.0
 10
667.4149737220094
 20
592.668802076026
 30
0.0
  0
SPLINE
  5
298
330
1F
100
AcDbEntity
  8
0
  6
Continuous
 62
     7
370
    25
100
AcDbSpline
210
0.0
220
0.0
230
1.0
 70
    24
 71
     3
 72
    11
 73
     7
 74
     0
 42
0.00000001
 43
0.00000001
 40
0.0
 40
0.0
 40
0.0
 40
0.0
 40
0.2328716322111468
 40
0.4710265024313225
 40
0.7311421212560294
 40
1.0
 40
1.0
 40
1.0
 40
1.0
 10
673.9736336901583
 20
605.1704666538924
 30
0.0
 10
673.526705474998
 20
604.3963642778989
 30
0.0
 10
672.6227094320884
 20
602.830597201738
 30
0.0
 10
671.1588730618068
 20
600.2951582344433
 30
0.0
 10
669.6153236065679
 20
597.6216521539742
 30
0.0
 10
668.5977995960748
 20
595.8592488698789
 30
0.0
 10
668.080629362992
 20
594.9634837500173
 30
0.0
  0
SPLINE
  5
299
330
1F
100
AcDbEntity
  8
0
  6
Continuous
 62
     7
370
    25
100
AcDbSpline
210
0.0
220
0.0
230
1.0
 70
     8
 71
     3
 72
     9
 73
     5
 74
     0
 42
0.00000001
 43
0.00000001
 40
0.0
 40
0.0
 40
0.0
 40
0.0
 40
0.584191749740925
 40
1.0
 40
1.0
 40
1.0
 40
1.0
 10
675.6280584929419
 20
606.8942821861514
 30
0.0
 10
675.2404022274914
 20
606.6050062826515
 30
0.0
 10
674.5768251303782
 20
606.109833415818
 30
0.0
 10
674.1507847819697
 20
605.4463489632068
 30
0.0
 10
673.9736336901583
 20
605.1704666538924
 30
0.0
  0
ARC
  5
29A
330
1F
100
AcDbEntity
  8
0
  6
Continuous
 62
     7
370
    25
100
AcDbCircle
 10
685.1000443381
 20
591.941975202
 30
0.0
 40
17.70000000000007
100
AcDbArc
 50
117.6465635726
 51
122.3534364274
  0
SPLINE
  5
29B
330
1F
100
AcDbEntity
  8
0
  6
Continuous
 62
     7
370
    25
100
AcDbSpline
210
0.0
220
0.0
230
1.0
 70
     8
 71
     3
 72
     9
 73
     5
 74
     0
 42
0.00000001
 43
0.00000001
 40
0.0
 40
0.0
 40
0.0
 40
0.0
 40
0.5850553834536162
 40
1.0
 40
1.0
 40
1.0
 40
1.0
 10
679.207040010906
 20
608.1919752019548
 30
0.0
 10
678.7423934401187
 20
608.1602767849162
 30
0.0
 10
677.9482009859881
 20
608.1060965860237
 30
0.0
 10
677.1981776943072
 20
607.7633358022237
 30
0.0
 10
676.8869595671397
 20
607.6211090602226
 30
0.0
  0
SPLINE
  5
29C
330
1F
100
AcDbEntity
  8
0
  6
Continuous
 62
     7
370
    25
100
AcDbSpline
210
0.0
220
0.0
230
1.0
 70
    24
 71
     3
 72
    11
 73
     7
 74
     0
 42
0.00000001
 43
0.00000001
 40
0.0
 40
0.0
 40
0.0
 40
0.0
 40
0.2328716322111479
 40
0.4710265024313248
 40
0.7311421212560302
 40
0.9999999999999999
 40
0.9999999999999999
 40
0.9999999999999999
 40
0.9999999999999999
 10
690.9930486652385
 20
608.1919752019548
 30
0.0
 10
690.0991922349181
 20
608.1919752019548
 30
0.0
 10
688.2912001490987
 20
608.1919752019548
 30
0.0
 10
685.3635274085358
 20
608.1919752019548
 30
0.0
 10
682.2764284980578
 20
608.1919752019547
 30
0.0
 10
680.2413804770716
 20
608.1919752019547
 30
0.0
 10
679.207040010906
 20
608.1919752019548
 30
0.0
  0
SPLINE
  5
29D
330
1F
100
AcDbEntity
  8
0
  6
Continuous
 62
     7
370
    25
100
AcDbSpline
210
0.0
220
0.0
230
1.0
 70
     8
 71
     3
 72
     9
 73
     5
 74
     0
 42
0.00000001
 43
0.00000001
 40
0.0
 40
0.0
 40
0.0
 40
0.0
 40
0.5841917497409234
 40
1.0
 40
1.0
 40
1.0
 40
1.0
 10
693.3131291090048
 20
607.6211090602226
 30
0.0
 10
692.868780695146
 20
607.8121912822891
 30
0.0
 10
692.1081598646468
 20
608.139279472342
 30
0.0
 10
691.3205452994652
 20
608.1764990107952
 30
0.0
 10
690.9930486652385
 20
608.1919752019548
 30
0.0
  0
ARC
  5
29E
330
1F
100
AcDbEntity
  8
0
  6
Continuous
 62
     7
370
    25
100
AcDbCircle
 10
685.1000443381
 20
591.941975202
 30
0.0
 40
17.70000000000002
100
AcDbArc
 50
57.6465635726
 51
62.3534364274
  0
SPLINE
  5
29F
330
1F
100
AcDbEntity
  8
0
  6
Continuous
 62
     7
370
    25
100
AcDbSpline
210
0.0
220
0.0
230
1.0
 70
     8
 71
     3
 72
     9
 73
     5
 74
     0
 42
0.00000001
 43
0.00000001
 40
0.0
 40
0.0
 40
0.0
 40
0.0
 40
0.5850553834536193
 40
1.0
 40
1.0
 40
1.0
 40
1.0
 10
696.2264549859863
 20
605.1704666538924
 30
0.0
 10
695.9666800661773
 20
605.5570131794562
 30
0.0
 10
695.5226624104891
 20
606.217713920781
 30
0.0
 10
694.8508112184567
 20
606.6958727529066
 30
0.0
 10
694.5720301832025
 20
606.8942821861513
 30
0.0
  0
LINE
  5
2A0
330
1F
100
AcDbEntity
  8
0
  6
Continuous
 62
     7
370
    25
100
AcDbLine
 10
697.5415104454
 20
602.8927237834
 30
0.0
 11
696.226454986
 21
605.1704666539
 31
0.0
  0
SPLINE
  5
2A1
330
1F
100
AcDbEntity
  8
0
  6
Continuous
 62
     7
370
    25
100
AcDbSpline
210
0.0
220
0.0
230
1.0
 70
    24
 71
     3
 72
     9
 73
     5
 74
     0
 42
0.00000001
 43
0.00000001
 40
0.0
 40
0.0
 40
0.0
 40
0.0
 40
0.7598805654552347
 40
1.0
 40
1.0
 40
1.0
 40
1.0
 10
696.2264549859863
 20
578.7134837500172
 30
0.0
 10
696.6715335579992
 20
579.4843824501038
 30
0.0
 10
697.2572553046085
 20
580.4988822743292
 30
0.0
 10
697.8691198623536
 20
581.5586627756941
 30
0.0
 10
698.0160404339772
 20
581.8131366704235
 30
0.0
  0
SPLINE
  5
2A2
330
1F
100
AcDbEntity
  8
0
  6
Continuous
 62
     7
370
    25
100
AcDbSpline
210
0.0
220
0.0
230
1.0
 70
     8
 71
     3
 72
     9
 73
     5
 74
     0
 42
0.00000001
 43
0.00000001
 40
0.0
 40
0.0
 40
0.0
 40
0.0
 40
0.5841917497409237
 40
1.0
 40
1.0
 40
1.0
 40
1.0
 10
694.5720301832025
 20
576.9896682177583
 30
0.0
 10
694.9596864486531
 20
577.2789441212581
 30
0.0
 10
695.6232635457663
 20
577.7741169880917
 30
0.0
 10
696.0493038941747
 20
578.4376014407029
 30
0.0
 10
696.2264549859863
 20
578.7134837500172
 30
0.0
  0
ARC
  5
2A3
330
1F
100
AcDbEntity
  8
0
  6
Continuous
 62
     7
370
    25
100
AcDbCircle
 10
685.1000443381
 20
591.941975202
 30
0.0
 40
17.69999999999999
100
AcDbArc
 50
297.6465635726
 51
302.3534364274
  0
SPLINE
  5
2A4
330
1F
100
AcDbEntity
  8
0
  6
Continuous
 62
     7
370
    25
100
AcDbSpline
210
0.0
220
0.0
230
1.0
 70
     8
 71
     3
 72
     9
 73
     5
 74
     0
 42
0.00000001
 43
0.00000001
 40
0.0
 40
0.0
 40
0.0
 40
0.0
 40
0.5850553834536171
 40
1.0
 40
1.0
 40
1.0
 40
1.0
 10
690.9930486652385
 20
575.6919752019548
 30
0.0
 10
691.4576952360259
 20
575.7236736189934
 30
0.0
 10
692.2518876901563
 20
575.777853817886
 30
0.0
 10
693.0019109818372
 20
576.120614601686
 30
0.0
 10
693.3131291090048
 20
576.2628413436871
 30
0.0
  0
SPLINE
  5
2A5
330
1F
100
AcDbEntity
  8
0
  6
Continuous
 62
     7
370
    25
100
AcDbSpline
210
0.0
220
0.0
230
1.0
 70
    24
 71
     3
 72
    11
 73
     7
 74
     0
 42
0.00000001
 43
0.00000001
 40
0.0
 40
0.0
 40
0.0
 40
0.0
 40
0.2328716322111485
 40
0.471026502431326
 40
0.7311421212560308
 40
1.0
 40
1.0
 40
1.0
 40
1.0
 10
679.207040010906
 20
575.6919752019548
 30
0.0
 10
680.1008964412264
 20
575.6919752019548
 30
0.0
 10
681.9088885270457
 20
575.6919752019548
 30
0.0
 10
684.8365612676088
 20
575.6919752019548
 30
0.0
 10
687.9236601780867
 20
575.6919752019548
 30
0.0
 10
689.9587081990728
 20
575.6919752019548
 30
0.0
 10
690.9930486652385
 20
575.6919752019548
 30
0.0
  0
SPLINE
  5
2A6
330
1F
100
AcDbEntity
  8
0
  6
Continuous
 62
     7
370
    25
100
AcDbSpline
210
0.0
220
0.0
230
1.0
 70
     8
 71
     3
 72
     9
 73
     5
 74
     0
 42
0.00000001
 43
0.00000001
 40
0.0
 40
0.0
 40
0.0
 40
0.0
 40
0.5841917497409266
 40
1.0
 40
1.0
 40
1.0
 40
1.0
 10
676.8869595671398
 20
576.2628413436871
 30
0.0
 10
677.3313079809985
 20
576.0717591216205
 30
0.0
 10
678.0919288114977
 20
575.7446709315677
 30
0.0
 10
678.8795433766793
 20
575.7074513931145
 30
0.0
 10
679.207040010906
 20
575.6919752019548
 30
0.0
  0
ARC
  5
2A7
330
1F
100
AcDbEntity
  8
0
  6
Continuous
 62
     7
370
    25
100
AcDbCircle
 10
685.1000443381
 20
591.941975202
 30
0.0
 40
17.70000000000005
100
AcDbArc
 50
237.6465635726
 51
242.3534364274
  0
ARC
  5
2A8
330
1F
100
AcDbEntity
  8
0
  6
Continuous
 62
     7
370
    25
100
AcDbCircle
 10
685.1000443381
 20
591.941975202
 30
0.0
 40
16.20000000000009
100
AcDbArc
 50
210.0
 51
318.1420914366
  0
ARC
  5
2A9
330
1F
100
AcDbEntity
  8
0
  6
Continuous
 62
     7
370
    25
100
AcDbCircle
 10
685.1000443381
 20
591.941975202
 30
0.0
 40
16.19999999999998
100
AcDbArc
 50
45.9729863763
 51
210.0
  0
SPLINE
  5
2AA
330
1F
100
AcDbEntity
  8
0
  6
Continuous
 62
     7
370
    25
100
AcDbSpline
210
0.0
220
0.0
230
1.0
 70
    24
 71
     3
 72
    10
 73
     6
 74
     0
 42
0.00000001
 43
0.00000001
 40
0.0
 40
0.0
 40
0.0
 40
0.0
 40
0.1516742927762401
 40
0.573718668931815
 40
1.0
 40
1.0
 40
1.0
 40
1.0
 10
699.4714107015417
 20
601.8642597183739
 30
0.0
 10
699.2490165694713
 20
602.2494576544249
 30
0.0
 10
698.4077951396945
 20
603.706495911214
 30
0.0
 10
696.9558251210252
 20
606.2213817546162
 30
0.0
 10
695.7539721469176
 20
608.3030521689982
 30
0.0
 10
695.1500443380722
 20
609.3490858180221
 30
0.0
  0
SPLINE
  5
2AB
330
1F
100
AcDbEntity
  8
0
  6
Continuous
 62
     7
370
    25
100
AcDbSpline
210
0.0
220
0.0
230
1.0
 70
    24
 71
     3
 72
     9
 73
     5
 74
     0
 42
0.00000001
 43
0.00000001
 40
0.0
 40
0.0
 40
0.0
 40
0.0
 40
0.6197129473236728
 40
1.0
 40
1.0
 40
1.0
 40
1.0
 10
695.1500443380722
 20
574.5348645858877
 30
0.0
 10
696.0212923640271
 20
576.0439104328354
 30
0.0
 10
697.4271820258738
 20
578.4789827569896
 30
0.0
 10
698.8811709878397
 20
580.9973655127592
 30
0.0
 10
699.4341041648098
 20
581.9550738684617
 30
0.0
  0
SPLINE
  5
2AC
330
1F
100
AcDbEntity
  8
0
  6
Continuous
 62
     7
370
    25
100
AcDbSpline
210
0.0
220
0.0
230
1.0
 70
    24
 71
     3
 72
     9
 73
     5
 74
     0
 42
0.00000001
 43
0.00000001
 40
0.0
 40
0.0
 40
0.0
 40
0.0
 40
0.5881605129007254
 40
1.0
 40
1.0
 40
1.0
 40
1.0
 10
675.0500443380722
 20
574.5348645858877
 30
0.0
 10
676.7931673948902
 20
574.5348645858877
 30
0.0
 10
679.756853359154
 20
574.5348645858877
 30
0.0
 10
682.8218985897655
 20
574.5348645858877
 30
0.0
 10
684.0842052454766
 20
574.5348645858877
 30
0.0
  0
SPLINE
  5
2AD
330
1F
100
AcDbEntity
  8
0
  6
Continuous
 62
     7
370
    25
100
AcDbSpline
210
0.0
220
0.0
230
1.0
 70
    24
 71
     3
 72
     9
 73
     5
 74
     0
 42
0.00000001
 43
0.00000001
 40
0.0
 40
0.0
 40
0.0
 40
0.0
 40
0.4345208978429723
 40
1.0
 40
1.0
 40
1.0
 40
1.0
 10
686.8311083621793
 20
574.5348645858877
 30
0.0
 10
688.056313907445
 20
574.5348645858877
 30
0.0
 10
690.875983919515
 20
574.5348645858877
 30
0.0
 10
693.6061771317196
 20
574.5348645858877
 30
0.0
 10
695.1500443380722
 20
574.5348645858877
 30
0.0
  0
SPLINE
  5
2AE
330
1F
100
AcDbEntity
  8
0
  6
Continuous
 62
     7
370
    25
100
AcDbSpline
210
0.0
220
0.0
230
1.0
 70
    24
 71
     3
 72
     9
 73
     5
 74
     0
 42
0.00000001
 43
0.00000001
 40
0.0
 40
0.0
 40
0.0
 40
0.0
 40
0.5290062514329625
 40
1.0
 40
1.0
 40
1.0
 40
1.0
 10
672.3171045607342
 20
579.2684551342633
 30
0.0
 10
672.8063186864199
 20
578.4211114127951
 30
0.0
 10
673.7310981656051
 20
576.8193463690492
 30
0.0
 10
674.627734316338
 20
575.2663270000771
 30
0.0
 10
675.0500443380722
 20
574.5348645858877
 30
0.0
  0
SPLINE
  5
2AF
330
1F
100
AcDbEntity
  8
0
  6
Continuous
 62
     7
370
    25
100
AcDbSpline
210
0.0
220
0.0
230
1.0
 70
    24
 71
     3
 72
     9
 73
     5
 74
     0
 42
0.00000001
 43
0.00000001
 40
0.0
 40
0.0
 40
0.0
 40
0.0
 40
0.9659881130670709
 40
1.0
 40
1.0
 40
1.0
 40
1.0
 10
675.0500443380722
 20
609.3490858180221
 30
0.0
 10
674.1822368743515
 20
607.8459991996704
 30
0.0
 10
673.2838744080005
 20
606.2899897643374
 30
0.0
 10
672.3546546685237
 20
604.6805339641677
 30
0.0
 10
672.3230501518087
 20
604.6257933354688
 30
0.0
  0
SPLINE
  5
2B0
330
1F
100
AcDbEntity
  8
0
  6
Continuous
 62
     7
370
    25
100
AcDbSpline
210
0.0
220
0.0
230
1.0
 70
    24
 71
     3
 72
     9
 73
     5
 74
     0
 42
0.00000001
 43
0.00000001
 40
0.0
 40
0.0
 40
0.0
 40
0.0
 40
0.6058510256477487
 40
1.0
 40
1.0
 40
1.0
 40
1.0
 10
695.1500443380722
 20
609.3490858180221
 30
0.0
 10
693.4072728242818
 20
609.3490858180221
 30
0.0
 10
690.5307050873085
 20
609.3490858180221
 30
0.0
 10
687.5557377181506
 20
609.3490858180221
 30
0.0
 10
686.3831573808657
 20
609.3490858180221
 30
0.0
  0
SPLINE
  5
2B1
330
1F
100
AcDbEntity
  8
0
  6
Continuous
 62
     7
370
    25
100
AcDbSpline
210
0.0
220
0.0
230
1.0
 70
    24
 71
     3
 72
     9
 73
     5
 74
     0
 42
0.00000001
 43
0.00000001
 40
0.0
 40
0.0
 40
0.0
 40
0.0
 40
0.4538337404283768
 40
1.0
 40
1.0
 40
1.0
 40
1.0
 10
683.6667223512723
 20
609.3490858180221
 30
0.0
 10
682.3415405306225
 20
609.3490858180221
 30
0.0
 10
679.4215685175263
 20
609.3490858180221
 30
0.0
 10
676.5942372700671
 20
609.3490858180221
 30
0.0
 10
675.0500443380722
 20
609.3490858180221
 30
0.0
  0
SPLINE
  5
2B2
330
1F
100
AcDbEntity
  8
0
  6
Continuous
 62
     7
370
    25
100
AcDbSpline
210
0.0
220
0.0
230
1.0
 70
    24
 71
     3
 72
    10
 73
     6
 74
     0
 42
0.00000001
 43
0.00000001
 40
0.0
 40
0.0
 40
0.0
 40
0.0
 40
0.1444117226198174
 40
0.5700692474338062
 40
1.0
 40
1.0
 40
1.0
 40
1.0
 10
467.5659845113349
 20
581.9550738684613
 30
0.0
 10
467.7759251672842
 20
581.5914459857827
 30
0.0
 10
468.6046716815674
 20
580.1560149164486
 30
0.0
 10
470.044244976384
 20
577.662600828607
 30
0.0
 10
471.246110315729
 20
575.5809089970053
 30
0.0
 10
471.8500443380722
 20
574.5348645858877
 30
0.0
  0
SPLINE
  5
2B3
330
1F
100
AcDbEntity
  8
0
  6
Continuous
 62
     7
370
    25
100
AcDbSpline
210
0.0
220
0.0
230
1.0
 70
    24
 71
     3
 72
     9
 73
     5
 74
     0
 42
0.00000001
 43
0.00000001
 40
0.0
 40
0.0
 40
0.0
 40
0.0
 40
0.5920686517903692
 40
1.0
 40
1.0
 40
1.0
 40
1.0
 10
471.8500443380722
 20
609.3490858180221
 30
0.0
 10
470.9785216406173
 20
607.8395642260807
 30
0.0
 10
469.5065256232307
 20
605.289992335428
 30
0.0
 10
467.9841844998313
 20
602.6532201632489
 30
0.0
 10
467.363173832928
 20
601.5775981361301
 30
0.0
  0
SPLINE
  5
2B4
330
1F
100
AcDbEntity
  8
0
  6
Continuous
 62
     7
370
    25
100
AcDbSpline
210
0.0
220
0.0
230
1.0
 70
    24
 71
     3
 72
     9
 73
     5
 74
     0
 42
0.00000001
 43
0.00000001
 40
0.0
 40
0.0
 40
0.0
 40
0.0
 40
0.6162682864357912
 40
1.0
 40
1.0
 40
1.0
 40
1.0
 10
491.9500443380722
 20
609.3490858180221
 30
0.0
 10
490.2074798344147
 20
609.3490858180221
 30
0.0
 10
487.379872861913
 20
609.3490858180221
 30
0.0
 10
484.4555295825226
 20
609.3490858180221
 30
0.0
 10
483.3333663248721
 20
609.3490858180221
 30
0.0
  0
SPLINE
  5
2B5
330
1F
100
AcDbEntity
  8
0
  6
Continuous
 62
     7
370
    25
100
AcDbSpline
210
0.0
220
0.0
230
1.0
 70
    24
 71
     3
 72
     9
 73
     5
 74
     0
 42
0.00000001
 43
0.00000001
 40
0.0
 40
0.0
 40
0.0
 40
0.0
 40
0.4630847895199843
 40
1.0
 40
1.0
 40
1.0
 40
1.0
 10
480.616931295279
 20
609.3490858180221
 30
0.0
 10
479.2413037857423
 20
609.3490858180221
 30
0.0
 10
476.2707300578456
 20
609.3490858180221
 30
0.0
 10
473.3943932959804
 20
609.3490858180221
 30
0.0
 10
471.8500443380722
 20
609.3490858180221
 30
0.0
  0
SPLINE
  5
2B6
330
1F
100
AcDbEntity
  8
0
  6
Continuous
 62
     7
370
    25
100
AcDbSpline
210
0.0
220
0.0
230
1.0
 70
    24
 71
     3
 72
     9
 73
     5
 74
     0
 42
0.00000001
 43
0.00000001
 40
0.0
 40
0.0
 40
0.0
 40
0.0
 40
0.5286328760408042
 40
1.0
 40
1.0
 40
1.0
 40
1.0
 10
494.6807983225578
 20
604.6192811739219
 30
0.0
 10
494.1923185756374
 20
605.4653529140563
 30
0.0
 10
493.2682751249558
 20
607.065843119038
 30
0.0
 10
492.3723527100683
 20
608.617626261263
 30
0.0
 10
491.9500443380722
 20
609.3490858180221
 30
0.0
  0
SPLINE
  5
2B7
330
1F
100
AcDbEntity
  8
0
  6
Continuous
 62
     7
370
    25
100
AcDbSpline
210
0.0
220
0.0
230
1.0
 70
    24
 71
     3
 72
     9
 73
     5
 74
     0
 42
0.00000001
 43
0.00000001
 40
0.0
 40
0.0
 40
0.0
 40
0.0
 40
0.9651475940341748
 40
1.0
 40
1.0
 40
1.0
 40
1.0
 10
491.9500443380722
 20
574.5348645858877
 30
0.0
 10
492.8178601531226
 20
576.0379656691665
 30
0.0
 10
493.7170136301809
 20
577.5953451752338
 30
0.0
 10
494.6470512530688
 20
579.2062175910262
 30
0.0
 10
494.6794653018652
 20
579.2623603704205
 30
0.0
  0
SPLINE
  5
2B8
330
1F
100
AcDbEntity
  8
0
  6
Continuous
 62
     7
370
    25
100
AcDbSpline
210
0.0
220
0.0
230
1.0
 70
    24
 71
     3
 72
     9
 73
     5
 74
     0
 42
0.00000001
 43
0.00000001
 40
0.0
 40
0.0
 40
0.0
 40
0.0
 40
0.6380134089095435
 40
1.0
 40
1.0
 40
1.0
 40
1.0
 10
471.8500443380722
 20
574.5348645858877
 30
0.0
 10
473.592176726149
 20
574.5348645858877
 30
0.0
 10
476.3227343660807
 20
574.5348645858877
 30
0.0
 10
479.1467312931026
 20
574.5348645858877
 30
0.0
 10
480.1689803139652
 20
574.5348645858877
 30
0.0
  0
SPLINE
  5
2B9
330
1F
100
AcDbEntity
  8
0
  6
Continuous
 62
     7
370
    25
100
AcDbSpline
210
0.0
220
0.0
230
1.0
 70
    24
 71
     3
 72
     9
 73
     5
 74
     0
 42
0.00000001
 43
0.00000001
 40
0.0
 40
0.0
 40
0.0
 40
0.0
 40
0.4787933681683263
 40
1.0
 40
1.0
 40
1.0
 40
1.0
 10
482.9158834306679
 20
574.5348645858877
 30
0.0
 10
484.3812840517951
 20
574.5348645858877
 30
0.0
 10
487.4418958282974
 20
574.5348645858877
 30
0.0
 10
490.4054304431489
 20
574.5348645858877
 30
0.0
 10
491.9500443380722
 20
574.5348645858877
 30
0.0
  0
ARC
  5
2BA
330
1F
100
AcDbEntity
  8
0
  6
Continuous
 62
     7
370
    25
100
AcDbCircle
 10
685.1000443381
 20
591.941975202
 30
0.0
 40
25.80000000000008
100
AcDbArc
 50
207.7177476896
 51
270.0
  0
ARC
  5
2BB
330
1F
100
AcDbEntity
  8
0
  6
Continuous
 62
     7
370
    25
100
AcDbCircle
 10
685.1000443381
 20
591.941975202
 30
0.0
 40
25.80000000000007
100
AcDbArc
 50
12.355358281
 51
152.2822523104
  0
ARC
  5
2BC
330
1F
100
AcDbEntity
  8
0
  6
Continuous
 62
     7
370
    25
100
AcDbCircle
 10
685.1000443381
 20
591.941975202
 30
0.0
 40
25.79999999999995
100
AcDbArc
 50
270.0
 51
348.632283567
  0
ARC
  5
2BD
330
1F
100
AcDbEntity
  8
0
  6
Continuous
 62
     7
370
    25
100
AcDbCircle
 10
481.9000443381
 20
591.941975202
 30
0.0
 40
25.79999999999995
100
AcDbArc
 50
27.7177476896
 51
90.0
  0
ARC
  5
2BE
330
1F
100
AcDbEntity
  8
0
  6
Continuous
 62
     7
370
    25
100
AcDbCircle
 10
481.9000443381
 20
591.941975202
 30
0.0
 40
25.80000000000001
100
AcDbArc
 50
191.8273896223
 51
332.2822523104
  0
ARC
  5
2BF
330
1F
100
AcDbEntity
  8
0
  6
Continuous
 62
     7
370
    25
100
AcDbCircle
 10
481.9000443381
 20
591.941975202
 30
0.0
 40
25.80000000000005
100
AcDbArc
 50
90.0
 51
168.1084633881
  0
SPLINE
  5
2C0
330
1F
100
AcDbEntity
  8
0
  6
Continuous
 62
     8
370
    25
100
AcDbSpline
210
0.0
220
0.0
230
1.0
 70
     8
 71
     3
 72
    16
 73
    12
 74
     0
 42
0.00000001
 43
0.00000001
 40
0.0
 40
0.0
 40
0.0
 40
0.0
 40
0.0961490818557367
 40
0.1898118314713863
 40
0.2837145723291145
 40
0.2938991301868718
 40
0.4289456490880268
 40
0.5643578936429551
 40
0.7523444602197986
 40
0.9406047997644947
 40
1.0
 40
1.0
 40
1.0
 40
1.0
 10
561.719712367207
 20
591.9419752019548
 30
0.0
 10
561.7541365078459
 20
592.4725417162921
 30
0.0
 10
561.8220946105691
 20
593.5199547530055
 30
0.0
 10
562.3349814715856
 20
594.9848244702613
 30
0.0
 10
562.8343810820835
 20
595.9087769191582
 30
0.0
 10
563.5237379610063
 20
596.9517295307205
 30
0.0
 10
564.4566814360394
 20
598.0645846127372
 30
0.0
 10
566.2031495908057
 20
599.5727042226487
 30
0.0
 10
568.345753186777
 20
600.8893882865805
 30
0.0
 10
570.2512833634029
 20
601.8384021950557
 30
0.0
 10
571.3917745862293
 20
602.152697650098
 30
0.0
 10
571.6652984678543
 20
602.2280750937115
 30
0.0
  0
SPLINE
  5
2C1
330
1F
100
AcDbEntity
  8
0
  6
Continuous
 62
     8
370
    25
100
AcDbSpline
210
0.0
220
0.0
230
1.0
 70
     8
 71
     3
 72
    21
 73
    17
 74
     0
 42
0.00000001
 43
0.00000001
 40
0.0
 40
0.0
 40
0.0
 40
0.0
 40
0.0663563158339427
 40
0.1658649658082602
 40
0.265207497561921
 40
0.3310728964868671
 40
0.3967595905559012
 40
0.481652255226674
 40
0.542255432907143
 40
0.5653486080949367
 40
0.6354345020703395
 40
0.6509793826393807
 40
0.7070400396849487
 40
0.7632636108295996
 40
0.8866965935532711
 40
1.0
 40
1.0
 40
1.0
 40
1.0
 10
592.7701664990265
 20
602.9590113886001
 30
0.0
 10
593.4446063745343
 20
602.8140498898865
 30
0.0
 10
595.1304435926638
 20
602.4517025575267
 30
0.0
 10
597.7286575444027
 20
601.3829354506819
 30
0.0
 10
600.2005030975723
 20
599.9992507665006
 30
0.0
 10
602.1774432160262
 20
598.4259062513413
 30
0.0
 10
603.8087519141806
 20
596.6309499237515
 30
0.0
 10
605.0019217079083
 20
594.4320574284448
 30
0.0
 10
605.3234060275508
 20
592.3925100611847
 30
0.0
 10
605.21519055186
 20
590.5434866718275
 30
0.0
 10
604.8304283989517
 20
589.274132252534
 30
0.0
 10
604.0851968381913
 20
587.8081674708859
 30
0.0
 10
603.2485875579534
 20
586.6011854945352
 30
0.0
 10
601.4097837139275
 20
584.7323762558099
 30
0.0
 10
598.7686928390865
 20
582.9247901474702
 30
0.0
 10
596.4381763284786
 20
582.0396579491232
 30
0.0
 10
595.3227776339323
 20
581.616028554505
 30
0.0
  0
SPLINE
  5
2C2
330
1F
100
AcDbEntity
  8
0
  6
Continuous
 62
     8
370
    25
100
AcDbSpline
210
0.0
220
0.0
230
1.0
 70
     8
 71
     3
 72
    15
 73
    11
 74
     0
 42
0.00000001
 43
0.00000001
 40
0.0
 40
0.0
 40
0.0
 40
0.0
 40
0.1470288848989916
 40
0.3452979151469482
 40
0.5430476916550921
 40
0.6556896590239909
 40
0.7680052823731757
 40
0.844972886296423
 40
0.9217575037793772
 40
1.0
 40
1.0
 40
1.0
 40
1.0
 10
574.2340639107821
 20
580.9205321485102
 30
0.0
 10
573.4238329563323
 20
581.1061520531027
 30
0.0
 10
571.5210023693269
 20
581.5420811299614
 30
0.0
 10
568.6510698589816
 20
582.7840378050535
 30
0.0
 10
566.1183639785222
 20
584.3483488670884
 30
0.0
 10
564.2392561276924
 20
586.0445375547813
 30
0.0
 10
563.0795685941765
 20
587.5019196976604
 30
0.0
 10
562.2981292333786
 20
588.9877546200679
 30
0.0
 10
561.8153427461104
 20
590.4150754804127
 30
0.0
 10
561.751788382434
 20
591.429827709914
 30
0.0
 10
561.719712367207
 20
591.9419752019548
 30
0.0
  0
SPLINE
  5
2C3
330
1F
100
AcDbEntity
  8
0
  6
Continuous
 62
     8
370
    25
100
AcDbSpline
210
0.0
220
0.0
230
1.0
 70
     8
 71
     3
 72
    13
 73
     9
 74
     0
 42
0.00000001
 43
0.00000001
 40
0.0
 40
0.0
 40
0.0
 40
0.0
 40
0.0616988709538129
 40
0.2371847626742214
 40
0.2807307886799653
 40
0.487411842866282
 40
0.6949099454175248
 40
0.9999999999999999
 40
0.9999999999999999
 40
0.9999999999999999
 40
0.9999999999999999
 10
669.1186634552322
 20
579.9426452309314
 30
0.0
 10
669.1065563299217
 20
579.9484346438139
 30
0.0
 10
669.0600137336144
 20
579.9706904890077
 30
0.0
 10
668.6280048142607
 20
580.1799795113147
 30
0.0
 10
667.776479514818
 20
580.6263509701577
 30
0.0
 10
666.6445900317808
 20
581.2755726823405
 30
0.0
 10
664.6536778493362
 20
582.5915815333004
 30
0.0
 10
663.2952836947248
 20
583.9396256806601
 30
0.0
 10
662.486773897908
 20
584.7419752019548
 30
0.0
  0
SPLINE
  5
2C4
330
1F
100
AcDbEntity
  8
0
  6
Continuous
 62
     8
370
    25
100
AcDbSpline
210
0.0
220
0.0
230
1.0
 70
     8
 71
     3
 72
    13
 73
     9
 74
     0
 42
0.00000001
 43
0.00000001
 40
0.0
 40
0.0
 40
0.0
 40
0.0
 40
0.246873581239535
 40
0.4413811989636142
 40
0.6398169724544361
 40
0.7569724566612596
 40
0.8777345843649657
 40
1.0
 40
1.0
 40
1.0
 40
1.0
 10
662.486773897908
 20
599.1419752019549
 30
0.0
 10
663.1376057737795
 20
599.8025913162422
 30
0.0
 10
664.3012173366429
 20
600.9836959573903
 30
0.0
 10
666.0769677674446
 20
602.2484796587344
 30
0.0
 10
667.4161934051018
 20
603.0616096328523
 30
0.0
 10
668.3684493857351
 20
603.5718443139693
 30
0.0
 10
668.9928929390461
 20
603.8818010243043
 30
0.0
 10
669.0587585414643
 20
603.9127636675568
 30
0.0
 10
669.0918950540796
 20
603.9283407515136
 30
0.0
  0
SPLINE
  5
2C5
330
1F
100
AcDbEntity
  8
0
  6
Continuous
 62
     8
370
    25
100
AcDbSpline
210
0.0
220
0.0
230
1.0
 70
     8
 71
     3
 72
    14
 73
    10
 74
     0
 42
0.00000001
 43
0.00000001
 40
0.0
 40
0.0
 40
0.0
 40
0.0
 40
0.0338406719493978
 40
0.1227065900592135
 40
0.2392973242781097
 40
0.3605097605622855
 40
0.5545600826377888
 40
0.7532538867057824
 40
1.0
 40
1.0
 40
1.0
 40
1.0
 10
497.9320226165909
 20
603.9168904525496
 30
0.0
 10
497.9154747964927
 20
603.9248831721113
 30
0.0
 10
497.8554722474829
 20
603.9538648473037
 30
0.0
 10
498.1087087406863
 20
603.8322278278418
 30
0.0
 10
498.6091174668057
 20
603.5828247305819
 30
0.0
 10
499.5702278991897
 20
603.0700539400985
 30
0.0
 10
500.908874997098
 20
602.2573134162766
 30
0.0
 10
502.6882350545703
 20
600.9946216604411
 30
0.0
 10
503.8627218619889
 20
599.8023949340759
 30
0.0
 10
504.5133147782278
 20
599.1419752019646
 30
0.0
  0
SPLINE
  5
2C6
330
1F
100
AcDbEntity
  8
0
  6
Continuous
 62
     8
370
    25
100
AcDbSpline
210
0.0
220
0.0
230
1.0
 70
     8
 71
     3
 72
    13
 73
     9
 74
     0
 42
0.00000001
 43
0.00000001
 40
0.0
 40
0.0
 40
0.0
 40
0.0
 40
0.3086570593896741
 40
0.5142462440525061
 40
0.7190373955263313
 40
0.8855430685586471
 40
0.9382954799300373
 40
1.0
 40
1.0
 40
1.0
 40
1.0
 10
504.5133147782365
 20
584.7419752019548
 30
0.0
 10
503.6946488975681
 20
583.9307320893066
 30
0.0
 10
502.3306889897659
 20
582.5791390801664
 30
0.0
 10
500.341404335347
 20
581.2670063272647
 30
0.0
 10
498.916285709106
 20
580.451423009307
 30
0.0
 10
498.1659706692628
 20
580.0801922583906
 30
0.0
 10
497.9139488363736
 20
579.9581697795567
 30
0.0
 10
497.8928023377241
 20
579.9480758350649
 30
0.0
 10
497.8814021146541
 20
579.9426341200664
 30
0.0
  0
LWPOLYLINE
  5
2C7
330
1F
100
AcDbEntity
  8
0
  6
Continuous
 62
     8
370
    25
100
AcDbPolyline
 90
       16
 70
   128
 43
0.0
 10
575.6000443381
 20
283.6689871135
 10
575.6463544766
 20
283.9698155987
 10
576.0135842857
 20
284.5574061634
 10
576.7308726463
 20
285.1034552408
 10
577.7646799519
 20
285.5824301828
 10
579.0666665217
 20
285.9719346536
 10
580.5759529109
 20
286.2537558569
 10
582.2219665653
 20
286.4147161465
 10
583.9277417159
 20
286.4472891982
 10
585.6135182125
 20
286.3499519323
 10
587.2004710196
 20
286.1272557312
 10
588.6143959878
 20
285.7896136216
 10
589.7891795571
 20
285.3528133735
 10
590.6698901535
 20
284.8372792809
 10
591.2153467282
 20
284.2671171449
 10
591.4000443381
 20
283.6689871135
  0
LWPOLYLINE
  5
2C8
330
1F
100
AcDbEntity
  8
0
  6
Continuous
 62
     8
370
    25
100
AcDbPolyline
 90
       16
 70
   128
 43
0.0
 10
575.6000443381
 20
569.2689871135
 10
575.6463544766
 20
569.5698155987
 10
576.0135842857
 20
570.1574061634
 10
576.7308726463
 20
570.7034552408
 10
577.7646799519
 20
571.1824301828
 10
579.0666665217
 20
571.5719346536
 10
580.5759529109
 20
571.8537558569
 10
582.2219665653
 20
572.0147161465
 10
583.9277417159
 20
572.0472891982
 10
585.6135182125
 20
571.9499519323
 10
587.2004710196
 20
571.7272557312
 10
588.6143959878
 20
571.3896136216
 10
589.7891795571
 20
570.9528133735
 10
590.6698901535
 20
570.4372792809
 10
591.2153467282
 20
569.8671171449
 10
591.4000443381
 20
569.2689871135
  0
ARC
  5
2C9
330
1F
100
AcDbEntity
  8
0
  6
Continuous
 62
     8
370
    25
100
AcDbCircle
 10
583.5000443381
 20
236.341975202
 30
0.0
 40
8.410472292019648
100
AcDbArc
 50
159.9351921799
 51
270.0
  0
ARC
  5
2CA
330
1F
100
AcDbEntity
  8
0
  6
Continuous
 62
     8
370
    25
100
AcDbCircle
 10
583.5000443381
 20
236.341975202
 30
0.0
 40
8.410472292019648
100
AcDbArc
 50
270.0
 51
20.0648078201
  0
LINE
  5
2CB
330
1F
100
AcDbEntity
  8
0
  6
Continuous
 62
     8
370
    25
100
AcDbLine
 10
575.4408104907
 20
584.3676141749
 30
0.0
 11
575.6000443381
 21
584.2016783617
 31
0.0
  0
ARC
  5
2CC
330
1F
100
AcDbEntity
  8
0
  6
Continuous
 62
     8
370
    25
100
AcDbCircle
 10
583.5000443381
 20
591.941975202
 30
0.0
 40
11.05993649053892
100
AcDbArc
 50
315.5850271977
 51
223.2235523034
  0
ARC
  5
2CD
330
1F
100
AcDbEntity
  8
0
  6
Continuous
 62
     8
370
    25
100
AcDbCircle
 10
583.5000443381
 20
591.941975202
 30
0.0
 40
11.30993649053895
100
AcDbArc
 50
314.3068486059
 51
225.6931513941
  0
LINE
  5
2CE
330
1F
100
AcDbEntity
  8
0
  6
Continuous
 62
     8
370
    25
100
AcDbLine
 10
591.4000443381
 20
579.576238892
 30
0.0
 11
591.6573031967
 21
579.6829070109
 31
0.0
  0
ARC
  5
2CF
330
1F
100
AcDbEntity
  8
0
  6
Continuous
 62
     8
370
    25
100
AcDbCircle
 10
575.3425538312
 20
580.0269209766
 30
0.0
 40
0.352950226845143
100
AcDbArc
 50
279.538525686
 51
316.8476542185
  0
ARC
  5
2D0
330
1F
100
AcDbEntity
  8
0
  6
Continuous
 62
     8
370
    25
100
AcDbCircle
 10
583.5000443381
 20
591.941975202
 30
0.0
 40
9.375000000000025
100
AcDbArc
 50
327.4227936768
 51
212.5772063232
  0
ARC
  5
2D1
330
1F
100
AcDbEntity
  8
0
  6
Continuous
 62
     8
370
    25
100
AcDbCircle
 10
685.1000443381
 20
591.941975202
 30
0.0
 40
24.80000000000008
100
AcDbArc
 50
270.0
 51
347.7891131326
  0
ARC
  5
2D2
330
1F
100
AcDbEntity
  8
0
  6
Continuous
 62
     8
370
    25
100
AcDbCircle
 10
685.1000443381
 20
591.941975202
 30
0.0
 40
24.80000000000002
100
AcDbArc
 50
13.4605379577
 51
151.0614722598
  0
ARC
  5
2D3
330
1F
100
AcDbEntity
  8
0
  6
Continuous
 62
     8
370
    25
100
AcDbCircle
 10
685.1000443381
 20
591.941975202
 30
0.0
 40
24.80000000000007
100
AcDbArc
 50
208.9385277402
 51
270.0
  0
ARC
  5
2D4
330
1F
100
AcDbEntity
  8
0
  6
Continuous
 62
     8
370
    25
100
AcDbCircle
 10
481.9000443381
 20
591.941975202
 30
0.0
 40
24.80000000000003
100
AcDbArc
 50
90.0
 51
167.1597533419
  0
ARC
  5
2D5
330
1F
100
AcDbEntity
  8
0
  6
Continuous
 62
     8
370
    25
100
AcDbCircle
 10
481.9000443381
 20
591.941975202
 30
0.0
 40
24.80000000000007
100
AcDbArc
 50
192.8474248147
 51
331.0614722598
  0
ARC
  5
2D6
330
1F
100
AcDbEntity
  8
0
  6
Continuous
 62
     8
370
    25
100
AcDbCircle
 10
481.9000443381
 20
591.941975202
 30
0.0
 40
24.80000000000001
100
AcDbArc
 50
28.9385277402
 51
90.0
  0
ENDSEC
  0
SECTION
  2
OBJECTS
  0
DICTIONARY
  5
C
330
0
100
AcDbDictionary
281
     1
  3
ACAD_GROUP
350
D
  3
ACAD_LAYOUT
350
1A
  3
ACAD_MLINESTYLE
350
17
  3
ACAD_PLOTSETTINGS
350
19
  3
ACAD_PLOTSTYLENAME
350
E
  3
ACAD_SCALELIST
350
47
  3
DWGPROPS
350
2D7
  0
DICTIONARY
  5
D
102
{ACAD_REACTORS
330
C
102
}
330
C
100
AcDbDictionary
281
     1
  0
DICTIONARY
  5
1A
102
{ACAD_REACTORS
330
C
102
}
330
C
100
AcDbDictionary
281
     1
  3
Layout1
350
1E
  3
Layout2
350
26
  3
Model
350
22
  0
DICTIONARY
  5
17
102
{ACAD_REACTORS
330
C
102
}
330
C
100
AcDbDictionary
281
     1
  3
Standard
350
18
  0
DICTIONARY
  5
19
102
{ACAD_REACTORS
330
C
102
}
330
C
100
AcDbDictionary
281
     1
  0
ACDBDICTIONARYWDFLT
  5
E
102
{ACAD_REACTORS
330
C
102
}
330
C
100
AcDbDictionary
281
     1
  3
Normal
350
F
100
AcDbDictionaryWithDefault
340
F
  0
DICTIONARY
  5
47
102
{ACAD_REACTORS
330
C
102
}
330
C
100
AcDbDictionary
281
     1
  3
A0
350
48
  3
A1
350
49
  3
A2
350
4A
  3
A3
350
4B
  3
A4
350
4C
  3
A5
350
4D
  3
A6
350
4E
  3
A7
350
4F
  3
A8
350
50
  3
A9
350
51
  3
B0
350
52
  3
B1
350
53
  3
B2
350
54
  3
B3
350
55
  3
B4
350
56
  3
B5
350
57
  3
B6
350
58
  3
B7
350
59
  3
B8
350
5A
  3
B9
350
5B
  3
C0
350
5C
  3
C1
350
5D
  3
C2
350
5E
  3
C3
350
5F
  3
C4
350
60
  3
C5
350
61
  3
C6
350
62
  3
C7
350
63
  3
C8
350
64
  3
C9
350
65
  3
D0
350
66
  3
D1
350
67
  3
D2
350
68
  0
XRECORD
  5
2D7
102
{ACAD_REACTORS
330
C
102
}
330
C
100
AcDbXrecord
280
     1
  1
DWGPROPS COOKIE
  2

  3

  4

  6

  7

  8
designer5
  9

300
=
301
=
302
=
303
=
304
=
305
=
306
=
307
=
308
=
309
=
 40
0.0
 41
2460383.226978449
 42
2460383.226979028
  1

 90
        0
  0
LAYOUT
  5
1E
102
{ACAD_REACTORS
330
1A
102
}
330
1A
100
AcDbPlotSettings
  1

  2
none_device
  4

  6

 40
0.0
 41
0.0
 42
0.0
 43
0.0
 44
0.0
 45
0.0
 46
0.0
 47
0.0
 48
0.0
 49
0.0
140
0.0
141
0.0
142
1.0
143
1.0
 70
   688
 72
     1
 73
     0
 74
     5
  7

 75
    16
147
1.0
148
0.0
149
0.0
100
AcDbLayout
  1
Layout1
 70
     1
 71
     1
 10
0.0
 20
0.0
 11
420.0
 21
297.0
 12
0.0
 22
0.0
 32
0.0
 14
1.0000000000E+20
 24
1.0000000000E+20
 34
1.0000000000E+20
 15
-1.0000000000E+20
 25
-1.0000000000E+20
 35
-1.0000000000E+20
146
0.0
 13
0.0
 23
0.0
 33
0.0
 16
1.0
 26
0.0
 36
0.0
 17
0.0
 27
1.0
 37
0.0
 76
     0
330
1B
  0
LAYOUT
  5
26
102
{ACAD_REACTORS
330
1A
102
}
330
1A
100
AcDbPlotSettings
  1

  2
none_device
  4

  6

 40
0.0
 41
0.0
 42
0.0
 43
0.0
 44
0.0
 45
0.0
 46
0.0
 47
0.0
 48
0.0
 49
0.0
140
0.0
141
0.0
142
1.0
143
1.0
 70
   688
 72
     1
 73
     0
 74
     5
  7

 75
    16
147
1.0
148
0.0
149
0.0
100
AcDbLayout
  1
Layout2
 70
     1
 71
     2
 10
0.0
 20
0.0
 11
0.0
 21
0.0
 12
0.0
 22
0.0
 32
0.0
 14
0.0
 24
0.0
 34
0.0
 15
0.0
 25
0.0
 35
0.0
146
0.0
 13
0.0
 23
0.0
 33
0.0
 16
1.0
 26
0.0
 36
0.0
 17
0.0
 27
1.0
 37
0.0
 76
     0
330
23
  0
LAYOUT
  5
22
102
{ACAD_REACTORS
330
1A
102
}
330
1A
100
AcDbPlotSettings
  1

  2
none_device
  4
Letter_(8.50_x_11.00_Inches)
  6

 40
6.35
 41
6.35
 42
6.35000508
 43
6.35000508
 44
215.9
 45
279.4
 46
0.0
 47
0.0
 48
0.0
 49
0.0
140
0.0
141
0.0
142
1.0
143
1.0
 70
  1712
 72
     1
 73
     0
 74
     0
  7

 75
     0
147
1.0
148
0.0
149
0.0
100
AcDbLayout
  1
Model
 70
     1
 71
     0
 10
0.0
 20
0.0
 11
1189.0
 21
841.0
 12
0.0
 22
0.0
 32
0.0
 14
0.0
 24
0.0
 34
0.0
 15
1189.0
 25
841.0
 35
0.0
146
0.0
 13
0.0
 23
0.0
 33
0.0
 16
1.0
 26
0.0
 36
0.0
 17
0.0
 27
1.0
 37
0.0
 76
     0
330
1F
331
29
  0
MLINESTYLE
  5
18
102
{ACAD_REACTORS
330
17
102
}
330
17
100
AcDbMlineStyle
  2
Standard
 70
     0
  3

 62
   256
 51
90.0
 52
90.0
 71
     2
 49
0.5
 62
   256
  6
BYLAYER
 49
-0.5
 62
   256
  6
BYLAYER
  0
ACDBPLACEHOLDER
  5
F
102
{ACAD_REACTORS
330
E
102
}
330
E
  0
SCALE
  5
48
102
{ACAD_REACTORS
330
47
102
}
330
47
100
AcDbScale
 70
     0
300
1:1
140
1.0
141
1.0
290
     1
  0
SCALE
  5
49
102
{ACAD_REACTORS
330
47
102
}
330
47
100
AcDbScale
 70
     0
300
1:2
140
1.0
141
2.0
290
     0
  0
SCALE
  5
4A
102
{ACAD_REACTORS
330
47
102
}
330
47
100
AcDbScale
 70
     0
300
1:4
140
1.0
141
4.0
290
     0
  0
SCALE
  5
4B
102
{ACAD_REACTORS
330
47
102
}
330
47
100
AcDbScale
 70
     0
300
1:5
140
1.0
141
5.0
290
     0
  0
SCALE
  5
4C
102
{ACAD_REACTORS
330
47
102
}
330
47
100
AcDbScale
 70
     0
300
1:8
140
1.0
141
8.0
290
     0
  0
SCALE
  5
4D
102
{ACAD_REACTORS
330
47
102
}
330
47
100
AcDbScale
 70
     0
300
1:10
140
1.0
141
10.0
290
     0
  0
SCALE
  5
4E
102
{ACAD_REACTORS
330
47
102
}
330
47
100
AcDbScale
 70
     0
300
1:16
140
1.0
141
16.0
290
     0
  0
SCALE
  5
4F
102
{ACAD_REACTORS
330
47
102
}
330
47
100
AcDbScale
 70
     0
300
1:20
140
1.0
141
20.0
290
     0
  0
SCALE
  5
50
102
{ACAD_REACTORS
330
47
102
}
330
47
100
AcDbScale
 70
     0
300
1:30
140
1.0
141
30.0
290
     0
  0
SCALE
  5
51
102
{ACAD_REACTORS
330
47
102
}
330
47
100
AcDbScale
 70
     0
300
1:40
140
1.0
141
40.0
290
     0
  0
SCALE
  5
52
102
{ACAD_REACTORS
330
47
102
}
330
47
100
AcDbScale
 70
     0
300
1:50
140
1.0
141
50.0
290
     0
  0
SCALE
  5
53
102
{ACAD_REACTORS
330
47
102
}
330
47
100
AcDbScale
 70
     0
300
1:100
140
1.0
141
100.0
290
     0
  0
SCALE
  5
54
102
{ACAD_REACTORS
330
47
102
}
330
47
100
AcDbScale
 70
     0
300
2:1
140
2.0
141
1.0
290
     0
  0
SCALE
  5
55
102
{ACAD_REACTORS
330
47
102
}
330
47
100
AcDbScale
 70
     0
300
4:1
140
4.0
141
1.0
290
     0
  0
SCALE
  5
56
102
{ACAD_REACTORS
330
47
102
}
330
47
100
AcDbScale
 70
     0
300
8:1
140
8.0
141
1.0
290
     0
  0
SCALE
  5
57
102
{ACAD_REACTORS
330
47
102
}
330
47
100
AcDbScale
 70
     0
300
10:1
140
10.0
141
1.0
290
     0
  0
SCALE
  5
58
102
{ACAD_REACTORS
330
47
102
}
330
47
100
AcDbScale
 70
     0
300
100:1
140
100.0
141
1.0
290
     0
  0
SCALE
  5
59
102
{ACAD_REACTORS
330
47
102
}
330
47
100
AcDbScale
 70
     0
300
1/128" = 1'-0"
140
0.0078125
141
12.0
290
     0
  0
SCALE
  5
5A
102
{ACAD_REACTORS
330
47
102
}
330
47
100
AcDbScale
 70
     0
300
1/64" = 1'-0"
140
0.015625
141
12.0
290
     0
  0
SCALE
  5
5B
102
{ACAD_REACTORS
330
47
102
}
330
47
100
AcDbScale
 70
     0
300
1/32" = 1'-0"
140
0.03125
141
12.0
290
     0
  0
SCALE
  5
5C
102
{ACAD_REACTORS
330
47
102
}
330
47
100
AcDbScale
 70
     0
300
1/16" = 1'-0"
140
0.0625
141
12.0
290
     0
  0
SCALE
  5
5D
102
{ACAD_REACTORS
330
47
102
}
330
47
100
AcDbScale
 70
     0
300
3/32" = 1'-0"
140
0.09375
141
12.0
290
     0
  0
SCALE
  5
5E
102
{ACAD_REACTORS
330
47
102
}
330
47
100
AcDbScale
 70
     0
300
1/8" = 1'-0"
140
0.125
141
12.0
290
     0
  0
SCALE
  5
5F
102
{ACAD_REACTORS
330
47
102
}
330
47
100
AcDbScale
 70
     0
300
3/16" = 1'-0"
140
0.1875
141
12.0
290
     0
  0
SCALE
  5
60
102
{ACAD_REACTORS
330
47
102
}
330
47
100
AcDbScale
 70
     0
300
1/4" = 1'-0"
140
0.25
141
12.0
290
     0
  0
SCALE
  5
61
102
{ACAD_REACTORS
330
47
102
}
330
47
100
AcDbScale
 70
     0
300
3/8" = 1'-0"
140
0.375
141
12.0
290
     0
  0
SCALE
  5
62
102
{ACAD_REACTORS
330
47
102
}
330
47
100
AcDbScale
 70
     0
300
1/2" = 1'-0"
140
0.5
141
12.0
290
     0
  0
SCALE
  5
63
102
{ACAD_REACTORS
330
47
102
}
330
47
100
AcDbScale
 70
     0
300
3/4" = 1'-0"
140
0.75
141
12.0
290
     0
  0
SCALE
  5
64
102
{ACAD_REACTORS
330
47
102
}
330
47
100
AcDbScale
 70
     0
300
1" = 1'-0"
140
1.0
141
12.0
290
     0
  0
SCALE
  5
65
102
{ACAD_REACTORS
330
47
102
}
330
47
100
AcDbScale
 70
     0
300
1-1/2" = 1'-0"
140
1.5
141
12.0
290
     0
  0
SCALE
  5
66
102
{ACAD_REACTORS
330
47
102
}
330
47
100
AcDbScale
 70
     0
300
3" = 1'-0"
140
3.0
141
12.0
290
     0
  0
SCALE
  5
67
102
{ACAD_REACTORS
330
47
102
}
330
47
100
AcDbScale
 70
     0
300
6" = 1'-0"
140
6.0
141
12.0
290
     0
  0
SCALE
  5
68
102
{ACAD_REACTORS
330
47
102
}
330
47
100
AcDbScale
 70
     0
300
1'-0" = 1'-0"
140
12.0
141
12.0
290
     0
  0
ENDSEC
  0
EOF
