  0
SECTION
  2
HEADER
  9
$ACADVER
  1
AC1015
  9
$ACADMAINTVER
 70
     6
  9
$DWGCODEPAGE
  3
ANSI_1252
  9
$INSBASE
 10
0.0
 20
0.0
 30
0.0
  9
$EXTMIN
 10
0.0
 20
0.0
 30
0.0
  9
$EXTMAX
 10
1189.0
 20
841.0
 30
0.0
  9
$LIMMIN
 10
0.0
 20
0.0
  9
$LIMMAX
 10
1189.0
 20
841.0
  9
$ORTHOMODE
 70
     0
  9
$REGENMODE
 70
     1
  9
$FILLMODE
 70
     1
  9
$QTEXTMODE
 70
     0
  9
$MIRRTEXT
 70
     1
  9
$LTSCALE
 40
1.0
  9
$ATTMODE
 70
     1
  9
$TEXTSIZE
 40
3.5
  9
$TRACEWID
 40
1.0
  9
$TEXTSTYLE
  7
Standard
  9
$CLAYER
  8
0
  9
$CELTYPE
  6
ByLayer
  9
$CECOLOR
 62
   256
  9
$CELTSCALE
 40
1.0
  9
$DISPSILH
 70
     0
  9
$DIMSCALE
 40
1.0
  9
$DIMASZ
 40
3.302
  9
$DIMEXO
 40
1.0
  9
$DIMDLI
 40
3.75
  9
$DIMRND
 40
0.0
  9
$DIMDLE
 40
0.0
  9
$DIMEXE
 40
1.0
  9
$DIMTP
 40
0.0
  9
$DIMTM
 40
0.0
  9
$DIMTXT
 40
3.5
  9
$DIMCEN
 40
2.5
  9
$DIMTSZ
 40
0.0
  9
$DIMTOL
 70
     0
  9
$DIMLIM
 70
     0
  9
$DIMTIH
 70
     1
  9
$DIMTOH
 70
     1
  9
$DIMSE1
 70
     0
  9
$DIMSE2
 70
     0
  9
$DIMTAD
 70
     1
  9
$DIMZIN
 70
     1
  9
$DIMBLK
  1

  9
$DIMASO
 70
     1
  9
$DIMSHO
 70
     1
  9
$DIMPOST
  1

  9
$DIMAPOST
  1

  9
$DIMALT
 70
     0
  9
$DIMALTD
 70
     3
  9
$DIMALTF
 40
0.0393700787
  9
$DIMLFAC
 40
2.0
  9
$DIMTOFL
 70
     1
  9
$DIMTVP
 40
0.0
  9
$DIMTIX
 70
     0
  9
$DIMSOXD
 70
     0
  9
$DIMSAH
 70
     0
  9
$DIMBLK1
  1

  9
$DIMBLK2
  1

  9
$DIMSTYLE
  2
ISO-25
  9
$DIMCLRD
 70
     0
  9
$DIMCLRE
 70
     0
  9
$DIMCLRT
 70
     0
  9
$DIMTFAC
 40
1.0
  9
$DIMGAP
 40
1.524
  9
$DIMJUST
 70
     0
  9
$DIMSD1
 70
     0
  9
$DIMSD2
 70
     0
  9
$DIMTOLJ
 70
     0
  9
$DIMTZIN
 70
     1
  9
$DIMALTZ
 70
     0
  9
$DIMALTTZ
 70
     0
  9
$DIMUPT
 70
     0
  9
$DIMDEC
 70
     2
  9
$DIMTDEC
 70
     2
  9
$DIMALTU
 70
     2
  9
$DIMALTTD
 70
     3
  9
$DIMTXSTY
  7
Standard
  9
$DIMAUNIT
 70
     0
  9
$DIMADEC
 70
     2
  9
$DIMALTRND
 40
0.0
  9
$DIMAZIN
 70
     0
  9
$DIMDSEP
 70
    44
  9
$DIMATFIT
 70
     3
  9
$DIMFRAC
 70
     0
  9
$DIMLDRBLK
  1

  9
$DIMLUNIT
 70
     2
  9
$DIMLWD
 70
    -2
  9
$DIMLWE
 70
    -2
  9
$DIMTMOVE
 70
     0
  9
$LUNITS
 70
     2
  9
$LUPREC
 70
     2
  9
$SKETCHINC
 40
1.0
  9
$FILLETRAD
 40
10.0
  9
$AUNITS
 70
     0
  9
$AUPREC
 70
     2
  9
$MENU
  1
.
  9
$ELEVATION
 40
0.0
  9
$PELEVATION
 40
0.0
  9
$THICKNESS
 40
0.0
  9
$LIMCHECK
 70
     0
  9
$CHAMFERA
 40
0.0
  9
$CHAMFERB
 40
0.0
  9
$CHAMFERC
 40
0.0
  9
$CHAMFERD
 40
0.0
  9
$SKPOLY
 70
     0
  9
$TDCREATE
 40
2460383.463180822
  9
$TDUCREATE
 40
2460383.234014155
  9
$TDUPDATE
 40
2460383.463181401
  9
$TDUUPDATE
 40
2460383.234014734
  9
$TDINDWG
 40
0.0000000116
  9
$TDUSRTIMER
 40
0.0000000116
  9
$USRTIMER
 70
     1
  9
$ANGBASE
 50
0.0
  9
$ANGDIR
 70
     0
  9
$PDMODE
 70
     0
  9
$PDSIZE
 40
-1.0
  9
$PLINEWID
 40
0.0
  9
$SPLFRAME
 70
     0
  9
$SPLINETYPE
 70
     6
  9
$SPLINESEGS
 70
     8
  9
$HANDSEED
  5
2EE
  9
$SURFTAB1
 70
     6
  9
$SURFTAB2
 70
     6
  9
$SURFTYPE
 70
     6
  9
$SURFU
 70
     6
  9
$SURFV
 70
     6
  9
$UCSBASE
  2

  9
$UCSNAME
  2

  9
$UCSORG
 10
0.0
 20
0.0
 30
0.0
  9
$UCSXDIR
 10
1.0
 20
0.0
 30
0.0
  9
$UCSYDIR
 10
0.0
 20
1.0
 30
0.0
  9
$UCSORTHOREF
  2

  9
$UCSORTHOVIEW
 70
     0
  9
$UCSORGTOP
 10
0.0
 20
0.0
 30
0.0
  9
$UCSORGBOTTOM
 10
0.0
 20
0.0
 30
0.0
  9
$UCSORGLEFT
 10
0.0
 20
0.0
 30
0.0
  9
$UCSORGRIGHT
 10
0.0
 20
0.0
 30
0.0
  9
$UCSORGFRONT
 10
0.0
 20
0.0
 30
0.0
  9
$UCSORGBACK
 10
0.0
 20
0.0
 30
0.0
  9
$PUCSBASE
  2

  9
$PUCSNAME
  2

  9
$PUCSORG
 10
0.0
 20
0.0
 30
0.0
  9
$PUCSXDIR
 10
1.0
 20
0.0
 30
0.0
  9
$PUCSYDIR
 10
0.0
 20
1.0
 30
0.0
  9
$PUCSORTHOREF
  2

  9
$PUCSORTHOVIEW
 70
     0
  9
$PUCSORGTOP
 10
0.0
 20
0.0
 30
0.0
  9
$PUCSORGBOTTOM
 10
0.0
 20
0.0
 30
0.0
  9
$PUCSORGLEFT
 10
0.0
 20
0.0
 30
0.0
  9
$PUCSORGRIGHT
 10
0.0
 20
0.0
 30
0.0
  9
$PUCSORGFRONT
 10
0.0
 20
0.0
 30
0.0
  9
$PUCSORGBACK
 10
0.0
 20
0.0
 30
0.0
  9
$USERI1
 70
     0
  9
$USERI2
 70
     0
  9
$USERI3
 70
     0
  9
$USERI4
 70
     0
  9
$USERI5
 70
     0
  9
$USERR1
 40
0.0
  9
$USERR2
 40
0.0
  9
$USERR3
 40
0.0
  9
$USERR4
 40
0.0
  9
$USERR5
 40
0.0
  9
$WORLDVIEW
 70
     1
  9
$SHADEDGE
 70
     3
  9
$SHADEDIF
 70
    70
  9
$TILEMODE
 70
     1
  9
$MAXACTVP
 70
    64
  9
$PINSBASE
 10
0.0
 20
0.0
 30
0.0
  9
$PLIMCHECK
 70
     0
  9
$PEXTMIN
 10
1.0000000000E+20
 20
1.0000000000E+20
 30
1.0000000000E+20
  9
$PEXTMAX
 10
-1.0000000000E+20
 20
-1.0000000000E+20
 30
-1.0000000000E+20
  9
$PLIMMIN
 10
0.0
 20
0.0
  9
$PLIMMAX
 10
420.0
 20
297.0
  9
$UNITMODE
 70
     0
  9
$VISRETAIN
 70
     1
  9
$PLINEGEN
 70
     0
  9
$PSLTSCALE
 70
     1
  9
$TREEDEPTH
 70
  3020
  9
$CMLSTYLE
  2
Standard
  9
$CMLJUST
 70
     0
  9
$CMLSCALE
 40
20.0
  9
$PROXYGRAPHICS
 70
     1
  9
$MEASUREMENT
 70
     1
  9
$CELWEIGHT
370
    -1
  9
$ENDCAPS
280
     0
  9
$JOINSTYLE
280
     0
  9
$LWDISPLAY
290
     1
  9
$INSUNITS
 70
     4
  9
$HYPERLINKBASE
  1

  9
$STYLESHEET
  1

  9
$XEDIT
290
     1
  9
$CEPSNTYPE
380
     0
  9
$PSTYLEMODE
290
     1
  9
$FINGERPRINTGUID
  2
{de130d0c-b24f-4b48-9f38-e50a2dc113c7}
  9
$VERSIONGUID
  2
{FAEB1C32-E019-11D5-929B-00C0DF256EC4}
  9
$EXTNAMES
290
     1
  9
$PSVPSCALE
 40
0.0
  9
$OLESTARTUP
290
     0
  0
ENDSEC
  0
SECTION
  2
CLASSES
  0
CLASS
  1
ACDBDICTIONARYWDFLT
  2
AcDbDictionaryWithDefault
  3
ObjectDBX Classes
 90
        0
280
     0
281
     0
  0
CLASS
  1
VISUALSTYLE
  2
AcDbVisualStyle
  3
ObjectDBX Classes
 90
     4095
280
     0
281
     0
  0
CLASS
  1
MATERIAL
  2
AcDbMaterial
  3
ObjectDBX Classes
 90
     1153
280
     0
281
     0
  0
CLASS
  1
SCALE
  2
AcDbScale
  3
ObjectDBX Classes
 90
     1153
280
     0
281
     0
  0
CLASS
  1
TABLESTYLE
  2
AcDbTableStyle
  3
ObjectDBX Classes
 90
     4095
280
     0
281
     0
  0
CLASS
  1
MLEADERSTYLE
  2
AcDbMLeaderStyle
  3
ACDB_MLEADERSTYLE_CLASS
 90
     4095
280
     0
281
     0
  0
CLASS
  1
SUN
  2
AcDbSun
  3
SCENEOE
 90
     1153
280
     0
281
     0
  0
CLASS
  1
ACDBPLACEHOLDER
  2
AcDbPlaceHolder
  3
ObjectDBX Classes
 90
        0
280
     0
281
     0
  0
CLASS
  1
LAYOUT
  2
AcDbLayout
  3
ObjectDBX Classes
 90
        0
280
     0
281
     0
  0
ENDSEC
  0
SECTION
  2
TABLES
  0
TABLE
  2
VPORT
  5
8
330
0
100
AcDbSymbolTable
 70
     1
  0
VPORT
  5
29
330
8
100
AcDbSymbolTableRecord
100
AcDbViewportTableRecord
  2
*Active
 70
     0
 10
0.0
 20
0.0
 11
1.0
 21
1.0
 12
594.5
 22
420.5
 13
0.0
 23
0.0
 14
10.0
 24
10.0
 15
10.0
 25
10.0
 16
0.0
 26
0.0
 36
1.0
 17
0.0
 27
0.0
 37
0.0
 40
841.0
 41
1.4137931034
 42
50.0
 43
0.0
 44
0.0
 50
0.0
 51
0.0
 71
     0
 72
  2000
 73
     1
 74
     3
 75
     0
 76
     0
 77
     0
 78
     0
281
     0
 65
     1
110
0.0
120
0.0
130
0.0
111
1.0
121
0.0
131
0.0
112
0.0
122
1.0
132
0.0
 79
     0
146
0.0
  0
ENDTAB
  0
TABLE
  2
LTYPE
  5
5
330
0
100
AcDbSymbolTable
 70
     6
  0
LTYPE
  5
14
330
5
100
AcDbSymbolTableRecord
100
AcDbLinetypeTableRecord
  2
ByBlock
 70
     0
  3

 72
    65
 73
     0
 40
0.0
  0
LTYPE
  5
15
330
5
100
AcDbSymbolTableRecord
100
AcDbLinetypeTableRecord
  2
ByLayer
 70
     0
  3

 72
    65
 73
     0
 40
0.0
  0
LTYPE
  5
16
330
5
100
AcDbSymbolTableRecord
100
AcDbLinetypeTableRecord
  2
Continuous
 70
     0
  3
Solid line
 72
    65
 73
     0
 40
0.0
  0
LTYPE
  5
6E
330
5
100
AcDbSymbolTableRecord
100
AcDbLinetypeTableRecord
  2
HIDDEN
 70
     0
  3
Hidden __ __ __ __ __ __ __ __ __ __ __ __ __ __
 72
    65
 73
     2
 40
1.905
 49
1.27
 74
     0
 49
-0.635
 74
     0
  0
LTYPE
  5
6F
330
5
100
AcDbSymbolTableRecord
100
AcDbLinetypeTableRecord
  2
PHANTOM
 70
     0
  3
Phantom ______  __  __  ______  __  __  ______
 72
    65
 73
     6
 40
12.7
 49
6.35
 74
     0
 49
-1.27
 74
     0
 49
1.27
 74
     0
 49
-1.27
 74
     0
 49
1.27
 74
     0
 49
-1.27
 74
     0
  0
LTYPE
  5
70
330
5
100
AcDbSymbolTableRecord
100
AcDbLinetypeTableRecord
  2
CENTER
 70
     0
  3
Center ____ _ ____ _ ____ _ ____ _ ____ _ ____
 72
    65
 73
     4
 40
10.16
 49
6.35
 74
     0
 49
-1.27
 74
     0
 49
1.27
 74
     0
 49
-1.27
 74
     0
  0
LTYPE
  5
71
330
5
100
AcDbSymbolTableRecord
100
AcDbLinetypeTableRecord
  2
CENTERX2
 70
     0
  3
Center (2x) ________  __  ________  __  _____
 72
    65
 73
     4
 40
20.32
 49
12.7
 74
     0
 49
-2.54
 74
     0
 49
2.54
 74
     0
 49
-2.54
 74
     0
  0
LTYPE
  5
72
330
5
100
AcDbSymbolTableRecord
100
AcDbLinetypeTableRecord
  2
DOT2
 70
     0
  3
Dot (.5x) ........................................
 72
    65
 73
     2
 40
0.635
 49
0.0
 74
     0
 49
-0.635
 74
     0
  0
ENDTAB
  0
TABLE
  2
LAYER
  5
2
330
0
100
AcDbSymbolTable
 70
     1
  0
LAYER
  5
10
330
2
100
AcDbSymbolTableRecord
100
AcDbLayerTableRecord
  2
0
 70
     0
 62
     7
  6
Continuous
370
    -3
390
F
  0
ENDTAB
  0
TABLE
  2
STYLE
  5
3
330
0
100
AcDbSymbolTable
 70
     1
  0
STYLE
  5
11
330
3
100
AcDbSymbolTableRecord
100
AcDbTextStyleTableRecord
  2
Standard
 70
     0
 40
0.0
 41
1.0
 50
0.0
 71
     0
 42
3.5
  3
txt
  4

  0
ENDTAB
  0
TABLE
  2
VIEW
  5
6
330
0
100
AcDbSymbolTable
 70
     0
  0
ENDTAB
  0
TABLE
  2
UCS
  5
7
330
0
100
AcDbSymbolTable
 70
     0
  0
ENDTAB
  0
TABLE
  2
APPID
  5
9
330
0
100
AcDbSymbolTable
 70
     1
  0
APPID
  5
12
330
9
100
AcDbSymbolTableRecord
100
AcDbRegAppTableRecord
  2
ACAD
 70
     0
  0
ENDTAB
  0
TABLE
  2
DIMSTYLE
  5
A
330
0
100
AcDbSymbolTable
 70
     1
100
AcDbDimStyleTable
  0
DIMSTYLE
105
27
330
A
100
AcDbSymbolTableRecord
100
AcDbDimStyleTableRecord
  2
ISO-25
 70
     0
 41
2.5
 42
0.625
 43
3.75
 44
1.25
 73
     0
 74
     0
 77
     1
 78
     8
140
2.5
141
2.5
143
0.0393700787
147
0.625
171
     3
172
     1
178
     0
271
     2
272
     2
274
     3
278
    44
283
     0
284
     8
340
11
  0
ENDTAB
  0
TABLE
  2
BLOCK_RECORD
  5
1
330
0
100
AcDbSymbolTable
 70
     1
  0
BLOCK_RECORD
  5
1F
330
1
100
AcDbSymbolTableRecord
100
AcDbBlockTableRecord
  2
*Model_Space
340
22
  0
BLOCK_RECORD
  5
1B
330
1
100
AcDbSymbolTableRecord
100
AcDbBlockTableRecord
  2
*Paper_Space
340
1E
  0
BLOCK_RECORD
  5
23
330
1
100
AcDbSymbolTableRecord
100
AcDbBlockTableRecord
  2
*Paper_Space0
340
26
  0
ENDTAB
  0
ENDSEC
  0
SECTION
  2
BLOCKS
  0
BLOCK
  5
20
330
1F
100
AcDbEntity
  8
0
100
AcDbBlockBegin
  2
*Model_Space
 70
     0
 10
0.0
 20
0.0
 30
0.0
  3
*Model_Space
  1

  0
ENDBLK
  5
21
330
1F
100
AcDbEntity
  8
0
100
AcDbBlockEnd
  0
BLOCK
  5
1C
330
1B
100
AcDbEntity
 67
     1
  8
0
100
AcDbBlockBegin
  2
*Paper_Space
 70
     0
 10
0.0
 20
0.0
 30
0.0
  3
*Paper_Space
  1

  0
ENDBLK
  5
1D
330
1B
100
AcDbEntity
 67
     1
  8
0
100
AcDbBlockEnd
  0
BLOCK
  5
24
330
23
100
AcDbEntity
  8
0
100
AcDbBlockBegin
  2
*Paper_Space0
 70
     0
 10
0.0
 20
0.0
 30
0.0
  3
*Paper_Space0
  1

  0
ENDBLK
  5
25
330
23
100
AcDbEntity
  8
0
100
AcDbBlockEnd
  0
ENDSEC
  0
SECTION
  2
ENTITIES
  0
LINE
  5
73
330
1F
100
AcDbEntity
  8
0
  6
Continuous
 62
     7
370
    25
100
AcDbLine
 10
627.2607021634
 20
439.1760422485
 30
0.0
 11
627.2607021634
 21
524.4395604719
 31
0.0
  0
LINE
  5
74
330
1F
100
AcDbEntity
  8
0
  6
Continuous
 62
     7
370
    25
100
AcDbLine
 10
611.4607021634
 20
524.4395604719
 30
0.0
 11
611.4607021634
 21
439.1760422485
 31
0.0
  0
LINE
  5
75
330
1F
100
AcDbEntity
  8
0
  6
Continuous
 62
     7
370
    25
100
AcDbLine
 10
611.4607021634
 20
439.1760422485
 30
0.0
 11
611.4607021634
 21
439.0023940709
 31
0.0
  0
LINE
  5
76
330
1F
100
AcDbEntity
  8
0
  6
Continuous
 62
     7
370
    25
100
AcDbLine
 10
627.2607021634
 20
439.0023940709
 30
0.0
 11
627.2607021634
 21
439.1760422485
 31
0.0
  0
SPLINE
  5
77
330
1F
100
AcDbEntity
  8
0
  6
Continuous
 62
     7
370
    25
100
AcDbSpline
210
0.0
220
0.0
230
1.0
 70
     8
 71
     3
 72
    15
 73
    11
 74
     0
 42
0.00000001
 43
0.00000001
 40
0.0
 40
0.0
 40
0.0
 40
0.0
 40
0.0260801594565096
 40
0.06512974948485
 40
0.1095924737615933
 40
0.2375956047357418
 40
0.4321609938227905
 40
0.6069064997676854
 40
0.8773482106615933
 40
1.0
 40
1.0
 40
1.0
 40
1.0
 10
709.709729200927
 20
537.9881384879336
 30
0.0
 10
709.6996455058479
 20
537.9806481024367
 30
0.0
 10
709.6744635841086
 20
537.9619424295757
 30
0.0
 10
709.5794498809399
 20
537.8935031179792
 30
0.0
 10
709.3090262051498
 20
537.7071919422815
 30
0.0
 10
708.7410701559464
 20
537.360488541534
 30
0.0
 10
707.9476104992817
 20
536.9878370728311
 30
0.0
 10
706.865996297788
 20
536.6388338391396
 30
0.0
 10
705.8683745594643
 20
536.442869289129
 30
0.0
 10
705.1708663392345
 20
536.4594163084734
 30
0.0
 10
704.9532320327938
 20
536.4645792570584
 30
0.0
  0
SPLINE
  5
78
330
1F
100
AcDbEntity
  8
0
  6
Continuous
 62
     7
370
    25
100
AcDbSpline
210
0.0
220
0.0
230
1.0
 70
     8
 71
     3
 72
    14
 73
    10
 74
     0
 42
0.00000001
 43
0.00000001
 40
0.0
 40
0.0
 40
0.0
 40
0.0
 40
0.0492438856782737
 40
0.1271539172169072
 40
0.2398246552776901
 40
0.4709620214027307
 40
0.6903819266224078
 40
0.9431023585479386
 40
1.0
 40
1.0
 40
1.0
 40
1.0
 10
529.000221268824
 20
510.877790805272
 30
0.0
 10
529.0435347974401
 20
510.9096813856842
 30
0.0
 10
529.1553757855374
 20
510.9920268823049
 30
0.0
 10
529.493732195908
 20
511.2215315577292
 30
0.0
 10
530.11503642548
 20
511.5871008155652
 30
0.0
 10
531.0145061596368
 20
511.9934324300476
 30
0.0
 10
532.1928044734918
 20
512.3135412342403
 30
0.0
 10
533.1105791330021
 20
512.4578540394984
 30
0.0
 10
533.6481338274313
 20
512.4318728624115
 30
0.0
 10
533.7469187398584
 20
512.4270983746619
 30
0.0
  0
SPLINE
  5
79
330
1F
100
AcDbEntity
  8
0
  6
Continuous
 62
     7
370
    25
100
AcDbSpline
210
0.0
220
0.0
230
1.0
 70
     8
 71
     3
 72
    15
 73
    11
 74
     0
 42
0.00000001
 43
0.00000001
 40
0.0
 40
0.0
 40
0.0
 40
0.0
 40
0.178812322209292
 40
0.3658491308755861
 40
0.5362911907557405
 40
0.6872870855765787
 40
0.8139034432046832
 40
0.9060341891746259
 40
0.9671262083018258
 40
1.0
 40
1.0
 40
1.0
 40
1.0
 10
704.9733995255423
 20
512.4364169243632
 30
0.0
 10
705.2847340416254
 20
512.4286360376104
 30
0.0
 10
705.9217229287071
 20
512.4127163816228
 30
0.0
 10
706.8417915898691
 20
512.2379542756905
 30
0.0
 10
707.6896147483301
 20
511.9824391311581
 30
0.0
 10
708.4077379830377
 20
511.6784816722579
 30
0.0
 10
708.9744607119698
 20
511.3759032363317
 30
0.0
 10
709.377962693393
 20
511.1220215349882
 30
0.0
 10
709.6197524353224
 20
510.9528592254028
 30
0.0
 10
709.6947808898044
 20
510.8972730187097
 30
0.0
 10
709.7210294770556
 20
510.8778262713867
 30
0.0
  0
SPLINE
  5
7A
330
1F
100
AcDbEntity
  8
0
  6
Continuous
 62
     7
370
    25
100
AcDbSpline
210
0.0
220
0.0
230
1.0
 70
     8
 71
     3
 72
    17
 73
    13
 74
     0
 42
0.00000001
 43
0.00000001
 40
0.0
 40
0.0
 40
0.0
 40
0.0
 40
0.0534542798785338
 40
0.2430981363879533
 40
0.4174225707846068
 40
0.5741889124090581
 40
0.7102328122330913
 40
0.8205317754329463
 40
0.8952857695935579
 40
0.9381046807892487
 40
0.9687168941641594
 40
1.0
 40
1.0
 40
1.0
 40
1.0
 10
533.7915224954553
 20
536.4538112983262
 30
0.0
 10
533.6966248960811
 20
536.4489376598667
 30
0.0
 10
533.2650517908409
 20
536.426773439721
 30
0.0
 10
532.5241109133358
 20
536.5187326651894
 30
0.0
 10
531.6181852735591
 20
536.7081165405119
 30
0.0
 10
530.8303032317978
 20
536.9745549926223
 30
0.0
 10
530.1758606581493
 20
537.2679960047861
 30
0.0
 10
529.6782509210686
 20
537.5422114961098
 30
0.0
 10
529.3383966169944
 20
537.7581058042288
 30
0.0
 10
529.1497975748
 20
537.8881520426911
 30
0.0
 10
529.057031638854
 20
537.9546326731165
 30
0.0
 10
529.0261715878188
 20
537.9773406538715
 30
0.0
 10
529.0105743139871
 20
537.9888177118193
 30
0.0
  0
LINE
  5
7B
330
1F
100
AcDbEntity
  8
0
  6
Continuous
 62
     7
370
    25
100
AcDbLine
 10
611.581798014
 20
536.4395604719
 30
0.0
 11
533.792289959
 21
536.4395604719
 31
0.0
  0
LINE
  5
7C
330
1F
100
AcDbEntity
  8
0
  6
Continuous
 62
     7
370
    25
100
AcDbLine
 10
704.9518522135
 20
536.4395604719
 30
0.0
 11
627.2708468248
 21
536.4395604719
 31
0.0
  0
LINE
  5
7D
330
1F
100
AcDbEntity
  8
0
  6
Continuous
 62
     7
370
    25
100
AcDbLine
 10
627.2607021634
 20
512.4395604719
 30
0.0
 11
704.9807146791
 21
512.4395604719
 31
0.0
  0
LINE
  5
7E
330
1F
100
AcDbEntity
  8
0
  6
Continuous
 62
     7
370
    25
100
AcDbLine
 10
533.7406896478
 20
512.4395604719
 30
0.0
 11
611.4505575021
 21
512.4395604719
 31
0.0
  0
LINE
  5
7F
330
1F
100
AcDbEntity
  8
0
  6
Continuous
 62
     7
370
    25
100
AcDbLine
 10
630.9107021634
 20
436.2176769686
 30
0.0
 11
630.9107021634
 21
438.4849225014
 31
0.0
  0
LINE
  5
80
330
1F
100
AcDbEntity
  8
0
  6
Continuous
 62
     7
370
    25
100
AcDbLine
 10
607.8107021634
 20
438.4849225014
 30
0.0
 11
607.8107021634
 21
436.2176769686
 31
0.0
  0
LINE
  5
81
330
1F
100
AcDbEntity
  8
0
  6
Continuous
 62
     7
370
    25
100
AcDbLine
 10
612.3854527254
 20
427.1516459477
 30
0.0
 11
612.7176074606
 21
426.9037976684
 31
0.0
  0
LINE
  5
82
330
1F
100
AcDbEntity
  8
0
  6
Continuous
 62
     7
370
    25
100
AcDbLine
 10
626.0037968663
 20
426.9037976684
 30
0.0
 11
626.3359516014
 21
427.1516459477
 31
0.0
  0
SPLINE
  5
83
330
1F
100
AcDbEntity
  8
0
  6
Continuous
 62
     7
370
    25
100
AcDbSpline
210
0.0
220
0.0
230
1.0
 70
     8
 71
     3
 72
    17
 73
    13
 74
     0
 42
0.00000001
 43
0.00000001
 40
0.0
 40
0.0
 40
0.0
 40
0.0
 40
0.1670357669646886
 40
0.4636008748397653
 40
0.5848988704210688
 40
0.6274260949979469
 40
0.6628655916216757
 40
0.7157192812368788
 40
0.7809361719943945
 40
0.863226559703938
 40
0.9536446837295555
 40
1.0
 40
1.0
 40
1.0
 40
1.0
 10
777.3782438821048
 20
521.3782447103491
 30
0.0
 10
777.4586473309159
 20
521.3839753879897
 30
0.0
 10
777.6818037834906
 20
521.3998806471801
 30
0.0
 10
777.8628388537537
 20
521.4166598857308
 30
0.0
 10
777.9462148763025
 20
521.4266710998216
 30
0.0
 10
778.0064849217265
 20
521.4385587550235
 30
0.0
 10
778.0705558507565
 20
521.4571513643779
 30
0.0
 10
778.1592872061059
 20
521.4982214052696
 30
0.0
 10
778.2624818173533
 20
521.5788129546423
 30
0.0
 10
778.3517582441568
 20
521.7068058960045
 30
0.0
 10
778.4001547889364
 20
521.8473945779795
 30
0.0
 10
778.3884129166064
 20
521.9363132058195
 30
0.0
 10
778.3844333559235
 20
521.9664495473995
 30
0.0
  0
SPLINE
  5
84
330
1F
100
AcDbEntity
  8
0
  6
Continuous
 62
     7
370
    25
100
AcDbSpline
210
0.0
220
0.0
230
1.0
 70
     8
 71
     3
 72
    17
 73
    13
 74
     0
 42
0.00000001
 43
0.00000001
 40
0.0
 40
0.0
 40
0.0
 40
0.0
 40
0.0758694293711784
 40
0.1944613097681978
 40
0.2935133034530065
 40
0.3774846836587066
 40
0.445696259511177
 40
0.495575109125125
 40
0.5408108348998711
 40
0.6072762568354283
 40
0.7682425901114321
 40
1.0
 40
1.0
 40
1.0
 40
1.0
 10
778.3812992612395
 20
527.5043436242299
 30
0.0
 10
778.3791194435121
 20
527.5359813040792
 30
0.0
 10
778.3735323419107
 20
527.617071997821
 30
0.0
 10
778.3116603275087
 20
527.7264487299592
 30
0.0
 10
778.228815025369
 20
527.8200560162365
 30
0.0
 10
778.1435541123233
 20
527.8793393806253
 30
0.0
 10
778.0701651601576
 20
527.9124084385053
 30
0.0
 10
778.0183032070288
 20
527.9281570636185
 30
0.0
 10
777.9814890839791
 20
527.936531947125
 30
0.0
 10
777.937961629952
 20
527.9440072780213
 30
0.0
 10
777.8868383143376
 20
527.950902720021
 30
0.0
 10
777.7963013647749
 20
527.9583604211358
 30
0.0
 10
777.7428729451923
 20
527.9627614219007
 30
0.0
  0
LINE
  5
85
330
1F
100
AcDbEntity
  8
0
  6
Continuous
 62
     7
370
    25
100
AcDbLine
 10
777.3782438821
 20
527.991718811
 30
0.0
 11
773.8949231912
 21
528.2338863394
 31
0.0
  0
LINE
  5
86
330
1F
100
AcDbEntity
  8
0
  6
Continuous
 62
     7
370
    25
100
AcDbLine
 10
773.8949231912
 20
521.136077182
 30
0.0
 11
777.3782438821
 21
521.3782447103
 31
0.0
  0
ARC
  5
87
330
1F
100
AcDbEntity
  8
0
  6
Continuous
 62
     7
370
    25
100
AcDbCircle
 10
729.0697173687
 20
521.7130872849
 30
0.0
 40
8.999995138923122
100
AcDbArc
 50
257.1419190681
 51
270.0
  0
ARC
  5
88
330
1F
100
AcDbEntity
  8
0
  6
Continuous
 62
     7
370
    25
100
AcDbCircle
 10
729.0697173687
 20
521.7130872849
 30
0.0
 40
8.999995138923055
100
AcDbArc
 50
270.0
 51
305.1719294169
  0
SPLINE
  5
89
330
1F
100
AcDbEntity
  8
0
  6
Continuous
 62
     7
370
    25
100
AcDbSpline
210
0.0
220
0.0
230
1.0
 70
     8
 71
     3
 72
    17
 73
    13
 74
     0
 42
0.00000001
 43
0.00000001
 40
0.0
 40
0.0
 40
0.0
 40
0.0
 40
0.1670357669646884
 40
0.4636008748397647
 40
0.584898870421068
 40
0.627426094997946
 40
0.6628655916216749
 40
0.7157192812368778
 40
0.7809361719943895
 40
0.8632265597039291
 40
0.9536446837295557
 40
1.0
 40
1.0
 40
1.0
 40
1.0
 10
461.3431604447584
 20
527.7462975222121
 30
0.0
 10
461.2627569959474
 20
527.7405668445715
 30
0.0
 10
461.0396005433727
 20
527.7246615853811
 30
0.0
 10
460.8585654731095
 20
527.7078823468304
 30
0.0
 10
460.7751894505607
 20
527.6978711327396
 30
0.0
 10
460.7149194051368
 20
527.6859834775377
 30
0.0
 10
460.6508484761068
 20
527.6673908681832
 30
0.0
 10
460.5621171207575
 20
527.6263208272916
 30
0.0
 10
460.4589225095099
 20
527.5457292779189
 30
0.0
 10
460.3696460827065
 20
527.4177363365568
 30
0.0
 10
460.3212495379269
 20
527.2771476545817
 30
0.0
 10
460.3329914102569
 20
527.1882290267417
 30
0.0
 10
460.3369709709397
 20
527.1580926851616
 30
0.0
  0
SPLINE
  5
8A
330
1F
100
AcDbEntity
  8
0
  6
Continuous
 62
     7
370
    25
100
AcDbSpline
210
0.0
220
0.0
230
1.0
 70
     8
 71
     3
 72
    17
 73
    13
 74
     0
 42
0.00000001
 43
0.00000001
 40
0.0
 40
0.0
 40
0.0
 40
0.0
 40
0.0758694293711882
 40
0.194461309768208
 40
0.2935133034530166
 40
0.3774846836587188
 40
0.4456962595111854
 40
0.4955751091251334
 40
0.5408108348998797
 40
0.607276256835437
 40
0.7682425901114411
 40
1.0
 40
1.0
 40
1.0
 40
1.0
 10
460.3401050656238
 20
521.6201986083313
 30
0.0
 10
460.3422848833512
 20
521.588560928482
 30
0.0
 10
460.3478719849525
 20
521.5074702347404
 30
0.0
 10
460.4097439993546
 20
521.398093502602
 30
0.0
 10
460.4925893014943
 20
521.3044862163247
 30
0.0
 10
460.5778502145401
 20
521.245202851936
 30
0.0
 10
460.6512391667056
 20
521.2121337940558
 30
0.0
 10
460.7031011198345
 20
521.1963851689427
 30
0.0
 10
460.739915242884
 20
521.1880102854362
 30
0.0
 10
460.7834426969112
 20
521.1805349545398
 30
0.0
 10
460.8345660125258
 20
521.1736395125403
 30
0.0
 10
460.9251029620884
 20
521.1661818114255
 30
0.0
 10
460.9785313816711
 20
521.1617808106605
 30
0.0
  0
LINE
  5
8B
330
1F
100
AcDbEntity
  8
0
  6
Continuous
 62
     7
370
    25
100
AcDbLine
 10
461.3431604448
 20
521.1328234215
 30
0.0
 11
464.8264811356
 21
520.8906558931
 31
0.0
  0
LINE
  5
8C
330
1F
100
AcDbEntity
  8
0
  6
Continuous
 62
     7
370
    25
100
AcDbLine
 10
464.8264811356
 20
527.9884650506
 30
0.0
 11
461.3431604448
 21
527.7462975222
 31
0.0
  0
ARC
  5
8D
330
1F
100
AcDbEntity
  8
0
  6
Continuous
 62
     7
370
    25
100
AcDbCircle
 10
517.7607021634
 20
524.4395604719
 30
0.0
 40
9.141196303513993
100
AcDbArc
 50
295.4997205711
 51
0.0
  0
ARC
  5
8E
330
1F
100
AcDbEntity
  8
0
  6
Continuous
 62
     7
370
    25
100
AcDbCircle
 10
517.7607021634
 20
524.4395604719
 30
0.0
 40
9.141196303513993
100
AcDbArc
 50
0.0
 51
64.484808927
  0
ARC
  5
8F
330
1F
100
AcDbEntity
  8
0
  6
Continuous
 62
     7
370
    25
100
AcDbCircle
 10
619.3607021634
 20
524.4395604719
 30
0.0
 40
7.900000000000091
100
AcDbArc
 50
0.0
 51
90.0
  0
ARC
  5
90
330
1F
100
AcDbEntity
  8
0
  6
Continuous
 62
     7
370
    25
100
AcDbCircle
 10
619.3607021634
 20
524.4395604719
 30
0.0
 40
7.900000000000091
100
AcDbArc
 50
90.0
 51
180.0
  0
ARC
  5
91
330
1F
100
AcDbEntity
  8
0
  6
Continuous
 62
     7
370
    25
100
AcDbCircle
 10
619.5233059435
 20
439.0178518406
 30
0.0
 40
7.737411660667555
100
AcDbArc
 50
308.9488337639
 51
359.8855346471
  0
ARC
  5
92
330
1F
100
AcDbEntity
  8
0
  6
Continuous
 62
     7
370
    25
100
AcDbCircle
 10
619.202138589
 20
439.0201054838
 30
0.0
 40
7.741456686223207
100
AcDbArc
 50
180.1310851611
 51
230.1268079818
  0
SPLINE
  5
93
330
1F
100
AcDbEntity
  8
0
  6
Continuous
 62
     7
370
    25
100
AcDbSpline
210
0.0
220
0.0
230
1.0
 70
     8
 71
     3
 72
     9
 73
     5
 74
     0
 42
0.00000001
 43
0.00000001
 40
0.0
 40
0.0
 40
0.0
 40
0.0
 40
0.2575627509401763
 40
0.9999999999999999
 40
0.9999999999999999
 40
0.9999999999999999
 40
0.9999999999999999
 10
630.0855201054425
 20
439.3783821498429
 30
0.0
 10
630.0797218856189
 20
439.3558928601786
 30
0.0
 10
630.0572100130656
 20
439.2685770911779
 30
0.0
 10
630.0297920210381
 20
439.1526972963138
 30
0.0
 10
630.0094358824626
 20
439.0666638201933
 30
0.0
  0
SPLINE
  5
94
330
1F
100
AcDbEntity
  8
0
  6
Continuous
 62
     7
370
    25
100
AcDbSpline
210
0.0
220
0.0
230
1.0
 70
     8
 71
     3
 72
     9
 73
     5
 74
     0
 42
0.00000001
 43
0.00000001
 40
0.0
 40
0.0
 40
0.0
 40
0.0
 40
0.5640571114338283
 40
0.9999999999999999
 40
0.9999999999999999
 40
0.9999999999999999
 40
0.9999999999999999
 10
630.0094358824689
 20
439.0666638201926
 30
0.0
 10
629.9832094373626
 20
438.5701290355806
 30
0.0
 10
629.9367133564252
 20
437.6898373513753
 30
0.0
 10
629.7619775371423
 20
436.8089762130641
 30
0.0
 10
629.6858026993482
 20
436.424971064003
 30
0.0
  0
SPLINE
  5
95
330
1F
100
AcDbEntity
  8
0
  6
Continuous
 62
     7
370
    25
100
AcDbSpline
210
0.0
220
0.0
230
1.0
 70
     8
 71
     3
 72
    30
 73
    26
 74
     0
 42
0.00000001
 43
0.00000001
 40
0.0
 40
0.0
 40
0.0
 40
0.0
 40
0.0307682751376102
 40
0.0754826178415692
 40
0.1214936442130545
 40
0.1662092383163519
 40
0.2122126067779829
 40
0.2570910486625419
 40
0.3032656253489608
 40
0.3482321038941177
 40
0.3945005034405026
 40
0.4395348202392172
 40
0.4858661227318369
 40
0.5310485696154855
 40
0.5775412208971968
 40
0.6227251794687194
 40
0.669208987708414
 40
0.7145650541085985
 40
0.7612362845483446
 40
0.806595549486105
 40
0.8532650875879134
 40
0.898717182861731
 40
0.9454846031419001
 40
0.9909824746202247
 40
1.0
 40
1.0
 40
1.0
 40
1.0
 10
629.6858042676
 20
436.4249782888605
 30
0.0
 10
629.5915865501245
 20
436.0388556979112
 30
0.0
 10
629.3604458725824
 20
435.0915960987863
 30
0.0
 10
628.7273063103219
 20
433.6437382177042
 30
0.0
 10
627.7731620737941
 20
432.1635386547654
 30
0.0
 10
626.5651245723622
 20
430.8519555366819
 30
0.0
 10
625.1644964941498
 20
429.7656529990588
 30
0.0
 10
623.5830341954027
 20
428.9164477112245
 30
0.0
 10
621.892281835846
 20
428.3442624870496
 30
0.0
 10
620.1111716999054
 20
428.0566210505472
 30
0.0
 10
618.3211644128471
 20
428.0675479776221
 30
0.0
 10
616.5417539189777
 20
428.3755039687782
 30
0.0
 10
614.8530790133964
 20
428.9677989611501
 30
0.0
 10
613.2735092000294
 20
429.8392365135082
 30
0.0
 10
611.8767212544944
 20
430.9507661717894
 30
0.0
 10
610.6786568247641
 20
432.2891657742206
 30
0.0
 10
609.7325874014912
 20
433.7936979939045
 30
0.0
 10
609.0493781666921
 20
435.4502253939516
 30
0.0
 10
608.6619278061396
 20
437.1825450250011
 30
0.0
 10
608.5748918472764
 20
438.9710894185617
 30
0.0
 10
608.7932003937626
 20
440.7321415043599
 30
0.0
 10
609.308613301723
 20
442.4540587132634
 30
0.0
 10
610.1230948875597
 20
444.0338348926858
 30
0.0
 10
610.8604945980807
 20
445.1328322572755
 30
0.0
 10
611.3755118910021
 20
445.6171600684773
 30
0.0
 10
611.4607021634316
 20
445.6972739185334
 30
0.0
  0
SPLINE
  5
96
330
1F
100
AcDbEntity
  8
0
  6
Continuous
 62
     7
370
    25
100
AcDbSpline
210
0.0
220
0.0
230
1.0
 70
     8
 71
     3
 72
     9
 73
     5
 74
     0
 42
0.00000001
 43
0.00000001
 40
0.0
 40
0.0
 40
0.0
 40
0.0
 40
0.0023395561044536
 40
1.0
 40
1.0
 40
1.0
 40
1.0
 10
627.2607021634317
 20
445.7371764759932
 30
0.0
 10
627.2617428014275
 20
445.7362393460675
 30
0.0
 10
627.7065442720742
 20
445.3356804862668
 30
0.0
 10
628.0423785189596
 20
444.8352851796351
 30
0.0
 10
628.3774270627825
 20
444.3360605758978
 30
0.0
  0
ARC
  5
97
330
1F
100
AcDbEntity
  8
0
  6
Continuous
 62
     7
370
    25
100
AcDbCircle
 10
619.6548989101
 20
438.4814824053
 30
0.0
 40
10.5051693432686
100
AcDbArc
 50
348.3537095045
 51
33.8695903136
  0
SPLINE
  5
98
330
1F
100
AcDbEntity
  8
0
  6
Continuous
 62
     7
370
    25
100
AcDbSpline
210
0.0
220
0.0
230
1.0
 70
     8
 71
     3
 72
     9
 73
     5
 74
     0
 42
0.00000001
 43
0.00000001
 40
0.0
 40
0.0
 40
0.0
 40
0.0
 40
0.6275170954439173
 40
1.0
 40
1.0
 40
1.0
 40
1.0
 10
629.9437928139786
 20
436.3608114820433
 30
0.0
 10
630.046347919789
 20
436.987337884647
 30
0.0
 10
630.2097778989161
 20
437.9857591342872
 30
0.0
 10
630.1192428597833
 20
439.000433350581
 30
0.0
 10
630.085520105443
 20
439.3783821498442
 30
0.0
  0
SPLINE
  5
99
330
1F
100
AcDbEntity
  8
0
  6
Continuous
 62
     7
370
    25
100
AcDbSpline
210
0.0
220
0.0
230
1.0
 70
     8
 71
     3
 72
    24
 73
    20
 74
     0
 42
0.00000001
 43
0.00000001
 40
0.0
 40
0.0
 40
0.0
 40
0.0
 40
0.025273147958481
 40
0.0990366416224587
 40
0.1941028699442301
 40
0.324592063892689
 40
0.3732253740669398
 40
0.4174787772872139
 40
0.4573518316349003
 40
0.4928441390449516
 40
0.5239553453594898
 40
0.5506851404216361
 40
0.6353957767004994
 40
0.7007842684277644
 40
0.7468378770887476
 40
0.7578916372948398
 40
0.7667953783567816
 40
0.773549078957819
 40
0.9999999999999999
 40
0.9999999999999999
 40
0.9999999999999999
 40
0.9999999999999999
 10
618.4524800725769
 20
427.8572657608868
 30
0.0
 10
618.5830914537648
 20
427.8442691422683
 30
0.0
 10
619.0949118479548
 20
427.7933399322412
 30
0.0
 10
620.1064529242261
 20
427.8171488141673
 30
0.0
 10
621.6522583355332
 20
428.0079266426496
 30
0.0
 10
623.026456683128
 20
428.417963408687
 30
0.0
 10
624.0865086508503
 20
428.8862097658033
 30
0.0
 10
624.6964778143132
 20
429.2056297810643
 30
0.0
 10
625.2272966024888
 20
429.5256311238286
 30
0.0
 10
625.6834080957227
 20
429.8353066801478
 30
0.0
 10
626.0695445334743
 20
430.1253306817746
 30
0.0
 10
626.6399831688664
 20
430.5919907034861
 30
0.0
 10
627.3000773011947
 20
431.2267277763067
 30
0.0
 10
627.9499294684783
 20
432.0035261509095
 30
0.0
 10
628.3147761779597
 20
432.5188820537815
 30
0.0
 10
628.4995298992181
 20
432.8041112550005
 30
0.0
 10
628.572549905085
 20
432.9205940437
 30
0.0
 10
629.2238400035094
 20
433.9832294147615
 30
0.0
 10
629.5784757716775
 20
435.1391693285871
 30
0.0
 10
629.9228411438997
 20
436.2616327528142
 30
0.0
  0
LINE
  5
9A
330
1F
100
AcDbEntity
  8
0
  6
Continuous
 62
     7
370
    25
100
AcDbLine
 10
629.943792814
 20
436.360811482
 30
0.0
 11
629.9228043778
 21
436.2616099368
 31
0.0
  0
SPLINE
  5
9B
330
1F
100
AcDbEntity
  8
0
  6
Continuous
 62
     7
370
    25
100
AcDbSpline
210
0.0
220
0.0
230
1.0
 70
     8
 71
     3
 72
    20
 73
    16
 74
     0
 42
0.00000001
 43
0.00000001
 40
0.0
 40
0.0
 40
0.0
 40
0.0
 40
0.0400050867929672
 40
0.0846687169847858
 40
0.1350149290271495
 40
0.1910433466731195
 40
0.2527535511851776
 40
0.3941699538237168
 40
0.5912786366276195
 40
0.677063740777301
 40
0.7538474017578293
 40
0.8216281789195501
 40
0.8804048009741431
 40
0.9301761662768703
 40
1.0
 40
1.0
 40
1.0
 40
1.0
 10
625.5227331820093
 20
429.7277588956879
 30
0.0
 10
625.6394579977253
 20
429.801784590991
 30
0.0
 10
625.8865000910998
 20
429.9584561832227
 30
0.0
 10
626.2493290236778
 20
430.2510455025867
 30
0.0
 10
626.6462185203295
 20
430.5877410702229
 30
0.0
 10
627.065908508868
 20
430.9869364820354
 30
0.0
 10
627.6775812208451
 20
431.6363653924471
 30
0.0
 10
628.5205005377125
 20
432.7285130426975
 30
0.0
 10
629.2145201601222
 20
434.018938764557
 30
0.0
 10
629.6443646299577
 20
435.1744466999075
 30
0.0
 10
629.8601355248928
 20
435.933465486404
 30
0.0
 10
630.0036351145483
 20
436.6147023802012
 30
0.0
 10
630.0892456268346
 20
437.2117120392288
 30
0.0
 10
630.1513753665562
 20
437.8191001590746
 30
0.0
 10
630.1464434369682
 20
438.2283105639822
 30
0.0
 10
630.1435640050654
 20
438.4672218204773
 30
0.0
  0
LINE
  5
9C
330
1F
100
AcDbEntity
  8
0
  6
Continuous
 62
     7
370
    25
100
AcDbLine
 10
630.0855201054
 20
439.3783821498
 30
0.0
 11
630.0044219399
 21
439.0041454908
 31
0.0
  0
LINE
  5
9D
330
1F
100
AcDbEntity
  8
0
  6
Continuous
 62
     7
370
    25
100
AcDbLine
 10
627.163940368
 20
524.1749546891
 30
0.0
 11
627.2093994853
 21
524.8436953659
 31
0.0
  0
LINE
  5
9E
330
1F
100
AcDbEntity
  8
0
  6
Continuous
 62
     7
370
    25
100
AcDbLine
 10
619.9628876561
 20
532.2215602072
 30
0.0
 11
618.6057633879
 21
532.2962540087
 31
0.0
  0
SPLINE
  5
9F
330
1F
100
AcDbEntity
  8
0
  6
Continuous
 62
     7
370
    25
100
AcDbSpline
210
0.0
220
0.0
230
1.0
 70
     8
 71
     3
 72
     9
 73
     5
 74
     0
 42
0.00000001
 43
0.00000001
 40
0.0
 40
0.0
 40
0.0
 40
0.0
 40
0.2514615855117382
 40
1.0
 40
1.0
 40
1.0
 40
1.0
 10
613.1296967847552
 20
529.1758603251889
 30
0.0
 10
612.9847561514752
 20
529.0237679263715
 30
0.0
 10
612.4083634074901
 20
528.418934394809
 30
0.0
 10
612.1159884991122
 20
527.6240181664363
 30
0.0
 10
611.8971346487589
 20
527.028992833199
 30
0.0
  0
ARC
  5
A0
330
1F
100
AcDbEntity
  8
0
  6
Continuous
 62
     7
370
    25
100
AcDbCircle
 10
517.7607021634
 20
524.4395604719
 30
0.0
 40
17.60000000000014
100
AcDbArc
 50
7.89594474
 51
27.9531868834
  0
ARC
  5
A1
330
1F
100
AcDbEntity
  8
0
  6
Continuous
 62
     7
370
    25
100
AcDbCircle
 10
517.7607021634
 20
524.4395604719
 30
0.0
 40
17.60000000000021
100
AcDbArc
 50
332.0468131166
 51
352.370015501
  0
ARC
  5
A2
330
1F
100
AcDbEntity
  8
0
  6
Continuous
 62
     7
370
    25
100
AcDbCircle
 10
517.7607021634
 20
524.4395604719
 30
0.0
 40
17.60000000000019
100
AcDbArc
 50
307.9636196499
 51
332.0468131166
  0
ARC
  5
A3
330
1F
100
AcDbEntity
  8
0
  6
Continuous
 62
     7
370
    25
100
AcDbCircle
 10
517.7607021634
 20
524.4395604719
 30
0.0
 40
17.60000000000016
100
AcDbArc
 50
247.873197553
 51
292.5125453439
  0
ARC
  5
A4
330
1F
100
AcDbEntity
  8
0
  6
Continuous
 62
     7
370
    25
100
AcDbCircle
 10
517.7607021634
 20
524.4395604719
 30
0.0
 40
17.60000000000005
100
AcDbArc
 50
211.5427743269
 51
232.6111059608
  0
ARC
  5
A5
330
1F
100
AcDbEntity
  8
0
  6
Continuous
 62
     7
370
    25
100
AcDbCircle
 10
517.7607021634
 20
524.4395604719
 30
0.0
 40
17.60000000000009
100
AcDbArc
 50
127.5731287235
 51
148.4572256731
  0
ARC
  5
A6
330
1F
100
AcDbEntity
  8
0
  6
Continuous
 62
     7
370
    25
100
AcDbCircle
 10
517.7607021634
 20
524.4395604719
 30
0.0
 40
17.60000000000009
100
AcDbArc
 50
67.3508999583
 51
112.8493529501
  0
ARC
  5
A7
330
1F
100
AcDbEntity
  8
0
  6
Continuous
 62
     7
370
    25
100
AcDbCircle
 10
517.7607021634
 20
524.4395604719
 30
0.0
 40
17.60000000000021
100
AcDbArc
 50
27.9531868834
 51
52.9862368435
  0
ARC
  5
A8
330
1F
100
AcDbEntity
  8
0
  6
Continuous
 62
     7
370
    25
100
AcDbCircle
 10
720.9607021634
 20
524.4395604719
 30
0.0
 40
17.60000000000004
100
AcDbArc
 50
152.0468131166
 51
172.4299160232
  0
ARC
  5
A9
330
1F
100
AcDbEntity
  8
0
  6
Continuous
 62
     7
370
    25
100
AcDbCircle
 10
720.9607021634
 20
524.4395604719
 30
0.0
 40
17.60000000000009
100
AcDbArc
 50
188.0209611687
 51
207.9531868834
  0
ARC
  5
AA
330
1F
100
AcDbEntity
  8
0
  6
Continuous
 62
     7
370
    25
100
AcDbCircle
 10
720.9607021634
 20
524.4395604719
 30
0.0
 40
17.60000000000014
100
AcDbArc
 50
207.9531868834
 51
232.4594186385
  0
ARC
  5
AB
330
1F
100
AcDbEntity
  8
0
  6
Continuous
 62
     7
370
    25
100
AcDbCircle
 10
720.9607021634
 20
524.4395604719
 30
0.0
 40
17.60000000000013
100
AcDbArc
 50
247.8134019689
 51
292.5923536009
  0
ARC
  5
AC
330
1F
100
AcDbEntity
  8
0
  6
Continuous
 62
     7
370
    25
100
AcDbCircle
 10
720.9607021634
 20
524.4395604719
 30
0.0
 40
17.60000000000021
100
AcDbArc
 50
307.717013542
 51
329.914091969
  0
ARC
  5
AD
330
1F
100
AcDbEntity
  8
0
  6
Continuous
 62
     7
370
    25
100
AcDbCircle
 10
720.9607021634
 20
524.4395604719
 30
0.0
 40
17.60000000000019
100
AcDbArc
 50
33.0957362986
 51
53.0209334316
  0
ARC
  5
AE
330
1F
100
AcDbEntity
  8
0
  6
Continuous
 62
     7
370
    25
100
AcDbCircle
 10
720.9607021634
 20
524.4395604719
 30
0.0
 40
17.6000000000001
100
AcDbArc
 50
67.4879185833
 51
113.3378219307
  0
ARC
  5
AF
330
1F
100
AcDbEntity
  8
0
  6
Continuous
 62
     7
370
    25
100
AcDbCircle
 10
720.9607021634
 20
524.4395604719
 30
0.0
 40
17.60000000000007
100
AcDbArc
 50
127.3574520866
 51
152.0468131166
  0
SPLINE
  5
B0
330
1F
100
AcDbEntity
  8
0
  6
Continuous
 62
     7
370
    25
100
AcDbSpline
210
0.0
220
0.0
230
1.0
 70
     8
 71
     3
 72
    26
 73
    22
 74
     0
 42
0.00000001
 43
0.00000001
 40
0.0
 40
0.0
 40
0.0
 40
0.0
 40
0.1250000000000003
 40
0.1250000000000003
 40
0.1875
 40
0.1875
 40
0.2499999999999997
 40
0.2499999999999997
 40
0.3749999999999996
 40
0.3749999999999996
 40
0.4374999999999996
 40
0.4374999999999996
 40
0.4999999999999997
 40
0.4999999999999997
 40
0.6249999999999998
 40
0.6249999999999998
 40
0.7499999999999998
 40
0.7499999999999998
 40
0.8749999999999999
 40
0.8749999999999999
 40
1.0
 40
1.0
 40
1.0
 40
1.0
 10
540.3739726035872
 20
531.6395604718762
 30
0.0
 10
540.7667477611885
 20
531.1954639288272
 30
0.0
 10
541.0906845187862
 20
530.7024432425045
 30
0.0
 10
541.481557211281
 20
529.8814791457487
 30
0.0
 10
541.5962333582588
 20
529.5932489120144
 30
0.0
 10
541.7931811192755
 20
528.9984377205318
 30
0.0
 10
541.8755221014862
 20
528.6920893548443
 30
0.0
 10
542.0807242121803
 20
527.75953540166
 30
0.0
 10
542.1639536636773
 20
527.1153584464181
 30
0.0
 10
542.2420681981898
 20
526.1189460268014
 30
0.0
 10
542.260081535448
 20
525.7821645931278
 30
0.0
 10
542.2834029515935
 20
525.1122959561603
 30
0.0
 10
542.2888690814991
 20
524.7774960625471
 30
0.0
 10
542.2889774891638
 20
523.7734871306204
 30
0.0
 10
542.2686371102485
 20
523.1027760149161
 30
0.0
 10
542.1647553496283
 20
521.7703419054736
 30
0.0
 10
542.0815978101476
 20
521.1250248873558
 30
0.0
 10
541.8084744076341
 20
519.8808718038454
 30
0.0
 10
541.6147568099669
 20
519.2783198289584
 30
0.0
 10
541.0915635475218
 20
518.1776164657683
 30
0.0
 10
540.7666755945414
 20
517.683575418712
 30
0.0
 10
540.3739726035959
 20
517.2395604718664
 30
0.0
  0
LWPOLYLINE
  5
B1
330
1F
100
AcDbEntity
  8
0
  6
Continuous
 62
     7
370
    25
100
AcDbPolyline
 90
        9
 70
   128
 43
0.0
 10
533.307325591
 20
516.1895604719
 10
533.7298096572
 20
516.7657767647
 10
534.323533458
 20
517.2304936654
 10
535.0731949746
 20
517.5717340447
 10
535.959473212
 20
517.7807031285
 10
536.9595261582
 20
517.8520151652
 10
538.0475794903
 20
517.7838322328
 10
539.1955908551
 20
517.5779116071
 10
540.3739726036
 20
517.2395604719
  0
LWPOLYLINE
  5
B2
330
1F
100
AcDbEntity
  8
0
  6
Continuous
 62
     7
370
    25
100
AcDbPolyline
 90
        9
 70
   128
 43
0.0
 10
540.3739726036
 20
531.6395604719
 10
539.1955908551
 20
531.3012093366
 10
538.0475794903
 20
531.0952887109
 10
536.9595261582
 20
531.0271057785
 10
535.959473212
 20
531.0984178153
 10
535.0731949746
 20
531.307386899
 10
534.323533458
 20
531.6486272783
 10
533.7298096572
 20
532.113344179
 10
533.307325591
 20
532.6895604719
  0
LWPOLYLINE
  5
B3
330
1F
100
AcDbEntity
  8
0
  6
Continuous
 62
     7
370
    25
100
AcDbPolyline
 90
        9
 70
   128
 43
0.0
 10
698.3474317233
 20
531.6395604719
 10
699.5258134717
 20
531.3012093366
 10
700.6738248365
 20
531.0952887109
 10
701.7618781686
 20
531.0271057785
 10
702.7619311148
 20
531.0984178153
 10
703.6482093523
 20
531.307386899
 10
704.3978708689
 20
531.6486272783
 10
704.9915946696
 20
532.113344179
 10
705.4140787358
 20
532.6895604719
  0
LWPOLYLINE
  5
B4
330
1F
100
AcDbEntity
  8
0
  6
Continuous
 62
     7
370
    25
100
AcDbPolyline
 90
        9
 70
   128
 43
0.0
 10
705.4140787358
 20
516.1895604719
 10
704.9915946696
 20
516.7657767647
 10
704.3978708689
 20
517.2304936654
 10
703.6482093523
 20
517.5717340447
 10
702.7619311148
 20
517.7807031285
 10
701.7618781686
 20
517.8520151652
 10
700.6738248365
 20
517.7838322328
 10
699.5258134717
 20
517.5779116071
 10
698.3474317233
 20
517.2395604719
  0
SPLINE
  5
B5
330
1F
100
AcDbEntity
  8
0
  6
Continuous
 62
     7
370
    25
100
AcDbSpline
210
0.0
220
0.0
230
1.0
 70
     8
 71
     3
 72
    30
 73
    26
 74
     0
 42
0.00000001
 43
0.00000001
 40
0.0
 40
0.0
 40
0.0
 40
0.0
 40
0.1250000000000007
 40
0.1250000000000007
 40
0.1875000000000002
 40
0.1875000000000002
 40
0.2499999999999997
 40
0.2499999999999997
 40
0.3749999999999995
 40
0.3749999999999995
 40
0.4999999999999993
 40
0.4999999999999993
 40
0.5624999999999992
 40
0.5624999999999992
 40
0.6249999999999991
 40
0.6249999999999991
 40
0.7499999999999992
 40
0.7499999999999992
 40
0.8124999999999994
 40
0.8124999999999994
 40
0.8749999999999997
 40
0.8749999999999997
 40
0.9374999999999999
 40
0.9374999999999999
 40
1.0
 40
1.0
 40
1.0
 40
1.0
 10
698.3474317232674
 20
517.2395604718665
 30
0.0
 10
697.9543190951863
 20
517.6840385804785
 30
0.0
 10
697.6291635361049
 20
518.1786471121237
 30
0.0
 10
697.2365568154755
 20
519.005212318748
 30
0.0
 10
697.1228759580221
 20
519.292422123336
 30
0.0
 10
696.9285187008745
 20
519.8801759076925
 30
0.0
 10
696.8471601688526
 20
520.1821142184209
 30
0.0
 10
696.6421691274147
 20
521.11106410251
 30
0.0
 10
696.5571172546028
 20
521.7658231294114
 30
0.0
 10
696.452833335485
 20
523.1004479952118
 30
0.0
 10
696.4324706251172
 20
523.7710355043439
 30
0.0
 10
696.4325131277732
 20
524.7757423085623
 30
0.0
 10
696.437964650597
 20
525.1107750062881
 30
0.0
 10
696.4612698972372
 20
525.7811096037899
 30
0.0
 10
696.4792816568589
 20
526.1181256234752
 30
0.0
 10
696.5574224984239
 20
527.115249997382
 30
0.0
 10
696.6407067357807
 20
527.7598741835423
 30
0.0
 10
696.846117687196
 20
528.6930503276636
 30
0.0
 10
696.9287808172754
 20
529.0002540238447
 30
0.0
 10
697.1252983645028
 20
529.5935009644422
 30
0.0
 10
697.2383837272029
 20
529.877836532597
 30
0.0
 10
697.4971533068996
 20
530.4224673610958
 30
0.0
 10
697.6428300499497
 20
530.6827639888754
 30
0.0
 10
697.9693249892567
 20
531.179896074835
 30
0.0
 10
698.1507887825965
 20
531.4172234719904
 30
0.0
 10
698.3474317232668
 20
531.6395604718667
 30
0.0
  0
LWPOLYLINE
  5
B6
330
1F
100
AcDbEntity
  8
0
  6
Continuous
 62
     7
370
    25
100
AcDbPolyline
 90
       26
 70
   128
 43
0.0
 10
630.8867083468
 20
437.7521292688
 10
630.6180879208
 20
435.9408063006
 10
630.057907117
 20
434.1953746057
 10
629.2206743238
 20
432.561039948
 10
628.1280734309
 20
431.0801307368
 10
626.8084022274
 20
429.7910017428
 10
625.2958395044
 20
428.7270407297
 10
623.6295598418
 20
427.9158037289
 10
621.8527190077
 20
427.3783013526
 10
620.0113362463
 20
427.12845463
 10
618.153102404
 20
427.17273446
 10
616.3261447611
 20
427.5099940183
 10
614.5777805609
 20
428.1314984594
 10
612.9532915179
 20
429.0211511448
 10
611.4947510449
 20
430.1559105373
 10
610.2399345741
 20
431.5063869646
 10
609.221341193
 20
433.0376037966
 10
608.465351935
 20
434.7099033218
 10
607.9915465249
 20
436.4799738607
 10
607.8121962739
 20
438.3019715164
 10
607.9319462592
 20
440.1287075064
 10
608.3476950193
 20
441.9128703282
 10
609.0486748795
 20
443.608251102
 10
610.0167308297
 20
445.1709403561
 10
611.2267907293
 20
446.5604652599
 10
611.4607021634
 20
446.7826218326
  0
ARC
  5
B7
330
1F
100
AcDbEntity
  8
0
  6
Continuous
 62
     7
370
    25
100
AcDbCircle
 10
619.616608557
 20
438.4700753634
 30
0.0
 40
11.29294451712558
100
AcDbArc
 50
356.3549770977
 51
47.3988224933
  0
LINE
  5
B8
330
1F
100
AcDbEntity
  8
0
  6
Continuous
 62
     7
370
    25
100
AcDbLine
 10
630.8867083468
 20
435.4848837359
 30
0.0
 11
630.9107021634
 21
436.2176769686
 31
0.0
  0
ARC
  5
B9
330
1F
100
AcDbEntity
  8
0
  6
Continuous
 62
     7
370
    25
100
AcDbCircle
 10
619.3649420558
 20
436.3625848992
 30
0.0
 40
11.55514854070572
100
AcDbArc
 50
180.7185394849
 51
355.6437552277
  0
ARC
  5
BA
330
1F
100
AcDbEntity
  8
0
  6
Continuous
 62
     7
370
    25
100
AcDbCircle
 10
619.3607021634
 20
435.8304660555
 30
0.0
 40
11.12726901465606
100
AcDbArc
 50
233.3439219565
 51
306.6560780435
  0
ARC
  5
BB
330
1F
100
AcDbEntity
  8
0
  6
Continuous
 62
     7
370
    25
100
AcDbCircle
 10
619.3607021634
 20
524.4395604719
 30
0.0
 40
9.72499999999994
100
AcDbArc
 50
182.3675813795
 51
215.6748758017
  0
ARC
  5
BC
330
1F
100
AcDbEntity
  8
0
  6
Continuous
 62
     7
370
    25
100
AcDbCircle
 10
619.3607021634
 20
524.4395604719
 30
0.0
 40
9.725000000000072
100
AcDbArc
 50
324.3251241983
 51
182.3675813795
  0
ARC
  5
BD
330
1F
100
AcDbEntity
  8
0
  6
Continuous
 62
     7
370
    25
100
AcDbCircle
 10
619.3607021634
 20
524.4395604719
 30
0.0
 40
9.925000000000068
100
AcDbArc
 50
322.7469493593
 51
182.3675813795
  0
ARC
  5
BE
330
1F
100
AcDbEntity
  8
0
  6
Continuous
 62
     7
370
    25
100
AcDbCircle
 10
619.3607021634
 20
524.4395604719
 30
0.0
 40
9.92499999999992
100
AcDbArc
 50
182.3675813795
 51
217.2530506407
  0
ARC
  5
BF
330
1F
100
AcDbEntity
  8
0
  6
Continuous
 62
     7
370
    25
100
AcDbCircle
 10
619.3607021634
 20
524.4395604719
 30
0.0
 40
14.22500000000002
100
AcDbArc
 50
303.7355336397
 51
182.3675813795
  0
ARC
  5
C0
330
1F
100
AcDbEntity
  8
0
  6
Continuous
 62
     7
370
    25
100
AcDbCircle
 10
619.3607021634
 20
524.4395604719
 30
0.0
 40
14.225
100
AcDbArc
 50
182.3675813795
 51
236.2644663603
  0
LINE
  5
C1
330
1F
100
AcDbEntity
  8
0
  6
Continuous
 62
     7
370
    25
100
AcDbLine
 10
609.9476499145
 20
513.7744269819
 30
0.0
 11
609.7871350867
 21
513.5925612044
 31
0.0
  0
LINE
  5
C2
330
1F
100
AcDbEntity
  8
0
  6
Continuous
 62
     7
370
    25
100
AcDbLine
 10
622.8198416124
 20
538.4875117088
 30
0.0
 11
622.7618440898
 21
538.2519772986
 31
0.0
  0
SPLINE
  5
C3
330
1F
100
AcDbEntity
  8
0
  6
Continuous
 62
     7
370
    25
100
AcDbSpline
210
0.0
220
0.0
230
1.0
 70
     8
 71
     3
 72
    11
 73
     7
 74
     0
 42
0.00000001
 43
0.00000001
 40
0.0
 40
0.0
 40
0.0
 40
0.0
 40
0.1446702591042558
 40
0.390752020932366
 40
0.5962314811354597
 40
1.0
 40
1.0
 40
1.0
 40
1.0
 10
628.9342692401854
 20
535.2865597393297
 30
0.0
 10
628.6584387867468
 20
535.4739647986806
 30
0.0
 10
627.9134252104728
 20
535.9801428212246
 30
0.0
 10
626.7287697960473
 20
536.6801486518832
 30
0.0
 10
624.985804781847
 20
537.6064253841453
 30
0.0
 10
623.6831520744057
 20
538.1363279708727
 30
0.0
 10
622.8198416124105
 20
538.4875117087539
 30
0.0
  0
LINE
  5
C4
330
1F
100
AcDbEntity
  8
0
  6
Continuous
 62
     7
370
    25
100
AcDbLine
 10
628.9342692402
 20
535.2865597393
 30
0.0
 11
628.7737544124
 21
535.1046939618
 31
0.0
  0
LINE
  5
C5
330
1F
100
AcDbEntity
  8
0
  6
Continuous
 62
     7
370
    25
100
AcDbLine
 10
633.2561545302
 20
528.4678334523
 30
0.0
 11
633.0231769863
 21
528.4002935752
 31
0.0
  0
SPLINE
  5
C6
330
1F
100
AcDbEntity
  8
0
  6
Continuous
 62
     7
370
    25
100
AcDbSpline
210
0.0
220
0.0
230
1.0
 70
     8
 71
     3
 72
    11
 73
     7
 74
     0
 42
0.00000001
 43
0.00000001
 40
0.0
 40
0.0
 40
0.0
 40
0.0
 40
0.1446702591042558
 40
0.3907520209323692
 40
0.596231481135486
 40
1.0
 40
1.0
 40
1.0
 40
1.0
 10
633.5412626222633
 20
521.5721078122948
 30
0.0
 10
633.5656449377396
 20
521.9046865217854
 30
0.0
 10
633.6315011759632
 20
522.802976216275
 30
0.0
 10
633.645396300898
 20
524.1789208152277
 30
0.0
 10
633.5760929748712
 20
526.1515111615636
 30
0.0
 10
633.3836757227876
 20
527.5445927918802
 30
0.0
 10
633.2561545301911
 20
528.4678334522612
 30
0.0
  0
LINE
  5
C7
330
1F
100
AcDbEntity
  8
0
  6
Continuous
 62
     7
370
    25
100
AcDbLine
 10
633.303504825
 20
521.6201848421
 30
0.0
 11
633.5412626223
 21
521.5721078123
 31
0.0
  0
LINE
  5
C8
330
1F
100
AcDbEntity
  8
0
  6
Continuous
 62
     7
370
    25
100
AcDbLine
 10
608.9243892457
 20
534.4592387284
 30
0.0
 11
609.099369267
 21
534.2912441954
 31
0.0
  0
SPLINE
  5
C9
330
1F
100
AcDbEntity
  8
0
  6
Continuous
 62
     7
370
    25
100
AcDbSpline
210
0.0
220
0.0
230
1.0
 70
     8
 71
     3
 72
    11
 73
     7
 74
     0
 42
0.00000001
 43
0.00000001
 40
0.0
 40
0.0
 40
0.0
 40
0.0
 40
0.1446702591042557
 40
0.3907520209323619
 40
0.5962314811354644
 40
1.0
 40
1.0
 40
1.0
 40
1.0
 10
614.7537087813537
 20
538.1540123989008
 30
0.0
 10
614.4534960124388
 20
538.0088387487611
 30
0.0
 10
613.6426261979414
 20
537.6167270768157
 30
0.0
 10
612.4440756585809
 20
536.9407883085215
 30
0.0
 10
610.7704139704075
 20
535.8944746944476
 30
0.0
 10
609.6601785150497
 20
535.0312956508586
 30
0.0
 10
608.9243892456511
 20
534.4592387283584
 30
0.0
  0
LINE
  5
CA
330
1F
100
AcDbEntity
  8
0
  6
Continuous
 62
     7
370
    25
100
AcDbLine
 10
614.7537087814
 20
538.1540123989
 30
0.0
 11
614.8309517508
 21
537.9240695916
 31
0.0
  0
LINE
  5
CB
330
1F
100
AcDbEntity
  8
0
  6
Continuous
 62
     7
370
    25
100
AcDbLine
 10
605.6982273406
 20
520.4788273686
 30
0.0
 11
605.4652497967
 21
520.4112874915
 31
0.0
  0
SPLINE
  5
CC
330
1F
100
AcDbEntity
  8
0
  6
Continuous
 62
     7
370
    25
100
AcDbSpline
210
0.0
220
0.0
230
1.0
 70
     8
 71
     3
 72
    11
 73
     7
 74
     0
 42
0.00000001
 43
0.00000001
 40
0.0
 40
0.0
 40
0.0
 40
0.0
 40
0.144670259104254
 40
0.3907520209323652
 40
0.5962314811354787
 40
1.0
 40
1.0
 40
1.0
 40
1.0
 10
605.1801417046001
 20
527.307013131437
 30
0.0
 10
605.1557593891235
 20
526.9744344219465
 30
0.0
 10
605.0899031509001
 20
526.0761447274568
 30
0.0
 10
605.0760080259654
 20
524.7002001285042
 30
0.0
 10
605.1453113519922
 20
522.7276097821682
 30
0.0
 10
605.3377286040758
 20
521.3345281518517
 30
0.0
 10
605.4652497966723
 20
520.4112874914705
 30
0.0
  0
LINE
  5
CD
330
1F
100
AcDbEntity
  8
0
  6
Continuous
 62
     7
370
    25
100
AcDbLine
 10
605.1801417046
 20
527.3070131314
 30
0.0
 11
605.4178995019
 21
527.2589361016
 31
0.0
  0
LINE
  5
CE
330
1F
100
AcDbEntity
  8
0
  6
Continuous
 62
     7
370
    25
100
AcDbLine
 10
629.6220350599
 20
514.5878767484
 30
0.0
 11
629.7970150812
 21
514.4198822154
 31
0.0
  0
SPLINE
  5
CF
330
1F
100
AcDbEntity
  8
0
  6
Continuous
 62
     7
370
    25
100
AcDbSpline
210
0.0
220
0.0
230
1.0
 70
     8
 71
     3
 72
     9
 73
     5
 74
     0
 42
0.00000001
 43
0.00000001
 40
0.0
 40
0.0
 40
0.0
 40
0.0
 40
0.586228306203272
 40
1.0
 40
1.0
 40
1.0
 40
1.0
 10
633.2561545301911
 20
528.4678334522612
 30
0.0
 10
633.1997343657679
 20
528.7957937863987
 30
0.0
 10
633.1034917179356
 20
529.3552351007589
 30
0.0
 10
632.9855318907565
 20
529.911701933653
 30
0.0
 10
632.9367234532648
 20
530.1419521576413
 30
0.0
  0
SPLINE
  5
D0
330
1F
100
AcDbEntity
  8
0
  6
Continuous
 62
     7
370
    25
100
AcDbSpline
210
0.0
220
0.0
230
1.0
 70
     8
 71
     3
 72
     9
 73
     5
 74
     0
 42
0.00000001
 43
0.00000001
 40
0.0
 40
0.0
 40
0.0
 40
0.0
 40
0.5863847898283632
 40
1.0
 40
1.0
 40
1.0
 40
1.0
 10
630.3119154138296
 20
534.2831651644726
 30
0.0
 10
630.0459255108627
 20
534.4844405394242
 30
0.0
 10
629.5923156840378
 20
534.8276884858973
 30
0.0
 10
629.1268096261533
 20
535.1522968023122
 30
0.0
 10
628.9342692401854
 20
535.2865597393297
 30
0.0
  0
ARC
  5
D1
330
1F
100
AcDbEntity
  8
0
  6
Continuous
 62
     7
370
    25
100
AcDbCircle
 10
619.3607021634
 20
524.4395604719
 30
0.0
 40
14.72500000000016
100
AcDbArc
 50
22.7840658168
 51
41.9510969422
  0
SPLINE
  5
D2
330
1F
100
AcDbEntity
  8
0
  6
Continuous
 62
     7
370
    25
100
AcDbSpline
210
0.0
220
0.0
230
1.0
 70
     8
 71
     3
 72
     9
 73
     5
 74
     0
 42
0.00000001
 43
0.00000001
 40
0.0
 40
0.0
 40
0.0
 40
0.0
 40
0.5862283062032697
 40
1.0
 40
1.0
 40
1.0
 40
1.0
 10
622.8198416124105
 20
538.4875117087539
 30
0.0
 10
622.5076095494023
 20
538.6026305801463
 30
0.0
 10
621.9749978353237
 20
538.7990026593764
 30
0.0
 10
621.4341035080845
 20
538.9750798688601
 30
0.0
 10
621.2102967461376
 20
539.0479356340674
 30
0.0
  0
SPLINE
  5
D3
330
1F
100
AcDbEntity
  8
0
  6
Continuous
 62
     7
370
    25
100
AcDbSpline
210
0.0
220
0.0
230
1.0
 70
     8
 71
     3
 72
     9
 73
     5
 74
     0
 42
0.00000001
 43
0.00000001
 40
0.0
 40
0.0
 40
0.0
 40
0.0
 40
0.5863847898283648
 40
0.9999999999999999
 40
0.9999999999999999
 40
0.9999999999999999
 40
0.9999999999999999
 10
616.3114970600216
 20
538.8453916952747
 30
0.0
 10
616.0041925206738
 20
538.715675369631
 30
0.0
 10
615.4801261658188
 20
538.4944617094308
 30
0.0
 10
614.9662540885815
 20
538.2536257958948
 30
0.0
 10
614.7537087813537
 20
538.1540123989008
 30
0.0
  0
ARC
  5
D4
330
1F
100
AcDbEntity
  8
0
  6
Continuous
 62
     7
370
    25
100
AcDbCircle
 10
619.3607021634
 20
524.4395604719
 30
0.0
 40
14.72500000000002
100
AcDbArc
 50
82.7840658168
 51
101.9510969422
  0
SPLINE
  5
D5
330
1F
100
AcDbEntity
  8
0
  6
Continuous
 62
     7
370
    25
100
AcDbSpline
210
0.0
220
0.0
230
1.0
 70
     8
 71
     3
 72
     9
 73
     5
 74
     0
 42
0.00000001
 43
0.00000001
 40
0.0
 40
0.0
 40
0.0
 40
0.0
 40
0.5862283062032672
 40
1.0
 40
1.0
 40
1.0
 40
1.0
 10
608.9243892456511
 20
534.4592387283584
 30
0.0
 10
608.668577347066
 20
534.2463972656136
 30
0.0
 10
608.2322082808198
 20
533.8833280304833
 30
0.0
 10
607.8092737807596
 20
533.5029384070732
 30
0.0
 10
607.6342754563045
 20
533.3455439482922
 30
0.0
  0
SPLINE
  5
D6
330
1F
100
AcDbEntity
  8
0
  6
Continuous
 62
     7
370
    25
100
AcDbSpline
210
0.0
220
0.0
230
1.0
 70
     8
 71
     3
 72
     9
 73
     5
 74
     0
 42
0.00000001
 43
0.00000001
 40
0.0
 40
0.0
 40
0.0
 40
0.0
 40
0.5863847898283641
 40
1.0
 40
1.0
 40
1.0
 40
1.0
 10
605.3602838096236
 20
529.0017870026678
 30
0.0
 10
605.3189691732426
 20
528.6707953020726
 30
0.0
 10
605.2485126452128
 20
528.1063336953994
 30
0.0
 10
605.2001466258598
 20
527.5408894654486
 30
0.0
 10
605.1801417046001
 20
527.307013131437
 30
0.0
  0
ARC
  5
D7
330
1F
100
AcDbEntity
  8
0
  6
Continuous
 62
     7
370
    25
100
AcDbCircle
 10
619.3607021634
 20
524.4395604719
 30
0.0
 40
14.72500000000004
100
AcDbArc
 50
142.7840658168
 51
161.9510969422
  0
SPLINE
  5
D8
330
1F
100
AcDbEntity
  8
0
  6
Continuous
 62
     7
370
    25
100
AcDbSpline
210
0.0
220
0.0
230
1.0
 70
     8
 71
     3
 72
     9
 73
     5
 74
     0
 42
0.00000001
 43
0.00000001
 40
0.0
 40
0.0
 40
0.0
 40
0.0
 40
0.5862283062032879
 40
1.0
 40
1.0
 40
1.0
 40
1.0
 10
629.7970150812123
 20
514.4198822153734
 30
0.0
 10
630.0528269797974
 20
514.6327236781183
 30
0.0
 10
630.4891960460437
 20
514.9957929132485
 30
0.0
 10
630.9121305461039
 20
515.3761825366586
 30
0.0
 10
631.0871288705589
 20
515.5335769954397
 30
0.0
  0
SPLINE
  5
D9
330
1F
100
AcDbEntity
  8
0
  6
Continuous
 62
     7
370
    25
100
AcDbSpline
210
0.0
220
0.0
230
1.0
 70
     8
 71
     3
 72
     9
 73
     5
 74
     0
 42
0.00000001
 43
0.00000001
 40
0.0
 40
0.0
 40
0.0
 40
0.0
 40
0.5863847898283618
 40
0.9999999999999999
 40
0.9999999999999999
 40
0.9999999999999999
 40
0.9999999999999999
 10
633.3611205172398
 20
519.877333941064
 30
0.0
 10
633.4024351536206
 20
520.2083256416591
 30
0.0
 10
633.4728916816506
 20
520.7727872483324
 30
0.0
 10
633.5212577010035
 20
521.3382314782833
 30
0.0
 10
633.5412626222633
 20
521.5721078122948
 30
0.0
  0
ARC
  5
DA
330
1F
100
AcDbEntity
  8
0
  6
Continuous
 62
     7
370
    25
100
AcDbCircle
 10
619.3607021634
 20
524.4395604719
 30
0.0
 40
14.72500000000015
100
AcDbArc
 50
322.7840658168
 51
341.9510969422
  0
SPLINE
  5
DB
330
1F
100
AcDbEntity
  8
0
  6
Continuous
 62
     7
370
    25
100
AcDbSpline
210
0.0
220
0.0
230
1.0
 70
     8
 71
     3
 72
     9
 73
     5
 74
     0
 42
0.00000001
 43
0.00000001
 40
0.0
 40
0.0
 40
0.0
 40
0.0
 40
0.5863847898283627
 40
0.9999999999999999
 40
0.9999999999999999
 40
0.9999999999999999
 40
0.9999999999999999
 10
608.4094889130337
 20
514.5959557792592
 30
0.0
 10
608.6754788160006
 20
514.3946804043076
 30
0.0
 10
609.1290886428256
 20
514.0514324578346
 30
0.0
 10
609.5945947007101
 20
513.7268241414196
 30
0.0
 10
609.7871350866781
 20
513.5925612044022
 30
0.0
  0
ARC
  5
DC
330
1F
100
AcDbEntity
  8
0
  6
Continuous
 62
     7
370
    25
100
AcDbCircle
 10
619.3607021634
 20
524.4395604719
 30
0.0
 40
14.72500000000001
100
AcDbArc
 50
202.7840658168
 51
221.9510969422
  0
SPLINE
  5
DD
330
1F
100
AcDbEntity
  8
0
  6
Continuous
 62
     7
370
    25
100
AcDbSpline
210
0.0
220
0.0
230
1.0
 70
     8
 71
     3
 72
     9
 73
     5
 74
     0
 42
0.00000001
 43
0.00000001
 40
0.0
 40
0.0
 40
0.0
 40
0.0
 40
0.5862283062032903
 40
0.9999999999999999
 40
0.9999999999999999
 40
0.9999999999999999
 40
0.9999999999999999
 10
605.4652497966723
 20
520.4112874914705
 30
0.0
 10
605.5216699610954
 20
520.0833271573331
 30
0.0
 10
605.6179126089277
 20
519.523885842973
 30
0.0
 10
605.7358724361067
 20
518.9674190100789
 30
0.0
 10
605.7846808735986
 20
518.7371687860907
 30
0.0
  0
LINE
  5
DE
330
1F
100
AcDbEntity
  8
0
  6
Continuous
 62
     7
370
    25
100
AcDbLine
 10
611.4505575021
 20
512.4395604719
 30
0.0
 11
609.7255845627
 21
513.3425976593
 31
0.0
  0
ARC
  5
DF
330
1F
100
AcDbEntity
  8
0
  6
Continuous
 62
     7
370
    25
100
AcDbCircle
 10
610.112986136
 20
513.3797644814
 30
0.0
 40
0.3891803587959348
100
AcDbArc
 50
146.8534925694
 51
185.4801130187
  0
SPLINE
  5
E0
330
1F
100
AcDbEntity
  8
0
  6
Continuous
 62
     7
370
    25
100
AcDbSpline
210
0.0
220
0.0
230
1.0
 70
    24
 71
     3
 72
    10
 73
     6
 74
     0
 42
0.00000001
 43
0.00000001
 40
0.0
 40
0.0
 40
0.0
 40
0.0
 40
0.6588579034621735
 40
0.8981530991963141
 40
1.0
 40
1.0
 40
1.0
 40
1.0
 10
629.8789900524237
 20
514.1758528216538
 30
0.0
 10
629.3053640677408
 20
513.8122738186563
 30
0.0
 10
628.5233988621706
 20
513.3166440225667
 30
0.0
 10
627.6486260952428
 20
512.7621903908595
 30
0.0
 10
627.3498891419789
 20
512.5728431741599
 30
0.0
 10
627.2607021634317
 20
512.5163141576816
 30
0.0
  0
ARC
  5
E1
330
1F
100
AcDbEntity
  8
0
  6
Continuous
 62
     7
370
    25
100
AcDbCircle
 10
629.4898425882
 20
514.1809127378
 30
0.0
 40
0.3891803587992405
100
AcDbArc
 50
359.2550497404
 51
37.8816701894
  0
ARC
  5
E2
330
1F
100
AcDbEntity
  8
0
  6
Continuous
 62
     7
370
    25
100
AcDbCircle
 10
605.4118824049
 20
520.7967914126
 30
0.0
 40
0.3891803588378075
100
AcDbArc
 50
239.2550497425
 51
277.8816701874
  0
SPLINE
  5
E3
330
1F
100
AcDbEntity
  8
0
  6
Continuous
 62
     7
370
    25
100
AcDbSpline
210
0.0
220
0.0
230
1.0
 70
    24
 71
     3
 72
    12
 73
     8
 74
     0
 42
0.00000001
 43
0.00000001
 40
0.0
 40
0.0
 40
0.0
 40
0.0
 40
0.3013828945620948
 40
0.4108442493795588
 40
0.6247185195336508
 40
0.6986171054378638
 40
1.0
 40
1.0
 40
1.0
 40
1.0
 10
605.2129266568353
 20
520.4623097807867
 30
0.0
 10
605.1848713594642
 20
521.1408651736324
 30
0.0
 10
605.1466264630299
 20
522.0658698307188
 30
0.0
 10
605.0881929814102
 20
523.4791627839563
 30
0.0
 10
605.0509676719669
 20
524.3795073477282
 30
0.0
 10
604.9958799133661
 20
525.7118794549873
 30
0.0
 10
604.9609463112521
 20
526.5567959708368
 30
0.0
 10
604.9328916624868
 20
527.2353356762698
 30
0.0
  0
ARC
  5
E4
330
1F
100
AcDbEntity
  8
0
  6
Continuous
 62
     7
370
    25
100
AcDbCircle
 10
605.1587798613
 20
526.9184194834
 30
0.0
 40
0.3891803587944877
100
AcDbArc
 50
86.8534925693
 51
125.4801130187
  0
ARC
  5
E5
330
1F
100
AcDbEntity
  8
0
  6
Continuous
 62
     7
370
    25
100
AcDbCircle
 10
609.2315617387
 20
534.6982082059
 30
0.0
 40
0.3891803588382892
100
AcDbArc
 50
179.2550497424
 51
217.8816701873
  0
SPLINE
  5
E6
330
1F
100
AcDbEntity
  8
0
  6
Continuous
 62
     7
370
    25
100
AcDbSpline
210
0.0
220
0.0
230
1.0
 70
    24
 71
     3
 72
    12
 73
     8
 74
     0
 42
0.00000001
 43
0.00000001
 40
0.0
 40
0.0
 40
0.0
 40
0.0
 40
0.3013828945621506
 40
0.4108442493795786
 40
0.6247185195336594
 40
0.6986171054378614
 40
1.0
 40
1.0
 40
1.0
 40
1.0
 10
608.8424142744398
 20
534.703268122078
 30
0.0
 10
609.4160328338335
 20
535.0668424187351
 30
0.0
 10
610.1979879172721
 20
535.5624657991556
 30
0.0
 10
611.3927187769557
 20
536.3197171552885
 30
0.0
 10
612.1538273866195
 20
536.802127500816
 30
0.0
 10
613.2801515994994
 20
537.5160209528314
 30
0.0
 10
613.9944039652449
 20
537.9687325976325
 30
0.0
 10
614.5680092632438
 20
538.3322984888741
 30
0.0
  0
ARC
  5
E7
330
1F
100
AcDbEntity
  8
0
  6
Continuous
 62
     7
370
    25
100
AcDbCircle
 10
614.4064958887
 20
537.9782154739
 30
0.0
 40
0.3891803587989599
100
AcDbArc
 50
26.8534925695
 51
65.4801130185
  0
ARC
  5
E8
330
1F
100
AcDbEntity
  8
0
  6
Continuous
 62
     7
370
    25
100
AcDbCircle
 10
623.1803814972
 20
538.3409772652
 30
0.0
 40
0.3891803588382583
100
AcDbArc
 50
119.2550497425
 51
157.8816701873
  0
SPLINE
  5
E9
330
1F
100
AcDbEntity
  8
0
  6
Continuous
 62
     7
370
    25
100
AcDbSpline
210
0.0
220
0.0
230
1.0
 70
    24
 71
     3
 72
    12
 73
     8
 74
     0
 42
0.00000001
 43
0.00000001
 40
0.0
 40
0.0
 40
0.0
 40
0.0
 40
0.3013828945621497
 40
0.4108442493795585
 40
0.6247185195336376
 40
0.6986171054378634
 40
1.0
 40
1.0
 40
1.0
 40
1.0
 10
622.9901897810361
 20
538.6805188131572
 30
0.0
 10
623.5918636378011
 20
538.3655377169684
 30
0.0
 10
624.412063617674
 20
537.9361564403025
 30
0.0
 10
625.6652279589771
 20
537.2801148431978
 30
0.0
 10
626.4635618780843
 20
536.8621806249537
 30
0.0
 10
627.6449738495647
 20
536.24370196971
 30
0.0
 10
628.3941598174246
 20
535.8514970986616
 30
0.0
 10
628.9958197641886
 20
535.5365232844701
 30
0.0
  0
ARC
  5
EA
330
1F
100
AcDbEntity
  8
0
  6
Continuous
 62
     7
370
    25
100
AcDbCircle
 10
628.6084181909
 20
535.4993564624
 30
0.0
 40
0.3891803587959348
100
AcDbArc
 50
326.8534925694
 51
5.4801130187
  0
SPLINE
  5
EB
330
1F
100
AcDbEntity
  8
0
  6
Continuous
 62
     7
370
    25
100
AcDbSpline
210
0.0
220
0.0
230
1.0
 70
    24
 71
     3
 72
    12
 73
     8
 74
     0
 42
0.00000001
 43
0.00000001
 40
0.0
 40
0.0
 40
0.0
 40
0.0
 40
0.3013828945621527
 40
0.4108442493795542
 40
0.624718519533646
 40
0.6986171054378584
 40
1.0
 40
1.0
 40
1.0
 40
1.0
 10
633.5084776700279
 20
528.416811162945
 30
0.0
 10
633.5365329673992
 20
527.7382557700994
 30
0.0
 10
633.5747778638336
 20
526.8132511130128
 30
0.0
 10
633.6332113454531
 20
525.3999581597752
 30
0.0
 10
633.6704366548965
 20
524.4996135960037
 30
0.0
 10
633.7255244134973
 20
523.1672414887445
 30
0.0
 10
633.7604580156113
 20
522.322324972895
 30
0.0
 10
633.7885126643766
 20
521.643785267462
 30
0.0
  0
ARC
  5
EC
330
1F
100
AcDbEntity
  8
0
  6
Continuous
 62
     7
370
    25
100
AcDbCircle
 10
633.5626244656
 20
521.9607014604
 30
0.0
 40
0.3891803587963862
100
AcDbArc
 50
266.8534925694
 51
305.4801130186
  0
ARC
  5
ED
330
1F
100
AcDbEntity
  8
0
  6
Continuous
 62
     7
370
    25
100
AcDbCircle
 10
633.309521922
 20
528.0823295312
 30
0.0
 40
0.3891803587959586
100
AcDbArc
 50
59.2550497403
 51
97.8816701895
  0
LINE
  5
EE
330
1F
100
AcDbEntity
  8
0
  6
Continuous
 62
     7
370
    25
100
AcDbLine
 10
628.9958197642
 20
535.5365232845
 30
0.0
 11
630.5438141065
 21
534.726135814
 31
0.0
  0
LINE
  5
EF
330
1F
100
AcDbEntity
  8
0
  6
Continuous
 62
     7
370
    25
100
AcDbLine
 10
630.5438141065
 20
534.726135814
 30
0.0
 11
630.3119154138
 21
534.2831651645
 31
0.0
  0
LINE
  5
F0
330
1F
100
AcDbEntity
  8
0
  6
Continuous
 62
     7
370
    25
100
AcDbLine
 10
614.5680092632
 20
538.3322984889
 30
0.0
 11
616.0438225707
 21
539.267707179
 31
0.0
  0
LINE
  5
F1
330
1F
100
AcDbEntity
  8
0
  6
Continuous
 62
     7
370
    25
100
AcDbLine
 10
616.0438225707
 20
539.267707179
 30
0.0
 11
616.31149706
 21
538.8453916953
 31
0.0
  0
LINE
  5
F2
330
1F
100
AcDbEntity
  8
0
  6
Continuous
 62
     7
370
    25
100
AcDbLine
 10
633.7885126644
 20
521.6437852675
 30
0.0
 11
633.8606936992
 21
519.8979891069
 31
0.0
  0
LINE
  5
F3
330
1F
100
AcDbEntity
  8
0
  6
Continuous
 62
     7
370
    25
100
AcDbLine
 10
633.8606936992
 20
519.8979891069
 30
0.0
 11
633.3611205172
 21
519.8773339411
 31
0.0
  0
LINE
  5
F4
330
1F
100
AcDbEntity
  8
0
  6
Continuous
 62
     7
370
    25
100
AcDbLine
 10
604.9328916625
 20
527.2353356763
 30
0.0
 11
604.8607106277
 21
528.9811318368
 31
0.0
  0
LINE
  5
F5
330
1F
100
AcDbEntity
  8
0
  6
Continuous
 62
     7
370
    25
100
AcDbLine
 10
605.3602838096
 20
529.0017870027
 30
0.0
 11
604.8607106277
 21
528.9811318368
 31
0.0
  0
LINE
  5
F6
330
1F
100
AcDbEntity
  8
0
  6
Continuous
 62
     7
370
    25
100
AcDbLine
 10
609.7255845627
 20
513.3425976593
 30
0.0
 11
608.1775902204
 21
514.1529851297
 31
0.0
  0
LINE
  5
F7
330
1F
100
AcDbEntity
  8
0
  6
Continuous
 62
     7
370
    25
100
AcDbLine
 10
608.1775902204
 20
514.1529851297
 30
0.0
 11
608.409488913
 21
514.5959557793
 31
0.0
  0
LINE
  5
F8
330
1F
100
AcDbEntity
  8
0
  6
Continuous
 62
     7
370
    25
100
AcDbLine
 10
621.2102967461
 20
539.0479356341
 30
0.0
 11
621.4421954388
 21
539.4909062836
 31
0.0
  0
LINE
  5
F9
330
1F
100
AcDbEntity
  8
0
  6
Continuous
 62
     7
370
    25
100
AcDbLine
 10
621.4421954388
 20
539.4909062836
 30
0.0
 11
622.990189781
 21
538.6805188132
 31
0.0
  0
LINE
  5
FA
330
1F
100
AcDbEntity
  8
0
  6
Continuous
 62
     7
370
    25
100
AcDbLine
 10
633.4362966352
 20
530.1626073235
 30
0.0
 11
633.50847767
 21
528.4168111629
 31
0.0
  0
LINE
  5
FB
330
1F
100
AcDbEntity
  8
0
  6
Continuous
 62
     7
370
    25
100
AcDbLine
 10
632.9367234533
 20
530.1419521576
 30
0.0
 11
633.4362966352
 21
530.1626073235
 31
0.0
  0
LINE
  5
FC
330
1F
100
AcDbEntity
  8
0
  6
Continuous
 62
     7
370
    25
100
AcDbLine
 10
607.6342754563
 20
533.3455439483
 30
0.0
 11
607.366600967
 21
533.767859432
 31
0.0
  0
LINE
  5
FD
330
1F
100
AcDbEntity
  8
0
  6
Continuous
 62
     7
370
    25
100
AcDbLine
 10
607.366600967
 20
533.767859432
 30
0.0
 11
608.8424142744
 21
534.7032681221
 31
0.0
  0
LINE
  5
FE
330
1F
100
AcDbEntity
  8
0
  6
Continuous
 62
     7
370
    25
100
AcDbLine
 10
631.3548033599
 20
515.1112615117
 30
0.0
 11
629.8789900524
 21
514.1758528217
 31
0.0
  0
LINE
  5
FF
330
1F
100
AcDbEntity
  8
0
  6
Continuous
 62
     7
370
    25
100
AcDbLine
 10
631.0871288706
 20
515.5335769954
 30
0.0
 11
631.3548033599
 21
515.1112615117
 31
0.0
  0
LINE
  5
100
330
1F
100
AcDbEntity
  8
0
  6
Continuous
 62
     7
370
    25
100
AcDbLine
 10
605.7846808736
 20
518.7371687861
 30
0.0
 11
605.2851076916
 21
518.7165136202
 31
0.0
  0
LINE
  5
101
330
1F
100
AcDbEntity
  8
0
  6
Continuous
 62
     7
370
    25
100
AcDbLine
 10
605.2851076916
 20
518.7165136202
 30
0.0
 11
605.2129266568
 21
520.4623097808
 31
0.0
  0
LINE
  5
102
330
1F
100
AcDbEntity
  8
0
  6
Continuous
 62
     7
370
    25
100
AcDbLine
 10
621.2102967461
 20
539.0479356341
 30
0.0
 11
619.5084690528
 21
539.9388560993
 31
0.0
  0
LINE
  5
103
330
1F
100
AcDbEntity
  8
0
  6
Continuous
 62
     7
370
    25
100
AcDbLine
 10
619.5084690528
 20
539.9388560993
 30
0.0
 11
619.7403677454
 21
540.3818267488
 31
0.0
  0
LINE
  5
104
330
1F
100
AcDbEntity
  8
0
  6
Continuous
 62
     7
370
    25
100
AcDbLine
 10
619.7403677454
 20
540.3818267488
 30
0.0
 11
621.4421954388
 21
539.4909062836
 31
0.0
  0
LINE
  5
105
330
1F
100
AcDbEntity
  8
0
  6
Continuous
 62
     7
370
    25
100
AcDbLine
 10
617.9339706623
 20
539.873757478
 30
0.0
 11
616.31149706
 21
538.8453916953
 31
0.0
  0
ARC
  5
106
330
1F
100
AcDbEntity
  8
0
  6
Continuous
 62
     7
370
    25
100
AcDbCircle
 10
619.3607021634
 20
524.4395604719
 30
0.0
 40
15.50000000000005
100
AcDbArc
 50
89.453771138
 51
95.2813916209
  0
LINE
  5
107
330
1F
100
AcDbEntity
  8
0
  6
Continuous
 62
     7
370
    25
100
AcDbLine
 10
630.5438141065
 20
534.726135814
 30
0.0
 11
632.2456417998
 21
533.8352153488
 31
0.0
  0
LINE
  5
108
330
1F
100
AcDbEntity
  8
0
  6
Continuous
 62
     7
370
    25
100
AcDbLine
 10
632.2456417998
 20
533.8352153488
 30
0.0
 11
632.0137431072
 21
533.3922446992
 31
0.0
  0
LINE
  5
109
330
1F
100
AcDbEntity
  8
0
  6
Continuous
 62
     7
370
    25
100
AcDbLine
 10
632.0137431072
 20
533.3922446992
 30
0.0
 11
630.3119154138
 21
534.2831651645
 31
0.0
  0
LINE
  5
10A
330
1F
100
AcDbEntity
  8
0
  6
Continuous
 62
     7
370
    25
100
AcDbLine
 10
632.9367234533
 20
530.1419521576
 30
0.0
 11
632.8573693622
 21
532.0612384056
 31
0.0
  0
ARC
  5
10B
330
1F
100
AcDbEntity
  8
0
  6
Continuous
 62
     7
370
    25
100
AcDbCircle
 10
619.3607021634
 20
524.4395604719
 30
0.0
 40
15.50000000000016
100
AcDbArc
 50
29.453771138
 51
35.2813916209
  0
ARC
  5
10C
330
1F
100
AcDbEntity
  8
0
  6
Continuous
 62
     7
370
    25
100
AcDbCircle
 10
632.0137431072
 20
533.3922446992
 30
0.0
 40
0.4999999999999625
100
AcDbArc
 50
35.2813916209
 51
62.3675813795
  0
LINE
  5
10D
330
1F
100
AcDbEntity
  8
0
  6
Continuous
 62
     7
370
    25
100
AcDbLine
 10
632.0137431072
 20
533.3922446992
 30
0.0
 11
632.4219057183
 21
533.6810409646
 31
0.0
  0
ARC
  5
10E
330
1F
100
AcDbEntity
  8
0
  6
Continuous
 62
     7
370
    25
100
AcDbCircle
 10
619.5084690528
 20
539.9388560993
 30
0.0
 40
0.5000000000000672
100
AcDbArc
 50
62.3675813795
 51
89.453771138
  0
LINE
  5
10F
330
1F
100
AcDbEntity
  8
0
  6
Continuous
 62
     7
370
    25
100
AcDbLine
 10
619.5084690528
 20
539.9388560993
 30
0.0
 11
619.5132357266
 21
540.4388333776
 31
0.0
  0
ARC
  5
110
330
1F
100
AcDbEntity
  8
0
  6
Continuous
 62
     7
370
    25
100
AcDbCircle
 10
619.3607021634
 20
524.4395604719
 30
0.0
 40
16.00000000000012
100
AcDbArc
 50
29.453771138
 51
35.2813916209
  0
LINE
  5
111
330
1F
100
AcDbEntity
  8
0
  6
Continuous
 62
     7
370
    25
100
AcDbLine
 10
633.2927457235
 20
532.3070989841
 30
0.0
 11
632.8573693622
 21
532.0612384056
 31
0.0
  0
LINE
  5
112
330
1F
100
AcDbEntity
  8
0
  6
Continuous
 62
     7
370
    25
100
AcDbLine
 10
617.9339706623
 20
539.873757478
 30
0.0
 11
617.8879470655
 21
540.3716348008
 31
0.0
  0
ARC
  5
113
330
1F
100
AcDbEntity
  8
0
  6
Continuous
 62
     7
370
    25
100
AcDbCircle
 10
619.3607021634
 20
524.4395604719
 30
0.0
 40
16.00000000000005
100
AcDbArc
 50
89.453771138
 51
95.2813916209
  0
LINE
  5
114
330
1F
100
AcDbEntity
  8
0
  6
Continuous
 62
     7
370
    25
100
AcDbLine
 10
616.0438225707
 20
539.267707179
 30
0.0
 11
617.666296173
 21
540.2960729617
 31
0.0
  0
LINE
  5
115
330
1F
100
AcDbEntity
  8
0
  6
Continuous
 62
     7
370
    25
100
AcDbLine
 10
617.666296173
 20
540.2960729617
 30
0.0
 11
617.9339706623
 21
539.873757478
 31
0.0
  0
ARC
  5
116
330
1F
100
AcDbEntity
  8
0
  6
Continuous
 62
     7
370
    25
100
AcDbCircle
 10
632.8573693622
 20
532.0612384056
 30
0.0
 40
0.5000000000000182
100
AcDbArc
 50
2.3675813795
 51
29.453771138
  0
LINE
  5
117
330
1F
100
AcDbEntity
  8
0
  6
Continuous
 62
     7
370
    25
100
AcDbLine
 10
632.8573693622
 20
532.0612384056
 30
0.0
 11
633.3569425442
 21
532.0818935714
 31
0.0
  0
ARC
  5
118
330
1F
100
AcDbEntity
  8
0
  6
Continuous
 62
     7
370
    25
100
AcDbCircle
 10
617.9339706623
 20
539.873757478
 30
0.0
 40
0.4999999999999357
100
AcDbArc
 50
95.2813916209
 51
122.3675813795
  0
LINE
  5
119
330
1F
100
AcDbEntity
  8
0
  6
Continuous
 62
     7
370
    25
100
AcDbLine
 10
633.3569425442
 20
532.0818935714
 30
0.0
 11
633.4362966352
 21
530.1626073235
 31
0.0
  0
LINE
  5
11A
330
1F
100
AcDbEntity
  8
0
  6
Continuous
 62
     7
370
    25
100
AcDbLine
 10
633.8606936992
 20
519.8979891069
 30
0.0
 11
633.9400477902
 21
517.978702859
 31
0.0
  0
LINE
  5
11B
330
1F
100
AcDbEntity
  8
0
  6
Continuous
 62
     7
370
    25
100
AcDbLine
 10
633.9400477902
 20
517.978702859
 30
0.0
 11
633.4404746083
 21
517.9580476931
 31
0.0
  0
LINE
  5
11C
330
1F
100
AcDbEntity
  8
0
  6
Continuous
 62
     7
370
    25
100
AcDbLine
 10
633.4404746083
 20
517.9580476931
 30
0.0
 11
633.3611205172
 21
519.8773339411
 31
0.0
  0
LINE
  5
11D
330
1F
100
AcDbEntity
  8
0
  6
Continuous
 62
     7
370
    25
100
AcDbLine
 10
607.6342754563
 20
533.3455439483
 30
0.0
 11
606.011801854
 21
532.3171781656
 31
0.0
  0
LINE
  5
11E
330
1F
100
AcDbEntity
  8
0
  6
Continuous
 62
     7
370
    25
100
AcDbLine
 10
605.2809297186
 20
530.9210732506
 30
0.0
 11
605.3602838096
 21
529.0017870027
 31
0.0
  0
ARC
  5
11F
330
1F
100
AcDbEntity
  8
0
  6
Continuous
 62
     7
370
    25
100
AcDbCircle
 10
619.3607021634
 20
524.4395604719
 30
0.0
 40
15.49999999999992
100
AcDbArc
 50
149.453771138
 51
155.2813916209
  0
LINE
  5
120
330
1F
100
AcDbEntity
  8
0
  6
Continuous
 62
     7
370
    25
100
AcDbLine
 10
633.8946608162
 20
517.7489666357
 30
0.0
 11
633.4404746083
 21
517.9580476931
 31
0.0
  0
ARC
  5
121
330
1F
100
AcDbEntity
  8
0
  6
Continuous
 62
     7
370
    25
100
AcDbCircle
 10
633.4404746083
 20
517.9580476931
 30
0.0
 40
0.5000000000000183
100
AcDbArc
 50
335.2813916209
 51
2.3675813795
  0
LINE
  5
122
330
1F
100
AcDbEntity
  8
0
  6
Continuous
 62
     7
370
    25
100
AcDbLine
 10
631.0871288706
 20
515.5335769954
 30
0.0
 11
632.7096024729
 21
516.5619427782
 31
0.0
  0
ARC
  5
123
330
1F
100
AcDbEntity
  8
0
  6
Continuous
 62
     7
370
    25
100
AcDbCircle
 10
619.3607021634
 20
524.4395604719
 30
0.0
 40
15.50000000000013
100
AcDbArc
 50
329.453771138
 51
335.2813916209
  0
ARC
  5
124
330
1F
100
AcDbEntity
  8
0
  6
Continuous
 62
     7
370
    25
100
AcDbCircle
 10
606.011801854
 20
532.3171781656
 30
0.0
 40
0.5000000000000915
100
AcDbArc
 50
122.3675813795
 51
149.4537711381
  0
LINE
  5
125
330
1F
100
AcDbEntity
  8
0
  6
Continuous
 62
     7
370
    25
100
AcDbLine
 10
606.011801854
 20
532.3171781656
 30
0.0
 11
605.7441273647
 21
532.7394936493
 31
0.0
  0
LINE
  5
126
330
1F
100
AcDbEntity
  8
0
  6
Continuous
 62
     7
370
    25
100
AcDbLine
 10
606.011801854
 20
532.3171781656
 30
0.0
 11
605.5811921666
 21
532.5712948654
 31
0.0
  0
LINE
  5
127
330
1F
100
AcDbEntity
  8
0
  6
Continuous
 62
     7
370
    25
100
AcDbLine
 10
605.7441273647
 20
532.7394936493
 30
0.0
 11
607.366600967
 21
533.767859432
 31
0.0
  0
ARC
  5
128
330
1F
100
AcDbEntity
  8
0
  6
Continuous
 62
     7
370
    25
100
AcDbCircle
 10
619.3607021634
 20
524.4395604719
 30
0.0
 40
16.00000000000015
100
AcDbArc
 50
329.453771138
 51
335.2813916209
  0
LINE
  5
129
330
1F
100
AcDbEntity
  8
0
  6
Continuous
 62
     7
370
    25
100
AcDbLine
 10
633.1402121603
 20
516.3078260784
 30
0.0
 11
632.7096024729
 21
516.5619427782
 31
0.0
  0
LINE
  5
12A
330
1F
100
AcDbEntity
  8
0
  6
Continuous
 62
     7
370
    25
100
AcDbLine
 10
604.8607106277
 20
528.9811318368
 30
0.0
 11
604.7813565366
 21
530.9004180848
 31
0.0
  0
LINE
  5
12B
330
1F
100
AcDbEntity
  8
0
  6
Continuous
 62
     7
370
    25
100
AcDbLine
 10
605.2809297186
 20
530.9210732506
 30
0.0
 11
604.7813565366
 21
530.9004180848
 31
0.0
  0
ARC
  5
12C
330
1F
100
AcDbEntity
  8
0
  6
Continuous
 62
     7
370
    25
100
AcDbCircle
 10
632.7096024729
 20
516.5619427782
 30
0.0
 40
0.5000000000000433
100
AcDbArc
 50
302.3675813795
 51
329.4537711381
  0
LINE
  5
12D
330
1F
100
AcDbEntity
  8
0
  6
Continuous
 62
     7
370
    25
100
AcDbLine
 10
632.7096024729
 20
516.5619427782
 30
0.0
 11
632.9772769622
 21
516.1396272945
 31
0.0
  0
LINE
  5
12E
330
1F
100
AcDbEntity
  8
0
  6
Continuous
 62
     7
370
    25
100
AcDbLine
 10
632.9772769622
 20
516.1396272945
 30
0.0
 11
631.3548033599
 21
515.1112615117
 31
0.0
  0
ARC
  5
12F
330
1F
100
AcDbEntity
  8
0
  6
Continuous
 62
     7
370
    25
100
AcDbCircle
 10
605.2809297186
 20
530.9210732506
 30
0.0
 40
0.5000000000000183
100
AcDbArc
 50
155.2813916209
 51
182.3675813795
  0
LINE
  5
130
330
1F
100
AcDbEntity
  8
0
  6
Continuous
 62
     7
370
    25
100
AcDbLine
 10
605.2809297186
 20
530.9210732506
 30
0.0
 11
604.8267435107
 21
531.130154308
 31
0.0
  0
ARC
  5
131
330
1F
100
AcDbEntity
  8
0
  6
Continuous
 62
     7
370
    25
100
AcDbCircle
 10
619.3607021634
 20
524.4395604719
 30
0.0
 40
15.99999999999994
100
AcDbArc
 50
149.453771138
 51
155.2813916209
  0
LINE
  5
132
330
1F
100
AcDbEntity
  8
0
  6
Continuous
 62
     7
370
    25
100
AcDbLine
 10
606.7076612197
 20
515.4868762445
 30
0.0
 11
608.409488913
 21
514.5959557793
 31
0.0
  0
ARC
  5
133
330
1F
100
AcDbEntity
  8
0
  6
Continuous
 62
     7
370
    25
100
AcDbCircle
 10
619.3607021634
 20
524.4395604719
 30
0.0
 40
15.49999999999998
100
AcDbArc
 50
209.453771138
 51
215.2813916209
  0
LINE
  5
134
330
1F
100
AcDbEntity
  8
0
  6
Continuous
 62
     7
370
    25
100
AcDbLine
 10
605.7846808736
 20
518.7371687861
 30
0.0
 11
605.8640349646
 21
516.8178825381
 31
0.0
  0
LINE
  5
135
330
1F
100
AcDbEntity
  8
0
  6
Continuous
 62
     7
370
    25
100
AcDbLine
 10
608.1775902204
 20
514.1529851297
 30
0.0
 11
606.475762527
 21
515.0439055949
 31
0.0
  0
LINE
  5
136
330
1F
100
AcDbEntity
  8
0
  6
Continuous
 62
     7
370
    25
100
AcDbLine
 10
606.475762527
 20
515.0439055949
 30
0.0
 11
606.7076612197
 21
515.4868762445
 31
0.0
  0
LINE
  5
137
330
1F
100
AcDbEntity
  8
0
  6
Continuous
 62
     7
370
    25
100
AcDbLine
 10
606.2994986086
 20
515.1980799791
 30
0.0
 11
606.7076612197
 21
515.4868762445
 31
0.0
  0
ARC
  5
138
330
1F
100
AcDbEntity
  8
0
  6
Continuous
 62
     7
370
    25
100
AcDbCircle
 10
606.7076612197
 20
515.4868762445
 30
0.0
 40
0.4999999999999138
100
AcDbArc
 50
215.2813916209
 51
242.3675813795
  0
ARC
  5
139
330
1F
100
AcDbEntity
  8
0
  6
Continuous
 62
     7
370
    25
100
AcDbCircle
 10
619.3607021634
 20
524.4395604719
 30
0.0
 40
15.99999999999987
100
AcDbArc
 50
209.453771138
 51
215.2813916209
  0
LINE
  5
13A
330
1F
100
AcDbEntity
  8
0
  6
Continuous
 62
     7
370
    25
100
AcDbLine
 10
605.8640349646
 20
516.8178825381
 30
0.0
 11
605.4286586034
 21
516.5720219596
 31
0.0
  0
ARC
  5
13B
330
1F
100
AcDbEntity
  8
0
  6
Continuous
 62
     7
370
    25
100
AcDbCircle
 10
605.8640349646
 20
516.8178825381
 30
0.0
 40
0.5000000000000182
100
AcDbArc
 50
182.3675813795
 51
209.453771138
  0
LINE
  5
13C
330
1F
100
AcDbEntity
  8
0
  6
Continuous
 62
     7
370
    25
100
AcDbLine
 10
605.8640349646
 20
516.8178825381
 30
0.0
 11
605.3644617827
 21
516.7972273723
 31
0.0
  0
LINE
  5
13D
330
1F
100
AcDbEntity
  8
0
  6
Continuous
 62
     7
370
    25
100
AcDbLine
 10
605.3644617827
 20
516.7972273723
 30
0.0
 11
605.2851076916
 21
518.7165136202
 31
0.0
  0
ARC
  5
13E
330
1F
100
AcDbEntity
  8
0
  6
Continuous
 62
     7
370
    25
100
AcDbCircle
 10
619.3607021634
 20
524.4395604719
 30
0.0
 40
8.050000000000058
100
AcDbArc
 50
29.4063269879
 51
191.0780164461
  0
ARC
  5
13F
330
1F
100
AcDbEntity
  8
0
  6
Continuous
 62
     7
370
    25
100
AcDbCircle
 10
619.3607021634
 20
524.4395604719
 30
0.0
 40
8.050000000000058
100
AcDbArc
 50
348.9219835539
 51
29.4063269879
  0
ARC
  5
140
330
1F
100
AcDbEntity
  8
0
  6
Continuous
 62
     7
370
    25
100
AcDbCircle
 10
619.3607021634
 20
524.4395604719
 30
0.0
 40
8.250000000000059
100
AcDbArc
 50
343.2508741362
 51
119.4063269879
  0
ARC
  5
141
330
1F
100
AcDbEntity
  8
0
  6
Continuous
 62
     7
370
    25
100
AcDbCircle
 10
619.3607021634
 20
524.4395604719
 30
0.0
 40
8.25
100
AcDbArc
 50
119.4063269879
 51
196.7491258638
  0
ARC
  5
142
330
1F
100
AcDbEntity
  8
0
  6
Continuous
 62
     7
370
    25
100
AcDbCircle
 10
619.3607021634
 20
524.4395604719
 30
0.0
 40
9.575000000000028
100
AcDbArc
 50
325.5951096848
 51
119.4063269879
  0
ARC
  5
143
330
1F
100
AcDbEntity
  8
0
  6
Continuous
 62
     7
370
    25
100
AcDbCircle
 10
619.3607021634
 20
524.4395604719
 30
0.0
 40
9.574999999999944
100
AcDbArc
 50
119.4063269879
 51
214.4048903152
  0
CIRCLE
  5
144
330
1F
100
AcDbEntity
  8
0
  6
Continuous
 62
     7
370
    25
100
AcDbCircle
 10
720.9607021634
 20
524.4395604719
 30
0.0
 40
5.328914336627577
  0
CIRCLE
  5
145
330
1F
100
AcDbEntity
  8
0
  6
Continuous
 62
     7
370
    25
100
AcDbCircle
 10
720.9607021634
 20
524.4395604719
 30
0.0
 40
5.074569253689219
  0
CIRCLE
  5
146
330
1F
100
AcDbEntity
  8
0
  6
Continuous
 62
     7
370
    25
100
AcDbCircle
 10
720.9607021634
 20
524.4395604719
 30
0.0
 40
4.452105871057256
  0
CIRCLE
  5
147
330
1F
100
AcDbEntity
  8
0
  6
Continuous
 62
     7
370
    25
100
AcDbCircle
 10
720.9607021634
 20
524.4395604719
 30
0.0
 40
5.925127771161442
  0
CIRCLE
  5
148
330
1F
100
AcDbEntity
  8
0
  6
Continuous
 62
     7
370
    25
100
AcDbCircle
 10
720.9607021634
 20
524.4395604719
 30
0.0
 40
7.149999999999977
  0
LINE
  5
149
330
1F
100
AcDbEntity
  8
0
  6
Continuous
 62
     7
370
    25
100
AcDbLine
 10
720.9541292043
 20
527.107885189
 30
0.0
 11
722.1240597728
 21
526.8409348851
 31
0.0
  0
LINE
  5
14A
330
1F
100
AcDbEntity
  8
0
  6
Continuous
 62
     7
370
    25
100
AcDbLine
 10
720.676055971
 20
525.8892075134
 30
0.0
 11
720.9541292043
 21
527.107885189
 31
0.0
  0
SPLINE
  5
14B
330
1F
100
AcDbEntity
  8
0
  6
Continuous
 62
     7
370
    25
100
AcDbSpline
210
0.0
220
0.0
230
1.0
 70
     8
 71
     3
 72
    12
 73
     8
 74
     0
 42
0.00000001
 43
0.00000001
 40
0.0
 40
0.0
 40
0.0
 40
0.0
 40
0.2133534395476135
 40
0.4267919313634461
 40
0.638353973909149
 40
0.8490950351927548
 40
0.9999999999999999
 40
0.9999999999999999
 40
0.9999999999999999
 40
0.9999999999999999
 10
719.7780054257519
 20
525.3248448480314
 30
0.0
 10
719.8612092999059
 20
525.3141694902902
 30
0.0
 10
720.0276502170171
 20
525.2928145191305
 30
0.0
 10
720.274219582684
 20
525.3672288350413
 30
0.0
 10
720.4807557852304
 20
525.5123125875413
 30
0.0
 10
720.618028898818
 20
525.6973886397271
 30
0.0
 10
720.6589716741644
 20
525.832732312144
 30
0.0
 10
720.6760559710377
 20
525.8892075134444
 30
0.0
  0
LINE
  5
14C
330
1F
100
AcDbEntity
  8
0
  6
Continuous
 62
     7
370
    25
100
AcDbLine
 10
718.5593277502
 20
525.6029180813
 30
0.0
 11
719.7780054258
 21
525.324844848
 31
0.0
  0
LINE
  5
14D
330
1F
100
AcDbEntity
  8
0
  6
Continuous
 62
     7
370
    25
100
AcDbLine
 10
718.2923774463
 20
524.4329875127
 30
0.0
 11
718.5593277502
 21
525.6029180813
 31
0.0
  0
LINE
  5
14E
330
1F
100
AcDbEntity
  8
0
  6
Continuous
 62
     7
370
    25
100
AcDbLine
 10
719.5110551219
 20
524.1549142795
 30
0.0
 11
718.2923774463
 21
524.4329875127
 31
0.0
  0
SPLINE
  5
14F
330
1F
100
AcDbEntity
  8
0
  6
Continuous
 62
     7
370
    25
100
AcDbSpline
210
0.0
220
0.0
230
1.0
 70
     8
 71
     3
 72
    12
 73
     8
 74
     0
 42
0.00000001
 43
0.00000001
 40
0.0
 40
0.0
 40
0.0
 40
0.0
 40
0.2133534395476132
 40
0.4267919313634478
 40
0.638353973909154
 40
0.8490950351927532
 40
1.0
 40
1.0
 40
1.0
 40
1.0
 10
720.0754177872668
 20
523.2568637341867
 30
0.0
 10
720.0860931450079
 20
523.3400676083407
 30
0.0
 10
720.1074481161677
 20
523.5065085254519
 30
0.0
 10
720.0330338002568
 20
523.7530778911188
 30
0.0
 10
719.8879500477567
 20
523.9596140936653
 30
0.0
 10
719.7028739955709
 20
524.0968872072527
 30
0.0
 10
719.5675303231541
 20
524.1378299825992
 30
0.0
 10
719.5110551218538
 20
524.1549142794723
 30
0.0
  0
LINE
  5
150
330
1F
100
AcDbEntity
  8
0
  6
Continuous
 62
     7
370
    25
100
AcDbLine
 10
719.797344554
 20
522.0381860586
 30
0.0
 11
720.0754177873
 21
523.2568637342
 31
0.0
  0
LINE
  5
151
330
1F
100
AcDbEntity
  8
0
  6
Continuous
 62
     7
370
    25
100
AcDbLine
 10
720.9672751226
 20
521.7712357547
 30
0.0
 11
719.797344554
 21
522.0381860586
 31
0.0
  0
LINE
  5
152
330
1F
100
AcDbEntity
  8
0
  6
Continuous
 62
     7
370
    25
100
AcDbLine
 10
721.2453483558
 20
522.9899134303
 30
0.0
 11
720.9672751226
 21
521.7712357547
 31
0.0
  0
SPLINE
  5
153
330
1F
100
AcDbEntity
  8
0
  6
Continuous
 62
     7
370
    25
100
AcDbSpline
210
0.0
220
0.0
230
1.0
 70
     8
 71
     3
 72
    12
 73
     8
 74
     0
 42
0.00000001
 43
0.00000001
 40
0.0
 40
0.0
 40
0.0
 40
0.0
 40
0.2133534395476136
 40
0.4267919313634463
 40
0.6383539739091494
 40
0.8490950351927551
 40
1.0
 40
1.0
 40
1.0
 40
1.0
 10
722.1433989011115
 20
523.5542760957015
 30
0.0
 10
722.0601950269574
 20
523.5649514534427
 30
0.0
 10
721.8937541098462
 20
523.5863064246023
 30
0.0
 10
721.6471847441794
 20
523.5118921086917
 30
0.0
 10
721.4406485416329
 20
523.3668083561915
 30
0.0
 10
721.3033754280453
 20
523.1817323040058
 30
0.0
 10
721.262432652699
 20
523.0463886315889
 30
0.0
 10
721.2453483558256
 20
522.9899134302885
 30
0.0
  0
LINE
  5
154
330
1F
100
AcDbEntity
  8
0
  6
Continuous
 62
     7
370
    25
100
AcDbLine
 10
723.3620765767
 20
523.2762028625
 30
0.0
 11
722.1433989011
 21
523.5542760957
 31
0.0
  0
LINE
  5
155
330
1F
100
AcDbEntity
  8
0
  6
Continuous
 62
     7
370
    25
100
AcDbLine
 10
723.6290268806
 20
524.446133431
 30
0.0
 11
723.3620765767
 21
523.2762028625
 31
0.0
  0
LINE
  5
156
330
1F
100
AcDbEntity
  8
0
  6
Continuous
 62
     7
370
    25
100
AcDbLine
 10
722.410349205
 20
524.7242066643
 30
0.0
 11
723.6290268806
 21
524.446133431
 31
0.0
  0
LINE
  5
157
330
1F
100
AcDbEntity
  8
0
  6
Continuous
 62
     7
370
    25
100
AcDbLine
 10
722.1240597728
 20
526.8409348851
 30
0.0
 11
721.8459865396
 21
525.6222572095
 31
0.0
  0
CIRCLE
  5
158
330
1F
100
AcDbEntity
  8
0
  6
Continuous
 62
     7
370
    25
100
AcDbCircle
 10
720.9607021634
 20
524.4395604719
 30
0.0
 40
4.197433366238919
  0
SPLINE
  5
159
330
1F
100
AcDbEntity
  8
0
  6
Continuous
 62
     7
370
    25
100
AcDbSpline
210
0.0
220
0.0
230
1.0
 70
     8
 71
     3
 72
    12
 73
     8
 74
     0
 42
0.00000001
 43
0.00000001
 40
0.0
 40
0.0
 40
0.0
 40
0.0
 40
0.2133534395476131
 40
0.4267919313634476
 40
0.6383539739091537
 40
0.8490950351927532
 40
1.0
 40
1.0
 40
1.0
 40
1.0
 10
721.8459865395965
 20
525.6222572095461
 30
0.0
 10
721.8353111818554
 20
525.539053335392
 30
0.0
 10
721.8139562106958
 20
525.372612418281
 30
0.0
 10
721.8883705266065
 20
525.1260430526141
 30
0.0
 10
722.0334542791065
 20
524.9195068500676
 30
0.0
 10
722.2185303312923
 20
524.7822337364802
 30
0.0
 10
722.3538740037092
 20
524.7412909611337
 30
0.0
 10
722.4103492050095
 20
524.7242066642605
 30
0.0
  0
LINE
  5
15A
330
1F
100
AcDbEntity
  8
0
  6
Continuous
 62
     7
370
    25
100
AcDbLine
 10
518.9240597728
 20
522.0381860586
 30
0.0
 11
517.7541292043
 21
521.7712357547
 31
0.0
  0
LINE
  5
15B
330
1F
100
AcDbEntity
  8
0
  6
Continuous
 62
     7
370
    25
100
AcDbLine
 10
518.6459865396
 20
523.2568637342
 30
0.0
 11
518.9240597728
 21
522.0381860586
 31
0.0
  0
SPLINE
  5
15C
330
1F
100
AcDbEntity
  8
0
  6
Continuous
 62
     7
370
    25
100
AcDbSpline
210
0.0
220
0.0
230
1.0
 70
     8
 71
     3
 72
    12
 73
     8
 74
     0
 42
0.00000001
 43
0.00000001
 40
0.0
 40
0.0
 40
0.0
 40
0.0
 40
0.2133534395476119
 40
0.4267919313634478
 40
0.6383539739091497
 40
0.849095035192757
 40
0.9999999999999999
 40
0.9999999999999999
 40
0.9999999999999999
 40
0.9999999999999999
 10
519.2103492050095
 20
524.1549142794723
 30
0.0
 10
519.1307498540805
 20
524.1284418170101
 30
0.0
 10
518.9715194203444
 20
524.075486338972
 30
0.0
 10
518.7816330030774
 20
523.9014832038412
 30
0.0
 10
518.6584716163554
 20
523.681170310386
 30
0.0
 10
518.615065359546
 20
523.454867527203
 30
0.0
 10
518.6368827437398
 20
523.3151598958319
 30
0.0
 10
518.6459865395965
 20
523.2568637341867
 30
0.0
  0
LINE
  5
15D
330
1F
100
AcDbEntity
  8
0
  6
Continuous
 62
     7
370
    25
100
AcDbLine
 10
520.4290268806
 20
524.4329875127
 30
0.0
 11
519.210349205
 21
524.1549142795
 31
0.0
  0
LINE
  5
15E
330
1F
100
AcDbEntity
  8
0
  6
Continuous
 62
     7
370
    25
100
AcDbLine
 10
520.1620765767
 20
525.6029180813
 30
0.0
 11
520.4290268806
 21
524.4329875127
 31
0.0
  0
LINE
  5
15F
330
1F
100
AcDbEntity
  8
0
  6
Continuous
 62
     7
370
    25
100
AcDbLine
 10
518.9433989011
 20
525.324844848
 30
0.0
 11
520.1620765767
 21
525.6029180813
 31
0.0
  0
SPLINE
  5
160
330
1F
100
AcDbEntity
  8
0
  6
Continuous
 62
     7
370
    25
100
AcDbSpline
210
0.0
220
0.0
230
1.0
 70
     8
 71
     3
 72
    12
 73
     8
 74
     0
 42
0.00000001
 43
0.00000001
 40
0.0
 40
0.0
 40
0.0
 40
0.0
 40
0.2133534395476159
 40
0.4267919313634425
 40
0.6383539739091564
 40
0.849095035192758
 40
1.0
 40
1.0
 40
1.0
 40
1.0
 10
518.0453483558256
 20
525.8892075134444
 30
0.0
 10
518.0718208182881
 20
525.8096081625154
 30
0.0
 10
518.124776296326
 20
525.6503777287792
 30
0.0
 10
518.2987794314569
 20
525.4604913115123
 30
0.0
 10
518.5190923249119
 20
525.3373299247903
 30
0.0
 10
518.7453951080952
 20
525.2939236679808
 30
0.0
 10
518.8851027394661
 20
525.3157410521745
 30
0.0
 10
518.9433989011114
 20
525.3248448480314
 30
0.0
  0
LINE
  5
161
330
1F
100
AcDbEntity
  8
0
  6
Continuous
 62
     7
370
    25
100
AcDbLine
 10
517.7672751226
 20
527.107885189
 30
0.0
 11
518.0453483558
 21
525.8892075134
 31
0.0
  0
LINE
  5
162
330
1F
100
AcDbEntity
  8
0
  6
Continuous
 62
     7
370
    25
100
AcDbLine
 10
516.597344554
 20
526.8409348851
 30
0.0
 11
517.7672751226
 21
527.107885189
 31
0.0
  0
LINE
  5
163
330
1F
100
AcDbEntity
  8
0
  6
Continuous
 62
     7
370
    25
100
AcDbLine
 10
516.8754177873
 20
525.6222572095
 30
0.0
 11
516.597344554
 21
526.8409348851
 31
0.0
  0
SPLINE
  5
164
330
1F
100
AcDbEntity
  8
0
  6
Continuous
 62
     7
370
    25
100
AcDbSpline
210
0.0
220
0.0
230
1.0
 70
     8
 71
     3
 72
    12
 73
     8
 74
     0
 42
0.00000001
 43
0.00000001
 40
0.0
 40
0.0
 40
0.0
 40
0.0
 40
0.213353439547612
 40
0.426791931363448
 40
0.63835397390915
 40
0.8490950351927569
 40
1.0
 40
1.0
 40
1.0
 40
1.0
 10
516.3110551218538
 20
524.7242066642605
 30
0.0
 10
516.3906544727827
 20
524.750679126723
 30
0.0
 10
516.5498849065189
 20
524.8036346047609
 30
0.0
 10
516.7397713237858
 20
524.9776377398916
 30
0.0
 10
516.8629327105077
 20
525.1979506333467
 30
0.0
 10
516.9063389673173
 20
525.42425341653
 30
0.0
 10
516.8845215831235
 20
525.5639610479009
 30
0.0
 10
516.8754177872668
 20
525.6222572095461
 30
0.0
  0
LINE
  5
165
330
1F
100
AcDbEntity
  8
0
  6
Continuous
 62
     7
370
    25
100
AcDbLine
 10
515.0923774463
 20
524.446133431
 30
0.0
 11
516.3110551219
 21
524.7242066643
 31
0.0
  0
LINE
  5
166
330
1F
100
AcDbEntity
  8
0
  6
Continuous
 62
     7
370
    25
100
AcDbLine
 10
515.3593277502
 20
523.2762028625
 30
0.0
 11
515.0923774463
 21
524.446133431
 31
0.0
  0
LINE
  5
167
330
1F
100
AcDbEntity
  8
0
  6
Continuous
 62
     7
370
    25
100
AcDbLine
 10
516.5780054258
 20
523.5542760957
 30
0.0
 11
515.3593277502
 21
523.2762028625
 31
0.0
  0
LINE
  5
168
330
1F
100
AcDbEntity
  8
0
  6
Continuous
 62
     7
370
    25
100
AcDbLine
 10
517.7541292043
 20
521.7712357547
 30
0.0
 11
517.476055971
 21
522.9899134303
 31
0.0
  0
CIRCLE
  5
169
330
1F
100
AcDbEntity
  8
0
  6
Continuous
 62
     7
370
    25
100
AcDbCircle
 10
517.7607021634
 20
524.4395604719
 30
0.0
 40
4.197433366238919
  0
SPLINE
  5
16A
330
1F
100
AcDbEntity
  8
0
  6
Continuous
 62
     7
370
    25
100
AcDbSpline
210
0.0
220
0.0
230
1.0
 70
     8
 71
     3
 72
    12
 73
     8
 74
     0
 42
0.00000001
 43
0.00000001
 40
0.0
 40
0.0
 40
0.0
 40
0.0
 40
0.2133534395476155
 40
0.4267919313634422
 40
0.6383539739091563
 40
0.8490950351927579
 40
0.9999999999999999
 40
0.9999999999999999
 40
0.9999999999999999
 40
0.9999999999999999
 10
517.4760559710377
 20
522.9899134302885
 30
0.0
 10
517.4495835085752
 20
523.0695127812174
 30
0.0
 10
517.3966280305372
 20
523.2287432149536
 30
0.0
 10
517.2226248954065
 20
523.4186296322206
 30
0.0
 10
517.0023120019514
 20
523.5417910189426
 30
0.0
 10
516.7760092187681
 20
523.5851972757522
 30
0.0
 10
516.6363015873972
 20
523.5633798915583
 30
0.0
 10
516.5780054257518
 20
523.5542760957015
 30
0.0
  0
CIRCLE
  5
16B
330
1F
100
AcDbEntity
  8
0
  6
Continuous
 62
     7
370
    25
100
AcDbCircle
 10
517.7607021634
 20
524.4395604719
 30
0.0
 40
5.32891433662769
  0
CIRCLE
  5
16C
330
1F
100
AcDbEntity
  8
0
  6
Continuous
 62
     7
370
    25
100
AcDbCircle
 10
517.7607021634
 20
524.4395604719
 30
0.0
 40
5.925127771161328
  0
CIRCLE
  5
16D
330
1F
100
AcDbEntity
  8
0
  6
Continuous
 62
     7
370
    25
100
AcDbCircle
 10
517.7607021634
 20
524.4395604719
 30
0.0
 40
4.452105871057256
  0
CIRCLE
  5
16E
330
1F
100
AcDbEntity
  8
0
  6
Continuous
 62
     7
370
    25
100
AcDbCircle
 10
517.7607021634
 20
524.4395604719
 30
0.0
 40
5.074569253689219
  0
CIRCLE
  5
16F
330
1F
100
AcDbEntity
  8
0
  6
Continuous
 62
     7
370
    25
100
AcDbCircle
 10
517.7607021634
 20
524.4395604719
 30
0.0
 40
7.149999999999977
  0
SPLINE
  5
170
330
1F
100
AcDbEntity
  8
0
  6
Continuous
 62
     7
370
    25
100
AcDbSpline
210
0.0
220
0.0
230
1.0
 70
     8
 71
     3
 72
    11
 73
     7
 74
     0
 42
0.00000001
 43
0.00000001
 40
0.0
 40
0.0
 40
0.0
 40
0.0
 40
0.2200386424382255
 40
0.6637869905998169
 40
0.8890365590789576
 40
1.0
 40
1.0
 40
1.0
 40
1.0
 10
727.6382923080236
 20
530.4598787788174
 30
0.0
 10
727.8425137710251
 20
530.1948601675585
 30
0.0
 10
728.4585853339086
 20
529.3953828372538
 30
0.0
 10
728.9821346849258
 20
528.132213566726
 30
0.0
 10
729.2337638846868
 20
526.9656437534019
 30
0.0
 10
729.2130566899646
 20
526.4543639547426
 30
0.0
 10
729.2062225059386
 20
526.2856216272702
 30
0.0
  0
SPLINE
  5
171
330
1F
100
AcDbEntity
  8
0
  6
Continuous
 62
     7
370
    25
100
AcDbSpline
210
0.0
220
0.0
230
1.0
 70
     8
 71
     3
 72
     9
 73
     5
 74
     0
 42
0.00000001
 43
0.00000001
 40
0.0
 40
0.0
 40
0.0
 40
0.0
 40
0.9209630919903056
 40
1.0
 40
1.0
 40
1.0
 40
1.0
 10
729.278334671271
 20
530.1395555031838
 30
0.0
 10
728.7639131333981
 20
530.1963825621025
 30
0.0
 10
728.2053440198832
 20
530.2580865102985
 30
0.0
 10
727.6798275082139
 20
530.4450979711864
 30
0.0
 10
727.6382923080236
 20
530.4598787788174
 30
0.0
  0
SPLINE
  5
172
330
1F
100
AcDbEntity
  8
0
  6
Continuous
 62
     7
370
    25
100
AcDbSpline
210
0.0
220
0.0
230
1.0
 70
     8
 71
     3
 72
    10
 73
     6
 74
     0
 42
0.00000001
 43
0.00000001
 40
0.0
 40
0.0
 40
0.0
 40
0.0
 40
0.2596150688488836
 40
0.629760644481066
 40
0.9999999999999999
 40
0.9999999999999999
 40
0.9999999999999999
 40
0.9999999999999999
 10
776.453495625208
 20
527.5479979341948
 30
0.0
 10
772.375675406485
 20
527.8477520712931
 30
0.0
 10
762.4839125731197
 20
528.5748799664574
 30
0.0
 10
746.7543398904465
 20
529.4007268363475
 30
0.0
 10
735.1041616291819
 20
529.8932584856132
 30
0.0
 10
729.278334671271
 20
530.1395555031838
 30
0.0
  0
SPLINE
  5
173
330
1F
100
AcDbEntity
  8
0
  6
Continuous
 62
     7
370
    25
100
AcDbSpline
210
0.0
220
0.0
230
1.0
 70
     8
 71
     3
 72
    11
 73
     7
 74
     0
 42
0.00000001
 43
0.00000001
 40
0.0
 40
0.0
 40
0.0
 40
0.0
 40
0.061464119541392
 40
0.4999988937835377
 40
0.9375097801832794
 40
1.0
 40
1.0
 40
1.0
 40
1.0
 10
776.4534956252078
 20
521.8219655871928
 30
0.0
 10
776.4651648214102
 20
521.938422559645
 30
0.0
 10
776.5600915076797
 20
522.8857778269762
 30
0.0
 10
776.643794334946
 20
524.6830220254244
 30
0.0
 10
776.5602244114256
 20
526.4822200496653
 30
0.0
 10
776.4653527063804
 20
527.4295948740984
 30
0.0
 10
776.453495625208
 20
527.5479979341948
 30
0.0
  0
SPLINE
  5
174
330
1F
100
AcDbEntity
  8
0
  6
Continuous
 62
     7
370
    25
100
AcDbSpline
210
0.0
220
0.0
230
1.0
 70
     8
 71
     3
 72
    11
 73
     7
 74
     0
 42
0.00000001
 43
0.00000001
 40
0.0
 40
0.0
 40
0.0
 40
0.0
 40
0.259458927729189
 40
0.6296002946237427
 40
0.8147836738016297
 40
1.0
 40
1.0
 40
1.0
 40
1.0
 10
729.278334671271
 20
519.2304080182057
 30
0.0
 10
733.3613353206159
 20
519.3959066046266
 30
0.0
 10
743.2691015874203
 20
519.7975037270782
 30
0.0
 10
756.0842385463812
 20
520.4757565431015
 30
0.0
 10
767.7285108126408
 20
521.1531774353136
 30
0.0
 10
773.5449948957736
 20
521.599022983926
 30
0.0
 10
776.4534956252078
 20
521.8219655871928
 30
0.0
  0
SPLINE
  5
175
330
1F
100
AcDbEntity
  8
0
  6
Continuous
 62
     7
370
    25
100
AcDbSpline
210
0.0
220
0.0
230
1.0
 70
     8
 71
     3
 72
     9
 73
     5
 74
     0
 42
0.00000001
 43
0.00000001
 40
0.0
 40
0.0
 40
0.0
 40
0.0
 40
0.0790369080192139
 40
1.0
 40
1.0
 40
1.0
 40
1.0
 10
727.6382923080243
 20
518.9100847425724
 30
0.0
 10
727.6798275082197
 20
518.9248655502051
 30
0.0
 10
728.2053440198889
 20
519.1118770110929
 30
0.0
 10
728.7639131334035
 20
519.1735809592883
 30
0.0
 10
729.278334671271
 20
519.2304080182057
 30
0.0
  0
SPLINE
  5
176
330
1F
100
AcDbEntity
  8
0
  6
Continuous
 62
     7
370
    25
100
AcDbSpline
210
0.0
220
0.0
230
1.0
 70
     8
 71
     3
 72
    11
 73
     7
 74
     0
 42
0.00000001
 43
0.00000001
 40
0.0
 40
0.0
 40
0.0
 40
0.0
 40
0.0728838064943292
 40
0.4140719411596028
 40
0.9209668754550567
 40
1.0
 40
1.0
 40
1.0
 40
1.0
 10
729.2062225059348
 20
523.0843418941342
 30
0.0
 10
729.2139376550725
 20
522.9738954598953
 30
0.0
 10
729.257769432437
 20
522.3464204195642
 30
0.0
 10
728.913277720999
 20
520.9634283890991
 30
0.0
 10
728.2735883715128
 20
519.6934968713216
 30
0.0
 10
727.7137996220798
 20
519.0031962051487
 30
0.0
 10
727.6382923080243
 20
518.9100847425724
 30
0.0
  0
SPLINE
  5
177
330
1F
100
AcDbEntity
  8
0
  6
Continuous
 62
     7
370
    25
100
AcDbSpline
210
0.0
220
0.0
230
1.0
 70
     8
 71
     3
 72
    10
 73
     6
 74
     0
 42
0.00000001
 43
0.00000001
 40
0.0
 40
0.0
 40
0.0
 40
0.0
 40
0.3880207377811385
 40
0.9790637766506849
 40
1.0
 40
1.0
 40
1.0
 40
1.0
 10
729.2062225059386
 20
526.2856216272702
 30
0.0
 10
729.1329079751791
 20
525.8747817654145
 30
0.0
 10
728.9479188898558
 20
524.8381401955662
 30
0.0
 10
729.0436258156869
 20
523.7443708739949
 30
0.0
 10
729.2008439669347
 20
523.1061750052754
 30
0.0
 10
729.2062225059348
 20
523.0843418941342
 30
0.0
  0
ARC
  5
178
330
1F
100
AcDbEntity
  8
0
  6
Continuous
 62
     7
370
    25
100
AcDbCircle
 10
720.9607021634
 20
524.6849817607
 30
0.0
 40
8.399443654264694
100
AcDbArc
 50
10.985757993
 51
349.0142420071
  0
SPLINE
  5
179
330
1F
100
AcDbEntity
  8
0
  6
Continuous
 62
     7
370
    25
100
AcDbSpline
210
0.0
220
0.0
230
1.0
 70
     8
 71
     3
 72
     9
 73
     5
 74
     0
 42
0.00000001
 43
0.00000001
 40
0.0
 40
0.0
 40
0.0
 40
0.0
 40
0.681792342127431
 40
1.0
 40
1.0
 40
1.0
 40
1.0
 10
727.6382923080243
 20
518.9100847425724
 30
0.0
 10
727.4960287473813
 20
518.7201743874672
 30
0.0
 10
727.2873676172209
 20
518.4416286435936
 30
0.0
 10
727.0579417833405
 20
518.2087242706507
 30
0.0
 10
726.984936726086
 20
518.1346123156281
 30
0.0
  0
ARC
  5
17A
330
1F
100
AcDbEntity
  8
0
  6
Continuous
 62
     7
370
    25
100
AcDbCircle
 10
720.9607021634
 20
524.6849817607
 30
0.0
 40
8.899367501836373
100
AcDbArc
 50
47.3959191961
 51
312.6040808039
  0
LINE
  5
17B
330
1F
100
AcDbEntity
  8
0
  6
Continuous
 62
     7
370
    25
100
AcDbLine
 10
726.9849367261
 20
531.2353512058
 30
0.0
 11
727.638292308
 21
530.4598787788
 31
0.0
  0
SPLINE
  5
17C
330
1F
100
AcDbEntity
  8
0
  6
Continuous
 62
     7
370
    25
100
AcDbSpline
210
0.0
220
0.0
230
1.0
 70
     8
 71
     3
 72
    10
 73
     6
 74
     0
 42
0.00000001
 43
0.00000001
 40
0.0
 40
0.0
 40
0.0
 40
0.0
 40
0.3702896688583046
 40
0.7405318123903298
 40
0.9999999999999999
 40
0.9999999999999999
 40
0.9999999999999999
 40
0.9999999999999999
 10
776.4650150883863
 20
521.3791060063596
 30
0.0
 10
770.644951242168
 20
521.0589149918334
 30
0.0
 10
759.0055705336642
 20
520.4185740581278
 30
0.0
 10
743.2867021268896
 20
519.5493397262645
 30
0.0
 10
733.3895283108798
 20
519.0005987246553
 30
0.0
 10
729.3114599904155
 20
518.7744934408234
 30
0.0
  0
ARC
  5
17D
330
1F
100
AcDbEntity
  8
0
  6
Continuous
 62
     7
370
    25
100
AcDbCircle
 10
736.5265491978
 20
519.5278798075
 30
0.0
 40
7.254316183329676
100
AcDbArc
 50
182.3501399448
 51
185.9611177313
  0
ARC
  5
17E
330
1F
100
AcDbEntity
  8
0
  6
Continuous
 62
     7
370
    25
100
AcDbCircle
 10
772.2044925472
 20
521.4898628304
 30
0.0
 40
4.261961918837355
100
AcDbArc
 50
358.5108705386
 51
4.4691613065
  0
SPLINE
  5
17F
330
1F
100
AcDbEntity
  8
0
  6
Continuous
 62
     7
370
    25
100
AcDbSpline
210
0.0
220
0.0
230
1.0
 70
     8
 71
     3
 72
    10
 73
     6
 74
     0
 42
0.00000001
 43
0.00000001
 40
0.0
 40
0.0
 40
0.0
 40
0.0
 40
0.3702717503651152
 40
0.7405122151371749
 40
1.0
 40
1.0
 40
1.0
 40
1.0
 10
729.3114599904155
 20
530.595470080566
 30
0.0
 10
735.1311320520848
 20
530.2729415948982
 30
0.0
 10
746.7699844503817
 20
529.6279118751551
 30
0.0
 10
762.4891240343363
 20
528.759097387676
 30
0.0
 10
772.386621458035
 20
528.2150424769092
 30
0.0
 10
776.465015088383
 20
527.99085751503
 30
0.0
  0
ARC
  5
180
330
1F
100
AcDbEntity
  8
0
  6
Continuous
 62
     7
370
    25
100
AcDbCircle
 10
772.2044925443
 20
527.8801006911
 30
0.0
 40
4.261961921788977
100
AcDbArc
 50
355.530838696
 51
1.4891294598
  0
ARC
  5
181
330
1F
100
AcDbEntity
  8
0
  6
Continuous
 62
     7
370
    25
100
AcDbCircle
 10
736.5265491979
 20
529.8420837139
 30
0.0
 40
7.254316183429143
100
AcDbArc
 50
174.0388822687
 51
177.6498600552
  0
SPLINE
  5
182
330
1F
100
AcDbEntity
  8
0
  6
Continuous
 62
     7
370
    25
100
AcDbSpline
210
0.0
220
0.0
230
1.0
 70
     8
 71
     3
 72
    12
 73
     8
 74
     0
 42
0.00000001
 43
0.00000001
 40
0.0
 40
0.0
 40
0.0
 40
0.0
 40
0.1224290494151348
 40
0.3423522449770467
 40
0.5614228816909441
 40
0.7807229538533574
 40
1.0
 40
1.0
 40
1.0
 40
1.0
 10
778.3892230580556
 20
527.4373235645386
 30
0.0
 10
778.3802189821915
 20
527.4396822489796
 30
0.0
 10
778.3550405984605
 20
527.4462779133042
 30
0.0
 10
778.1390529148158
 20
527.4632858810435
 30
0.0
 10
777.7031547850868
 20
527.4887968551978
 30
0.0
 10
777.1192291716565
 20
527.5183490377572
 30
0.0
 10
776.6753990400885
 20
527.5381153146362
 30
0.0
 10
776.453495625208
 20
527.5479979341948
 30
0.0
  0
SPLINE
  5
183
330
1F
100
AcDbEntity
  8
0
  6
Continuous
 62
     7
370
    25
100
AcDbSpline
210
0.0
220
0.0
230
1.0
 70
     8
 71
     3
 72
    11
 73
     7
 74
     0
 42
0.00000001
 43
0.00000001
 40
0.0
 40
0.0
 40
0.0
 40
0.0
 40
0.0800485240044433
 40
0.5000005853538798
 40
0.9209248322279645
 40
1.0
 40
1.0
 40
1.0
 40
1.0
 10
778.3892230580556
 20
527.4373235645386
 30
0.0
 10
778.3889368136414
 20
527.291079139438
 30
0.0
 10
778.3871488684368
 20
526.3776044806048
 30
0.0
 10
778.3859131716068
 20
524.6831948928464
 30
0.0
 10
778.3871508697018
 20
522.9905680409917
 30
0.0
 10
778.3889400916697
 20
522.0771046653477
 30
0.0
 10
778.3892230580556
 20
521.9326399568564
 30
0.0
  0
SPLINE
  5
184
330
1F
100
AcDbEntity
  8
0
  6
Continuous
 62
     7
370
    25
100
AcDbSpline
210
0.0
220
0.0
230
1.0
 70
     8
 71
     3
 72
    12
 73
     8
 74
     0
 42
0.00000001
 43
0.00000001
 40
0.0
 40
0.0
 40
0.0
 40
0.0
 40
0.1130367476169362
 40
0.3328594693548023
 40
0.5544127937945006
 40
0.7774207483513244
 40
1.0
 40
1.0
 40
1.0
 40
1.0
 10
776.4534956252078
 20
521.8219655871928
 30
0.0
 10
776.5675664651948
 20
521.8269808328943
 30
0.0
 10
776.9034710278027
 20
521.84174923395
 30
0.0
 10
777.4375388841975
 20
521.8673414380594
 30
0.0
 10
777.9540645220846
 20
521.8952167009304
 30
0.0
 10
778.3109592392391
 20
521.9186585745209
 30
0.0
 10
778.3631518567576
 20
521.9279824862806
 30
0.0
 10
778.3892230580556
 20
521.9326399568564
 30
0.0
  0
SPLINE
  5
185
330
1F
100
AcDbEntity
  8
0
  6
Continuous
 62
     7
370
    25
100
AcDbSpline
210
0.0
220
0.0
230
1.0
 70
     8
 71
     3
 72
     9
 73
     5
 74
     0
 42
0.00000001
 43
0.00000001
 40
0.0
 40
0.0
 40
0.0
 40
0.0
 40
0.500010612381544
 40
1.0
 40
1.0
 40
1.0
 40
1.0
 10
726.4853288772431
 20
531.6671828950077
 30
0.0
 10
726.9150502440639
 20
531.3793423569144
 30
0.0
 10
727.7744747366245
 20
530.803673499163
 30
0.0
 10
728.7991388219027
 20
530.6648702380762
 30
0.0
 10
729.3114599904155
 20
530.595470080566
 30
0.0
  0
SPLINE
  5
186
330
1F
100
AcDbEntity
  8
0
  6
Continuous
 62
     7
370
    25
100
AcDbSpline
210
0.0
220
0.0
230
1.0
 70
     8
 71
     3
 72
     9
 73
     5
 74
     0
 42
0.00000001
 43
0.00000001
 40
0.0
 40
0.0
 40
0.0
 40
0.0
 40
0.9838702326459385
 40
1.0
 40
1.0
 40
1.0
 40
1.0
 10
726.9849367260858
 20
531.2353512057614
 30
0.0
 10
726.8235959111513
 20
531.3801836187804
 30
0.0
 10
726.6596100423028
 20
531.5273904436372
 30
0.0
 10
726.4880953690209
 20
531.6649638676837
 30
0.0
 10
726.4853288772431
 20
531.6671828950077
 30
0.0
  0
SPLINE
  5
187
330
1F
100
AcDbEntity
  8
0
  6
Continuous
 62
     7
370
    25
100
AcDbSpline
210
0.0
220
0.0
230
1.0
 70
     8
 71
     3
 72
     9
 73
     5
 74
     0
 42
0.00000001
 43
0.00000001
 40
0.0
 40
0.0
 40
0.0
 40
0.0
 40
0.5055561057107305
 40
1.0
 40
1.0
 40
1.0
 40
1.0
 10
729.3114599904155
 20
518.7744934408234
 30
0.0
 10
728.7934004730826
 20
518.7038374065536
 30
0.0
 10
727.7686684770073
 20
518.5640783699761
 30
0.0
 10
726.9099279082457
 20
517.9877450951805
 30
0.0
 10
726.4853288772431
 20
517.7027806263818
 30
0.0
  0
SPLINE
  5
188
330
1F
100
AcDbEntity
  8
0
  6
Continuous
 62
     7
370
    25
100
AcDbSpline
210
0.0
220
0.0
230
1.0
 70
     8
 71
     3
 72
     9
 73
     5
 74
     0
 42
0.00000001
 43
0.00000001
 40
0.0
 40
0.0
 40
0.0
 40
0.0
 40
0.0161297673533178
 40
0.9999999999999999
 40
0.9999999999999999
 40
0.9999999999999999
 40
0.9999999999999999
 10
726.4853288772431
 20
517.7027806263818
 30
0.0
 10
726.4880953690208
 20
517.7049996537057
 30
0.0
 10
726.6596100423068
 20
517.8425730777553
 30
0.0
 10
726.8235959111533
 20
517.9897799026106
 30
0.0
 10
726.984936726086
 20
518.1346123156281
 30
0.0
  0
SPLINE
  5
189
330
1F
100
AcDbEntity
  8
0
  6
Continuous
 62
     7
370
    25
100
AcDbSpline
210
0.0
220
0.0
230
1.0
 70
     8
 71
     3
 72
    12
 73
     8
 74
     0
 42
0.00000001
 43
0.00000001
 40
0.0
 40
0.0
 40
0.0
 40
0.0
 40
0.2230315344150434
 40
0.4461337558340359
 40
0.6675099896777019
 40
0.8870667292265005
 40
1.0
 40
1.0
 40
1.0
 40
1.0
 10
777.9168687929712
 20
521.4334768858081
 30
0.0
 10
777.8973350068452
 20
521.4353671331029
 30
0.0
 10
777.8582612436087
 20
521.4391482267822
 30
0.0
 10
777.5906720615525
 20
521.4322053905116
 30
0.0
 10
777.2031429777276
 20
521.4166165680217
 30
0.0
 10
776.8024208652643
 20
521.3972792879575
 30
0.0
 10
776.5505614430065
 20
521.383713686781
 30
0.0
 10
776.4650150883863
 20
521.3791060063596
 30
0.0
  0
ARC
  5
18A
330
1F
100
AcDbEntity
  8
0
  6
Continuous
 62
     7
370
    25
100
AcDbCircle
 10
777.8891231705
 20
521.9328065422
 30
0.0
 40
0.5000999153467998
100
AcDbArc
 50
273.1804119247
 51
359.9809145383
  0
SPLINE
  5
18B
330
1F
100
AcDbEntity
  8
0
  6
Continuous
 62
     7
370
    25
100
AcDbSpline
210
0.0
220
0.0
230
1.0
 70
     8
 71
     3
 72
    12
 73
     8
 74
     0
 42
0.00000001
 43
0.00000001
 40
0.0
 40
0.0
 40
0.0
 40
0.0
 40
0.2190444340109334
 40
0.4380981679380241
 40
0.6571027493691853
 40
0.8772791087290019
 40
1.0
 40
1.0
 40
1.0
 40
1.0
 10
776.465015088383
 20
527.99085751503
 30
0.0
 10
776.6314328291538
 20
527.9820287020804
 30
0.0
 10
776.9642753762529
 20
527.9643707013381
 30
0.0
 10
777.402433818896
 20
527.944852211929
 30
0.0
 10
777.7293996456557
 20
527.9335464282967
 30
0.0
 10
777.8912435226697
 20
527.93172256022
 30
0.0
 10
777.910114855082
 20
527.9352309895448
 30
0.0
 10
777.9168687929711
 20
527.9364866355814
 30
0.0
  0
ARC
  5
18C
330
1F
100
AcDbEntity
  8
0
  6
Continuous
 62
     7
370
    25
100
AcDbCircle
 10
777.8891231705
 20
527.4371569792
 30
0.0
 40
0.5000999153470679
100
AcDbArc
 50
0.0190854624
 51
86.8195880753
  0
LINE
  5
18D
330
1F
100
AcDbEntity
  8
0
  6
Continuous
 62
     7
370
    25
100
AcDbLine
 10
729.3114599904
 20
518.7744934408
 30
0.0
 11
729.3384461721
 21
518.7032031655
 31
0.0
  0
LINE
  5
18E
330
1F
100
AcDbEntity
  8
0
  6
Continuous
 62
     7
370
    25
100
AcDbLine
 10
777.9215591536
 20
521.4290384327
 30
0.0
 11
777.916868793
 21
521.4334768858
 31
0.0
  0
ELLIPSE
  5
18F
330
1F
100
AcDbEntity
  8
0
  6
Continuous
 62
     7
370
    25
100
AcDbEllipse
 10
776.4217876109
 20
521.3457459827
 30
0.0
 11
1.499999304622861
 21
0.0828726334386829
 31
0.0
210
0.0
220
0.0
230
1.0
 40
0.0174284859
 41
5.396717970286284
 42
6.299675703199756
  0
LINE
  5
190
330
1F
100
AcDbEntity
  8
0
  6
Continuous
 62
     7
370
    25
100
AcDbLine
 10
773.9061729419
 20
521.1369863947
 30
0.0
 11
777.3711361513
 21
521.3778776737
 31
0.0
  0
LINE
  5
191
330
1F
100
AcDbEntity
  8
0
  6
Continuous
 62
     7
370
    25
100
AcDbLine
 10
773.9061729419
 20
521.1370847859
 30
0.0
 11
773.9061729419
 21
521.1369863947
 31
0.0
  0
ELLIPSE
  5
192
330
1F
100
AcDbEntity
  8
0
  6
Continuous
 62
     7
370
    25
100
AcDbEllipse
 10
764.4566865209
 20
520.8074387345
 30
0.0
 11
14.49999327802038
 21
0.801102123240753
 31
0.0
210
0.0
220
0.0
230
1.0
 40
0.0174284859
 41
4.6851094924422
 42
5.421234828998442
  0
ELLIPSE
  5
193
330
1F
100
AcDbEntity
  8
0
  6
Continuous
 62
     7
370
    25
100
AcDbEllipse
 10
763.1356766054
 20
519.8571551852
 30
0.0
 11
35.70262504606012
 21
1.972514619921981
 31
0.0
210
0.0
220
0.0
230
1.0
 40
0.0174284859
 41
1.543516838852417
 42
2.025717338717928
  0
ELLIPSE
  5
194
330
1F
100
AcDbEntity
  8
0
  6
Continuous
 62
     7
370
    25
100
AcDbEllipse
 10
744.1154491333
 20
519.4847591255
 30
0.0
 11
7.499996523113964
 21
0.4143631671935282
 31
0.0
210
0.0
220
0.0
230
1.0
 40
0.0174284859
 41
4.976419334597757
 42
5.167309992308295
  0
LINE
  5
195
330
1F
100
AcDbEntity
  8
0
  6
Continuous
 62
     7
370
    25
100
AcDbLine
 10
746.0601015344
 20
519.6171035767
 30
0.0
 11
746.0797197918
 21
519.4667130321
 31
0.0
  0
SPLINE
  5
196
330
1F
100
AcDbEntity
  8
0
  6
Continuous
 62
     7
370
    25
100
AcDbSpline
210
0.0
220
0.0
230
1.0
 70
     8
 71
     3
 72
    10
 73
     6
 74
     0
 42
0.00000001
 43
0.00000001
 40
0.0
 40
0.0
 40
0.0
 40
0.0
 40
0.0186368637457253
 40
0.3939469944633057
 40
1.0
 40
1.0
 40
1.0
 40
1.0
 10
745.8763302486853
 20
519.6166172094197
 30
0.0
 10
745.8787864559341
 20
519.6167049598989
 30
0.0
 10
745.9307058924112
 20
519.6185598340919
 30
0.0
 10
746.0347047408891
 20
519.6212398154701
 30
0.0
 10
746.0504053982384
 20
519.6186827340725
 30
0.0
 10
746.0601015343818
 20
519.6171035766646
 30
0.0
  0
LINE
  5
197
330
1F
100
AcDbEntity
  8
0
  6
Continuous
 62
     7
370
    25
100
AcDbLine
 10
729.3384461721
 20
518.7032031655
 30
0.0
 11
745.8763302487
 21
519.6166172094
 31
0.0
  0
LINE
  5
198
330
1F
100
AcDbEntity
  8
0
  6
Continuous
 62
     7
370
    25
100
AcDbLine
 10
745.8783959806
 20
529.7695499608
 30
0.0
 11
729.3444875572
 21
530.682744423
 31
0.0
  0
SPLINE
  5
199
330
1F
100
AcDbEntity
  8
0
  6
Continuous
 62
     7
370
    25
100
AcDbSpline
210
0.0
220
0.0
230
1.0
 70
     8
 71
     3
 72
    11
 73
     7
 74
     0
 42
0.00000001
 43
0.00000001
 40
0.0
 40
0.0
 40
0.0
 40
0.0
 40
0.4177469294495291
 40
0.8392770662410922
 40
0.9817832068819584
 40
1.0
 40
1.0
 40
1.0
 40
1.0
 10
746.0621014212537
 20
529.7682005155116
 30
0.0
 10
746.0574643932218
 20
529.7671173243278
 30
0.0
 10
746.0481483432205
 20
529.7649411323447
 30
0.0
 10
745.9726518774703
 20
529.7661433092361
 30
0.0
 10
745.9023916768983
 20
529.7686138365762
 30
0.0
 10
745.8808388402407
 20
529.769454659533
 30
0.0
 10
745.8783959806107
 20
529.7695499607917
 30
0.0
  0
LINE
  5
19A
330
1F
100
AcDbEntity
  8
0
  6
Continuous
 62
     7
370
    25
100
AcDbLine
 10
746.0797197918
 20
529.9032504893
 30
0.0
 11
746.0621014213
 21
529.7682005155
 31
0.0
  0
ELLIPSE
  5
19B
330
1F
100
AcDbEntity
  8
0
  6
Continuous
 62
     7
370
    25
100
AcDbEllipse
 10
744.1154491333
 20
529.8852043959
 30
0.0
 11
7.499996523114078
 21
-0.4143631671935282
 31
0.0
210
0.0
220
0.0
230
1.0
 40
0.0174284859
 41
1.115875314871824
 42
1.306765972581883
  0
ELLIPSE
  5
19C
330
1F
100
AcDbEntity
  8
0
  6
Continuous
 62
     7
370
    25
100
AcDbEllipse
 10
763.1356766054
 20
529.5128083362
 30
0.0
 11
35.70262504606012
 21
-1.972514619921981
 31
0.0
210
0.0
220
0.0
230
1.0
 40
0.0174284859
 41
4.257467968461738
 42
4.739668468327169
  0
ELLIPSE
  5
19D
330
1F
100
AcDbEntity
  8
0
  6
Continuous
 62
     7
370
    25
100
AcDbEllipse
 10
764.4566865209
 20
528.5625247869
 30
0.0
 11
14.49999327802038
 21
-0.801102123240753
 31
0.0
210
0.0
220
0.0
230
1.0
 40
0.0174284859
 41
0.8619504781817269
 42
1.598075814737374
  0
LINE
  5
19E
330
1F
100
AcDbEntity
  8
0
  6
Continuous
 62
     7
370
    25
100
AcDbLine
 10
773.9061729419
 20
528.2329771267
 30
0.0
 11
773.9061729419
 21
528.2328787354
 31
0.0
  0
LINE
  5
19F
330
1F
100
AcDbEntity
  8
0
  6
Continuous
 62
     7
370
    25
100
AcDbLine
 10
777.3711361513
 20
527.9920858477
 30
0.0
 11
773.9061729419
 21
528.2329771267
 31
0.0
  0
ELLIPSE
  5
1A0
330
1F
100
AcDbEntity
  8
0
  6
Continuous
 62
     7
370
    25
100
AcDbEllipse
 10
776.4217876109
 20
528.0242175387
 30
0.0
 11
1.499999304622861
 21
-0.08287263343856921
 31
0.0
210
0.0
220
0.0
230
1.0
 40
0.0174284859
 41
0.4818631140257433
 42
0.8864673368945186
  0
LINE
  5
1A1
330
1F
100
AcDbEntity
  8
0
  6
Continuous
 62
     7
370
    25
100
AcDbLine
 10
777.916868793
 20
527.9364866356
 30
0.0
 11
777.9215591536
 21
527.9409250887
 31
0.0
  0
LINE
  5
1A2
330
1F
100
AcDbEntity
  8
0
  6
Continuous
 62
     7
370
    25
100
AcDbLine
 10
729.3444875572
 20
530.682744423
 30
0.0
 11
729.3114599904
 21
530.5954700806
 31
0.0
  0
SPLINE
  5
1A3
330
1F
100
AcDbEntity
  8
0
  6
Continuous
 62
     7
370
    25
100
AcDbSpline
210
0.0
220
0.0
230
1.0
 70
     8
 71
     3
 72
     9
 73
     5
 74
     0
 42
0.00000001
 43
0.00000001
 40
0.0
 40
0.0
 40
0.0
 40
0.0
 40
0.5001021276704695
 40
1.0
 40
1.0
 40
1.0
 40
1.0
 10
726.5185477432985
 20
517.6370891794218
 30
0.0
 10
726.9474955190059
 20
517.9236148135102
 30
0.0
 10
727.8052158764563
 20
518.4965490568081
 30
0.0
 10
728.8274390050714
 20
518.6343278432622
 30
0.0
 10
729.3384461721122
 20
518.7032031654628
 30
0.0
  0
LINE
  5
1A4
330
1F
100
AcDbEntity
  8
0
  6
Continuous
 62
     7
370
    25
100
AcDbLine
 10
726.5185477433
 20
517.6370891794
 30
0.0
 11
726.4853288772
 21
517.7027806264
 31
0.0
  0
SPLINE
  5
1A5
330
1F
100
AcDbEntity
  8
0
  6
Continuous
 62
     7
370
    25
100
AcDbSpline
210
0.0
220
0.0
230
1.0
 70
     8
 71
     3
 72
     9
 73
     5
 74
     0
 42
0.00000001
 43
0.00000001
 40
0.0
 40
0.0
 40
0.0
 40
0.0
 40
0.400722737156528
 40
1.0
 40
1.0
 40
1.0
 40
1.0
 10
729.3444875571638
 20
530.6827444230062
 30
0.0
 10
728.9358014337546
 20
530.7311516850718
 30
0.0
 10
727.9159288747148
 20
530.8519515738155
 30
0.0
 10
727.0468528308888
 20
531.4120588471692
 30
0.0
 10
726.526035318142
 20
531.7477184008434
 30
0.0
  0
LINE
  5
1A6
330
1F
100
AcDbEntity
  8
0
  6
Continuous
 62
     7
370
    25
100
AcDbLine
 10
726.4853288772
 20
531.667182895
 30
0.0
 11
726.5260353181
 21
531.7477184008
 31
0.0
  0
ARC
  5
1A7
330
1F
100
AcDbEntity
  8
0
  6
Continuous
 62
     7
370
    25
100
AcDbCircle
 10
720.9607021634
 20
524.6849817607
 30
0.0
 40
8.975658044222124
100
AcDbArc
 50
245.1648853947
 51
308.2586979829
  0
LWPOLYLINE
  5
1A8
330
1F
100
AcDbEntity
  8
0
  6
Continuous
 62
     7
370
    25
100
AcDbPolyline
 90
        3
 70
   128
 43
0.0
 10
717.0253887392
 20
516.4343220374
 10
717.1299703033
 20
516.5005744487
 10
717.190850846
 20
516.539390415
  0
ARC
  5
1A9
330
1F
100
AcDbEntity
  8
0
  6
Continuous
 62
     7
370
    25
100
AcDbCircle
 10
720.9607021634
 20
524.6849817607
 30
0.0
 40
9.141120151092208
100
AcDbArc
 50
115.4997164176
 51
244.500279429
  0
LWPOLYLINE
  5
1AA
330
1F
100
AcDbEntity
  8
0
  6
Continuous
 62
     7
370
    25
100
AcDbPolyline
 90
        3
 70
   128
 43
0.0
 10
717.1745579356
 20
532.8409791771
 10
717.1299703033
 20
532.8693890727
 10
717.0253887389
 20
532.9356414842
  0
ARC
  5
1AB
330
1F
100
AcDbEntity
  8
0
  6
Continuous
 62
     7
370
    25
100
AcDbCircle
 10
720.9607021634
 20
524.6849817607
 30
0.0
 40
8.991950954660766
100
AcDbArc
 50
51.762407147
 51
114.9014811666
  0
LINE
  5
1AC
330
1F
100
AcDbEntity
  8
0
  6
Continuous
 62
     7
370
    25
100
AcDbLine
 10
778.3939134187
 20
527.4417620176
 30
0.0
 11
778.3892230581
 21
527.4373235645
 31
0.0
  0
LINE
  5
1AD
330
1F
100
AcDbEntity
  8
0
  6
Continuous
 62
     7
370
    25
100
AcDbLine
 10
778.3939134187
 20
521.9282015038
 30
0.0
 11
778.3939134187
 21
527.4417620176
 31
0.0
  0
LINE
  5
1AE
330
1F
100
AcDbEntity
  8
0
  6
Continuous
 62
     7
370
    25
100
AcDbLine
 10
778.3892230581
 20
521.9326399569
 30
0.0
 11
778.3939134187
 21
521.9282015038
 31
0.0
  0
ARC
  5
1AF
330
1F
100
AcDbEntity
  8
0
  6
Continuous
 62
     7
370
    25
100
AcDbCircle
 10
777.8938135311
 20
527.4415954323
 30
0.0
 40
0.5000999153468471
100
AcDbArc
 50
0.0190854617
 51
86.8195880753
  0
ARC
  5
1B0
330
1F
100
AcDbEntity
  8
0
  6
Continuous
 62
     7
370
    25
100
AcDbCircle
 10
777.8938135311
 20
521.9283680891
 30
0.0
 40
0.5000999153466861
100
AcDbArc
 50
273.1804119247
 51
359.9809145383
  0
LINE
  5
1B1
330
1F
100
AcDbEntity
  8
0
  6
Continuous
 62
     7
370
    25
100
AcDbLine
 10
777.3711361513
 20
521.3778776737
 30
0.0
 11
777.3782438821
 21
521.3782447103
 31
0.0
  0
LINE
  5
1B2
330
1F
100
AcDbEntity
  8
0
  6
Continuous
 62
     7
370
    25
100
AcDbLine
 10
777.3711361513
 20
527.9920858477
 30
0.0
 11
777.3782438821
 21
527.991718811
 31
0.0
  0
SPLINE
  5
1B3
330
1F
100
AcDbEntity
  8
0
  6
Continuous
 62
     7
370
    25
100
AcDbSpline
210
0.0
220
0.0
230
1.0
 70
     8
 71
     3
 72
    12
 73
     8
 74
     0
 42
0.00000001
 43
0.00000001
 40
0.0
 40
0.0
 40
0.0
 40
0.0
 40
0.1662426524176545
 40
0.3368059756191297
 40
0.6054181071254586
 40
0.8801435087136193
 40
1.0
 40
1.0
 40
1.0
 40
1.0
 10
727.0827614107423
 20
513.0083213790239
 30
0.0
 10
726.4450798902061
 20
513.1638065545068
 30
0.0
 10
725.1531434134056
 20
513.478817987862
 30
0.0
 10
722.9689570310561
 20
514.1417830928605
 30
0.0
 10
720.6069826874964
 20
514.993978009666
 30
0.0
 10
718.6414451256038
 20
515.836606688278
 30
0.0
 10
717.5276701408083
 20
516.3744647809733
 30
0.0
 10
717.1893546626507
 20
516.5378422318006
 30
0.0
  0
LINE
  5
1B4
330
1F
100
AcDbEntity
  8
0
  6
Continuous
 62
     7
370
    25
100
AcDbLine
 10
727.0827614107
 20
513.008321379
 30
0.0
 11
727.0669033338
 21
512.9388478475
 31
0.0
  0
ARC
  5
1B5
330
1F
100
AcDbEntity
  8
0
  6
Continuous
 62
     7
370
    25
100
AcDbCircle
 10
737.7886815703
 20
559.9104826597
 30
0.0
 40
48.17977797259048
100
AcDbArc
 50
244.4718479123
 51
257.1419190681
  0
LWPOLYLINE
  5
1B6
330
1F
100
AcDbEntity
  8
0
  6
Continuous
 62
     7
370
    25
100
AcDbPolyline
 90
        3
 70
   128
 43
0.0
 10
717.1893546627
 20
516.5378422318
 10
717.1299668123
 20
516.5003185282
 10
717.0253887395
 20
516.4343204983
  0
SPLINE
  5
1B7
330
1F
100
AcDbEntity
  8
0
  6
Continuous
 62
     7
370
    25
100
AcDbSpline
210
0.0
220
0.0
230
1.0
 70
     8
 71
     3
 72
    11
 73
     7
 74
     0
 42
0.00000001
 43
0.00000001
 40
0.0
 40
0.0
 40
0.0
 40
0.0
 40
0.1345990676765959
 40
0.4126978815969493
 40
0.6969472592954598
 40
1.0
 40
1.0
 40
1.0
 40
1.0
 10
717.1900722396077
 20
516.5385837978745
 30
0.0
 10
717.619378259856
 20
516.3476999127133
 30
0.0
 10
718.9356851865803
 20
515.7624256132935
 30
0.0
 10
721.3114952374635
 20
515.1399577292699
 30
0.0
 10
724.3651846223446
 20
514.7634550467695
 30
0.0
 10
726.5562145307053
 20
514.7363137184367
 30
0.0
 10
727.6868040482433
 20
514.7223085689916
 30
0.0
  0
ARC
  5
1B8
330
1F
100
AcDbEntity
  8
0
  6
Continuous
 62
     7
370
    25
100
AcDbCircle
 10
723.1942730552
 20
515.3421326136
 30
0.0
 40
4.535087272521946
100
AcDbArc
 50
329.0284626407
 51
352.1446266983
  0
LINE
  5
1B9
330
1F
100
AcDbEntity
  8
0
  6
Continuous
 62
     7
370
    25
100
AcDbLine
 10
717.1893546627
 20
516.5378422318
 30
0.0
 11
717.1900722396
 21
516.5385837979
 31
0.0
  0
LINE
  5
1BA
330
1F
100
AcDbEntity
  8
0
  6
Continuous
 62
     7
370
    25
100
AcDbLine
 10
726.5185477433
 20
517.6370891794
 30
0.0
 11
728.7164196635
 21
514.8499723051
 31
0.0
  0
ARC
  5
1BB
330
1F
100
AcDbEntity
  8
0
  6
Continuous
 62
     7
370
    25
100
AcDbCircle
 10
720.9607021634
 20
524.6849817607
 30
0.0
 40
12.52511736202729
100
AcDbArc
 50
307.8583068702
 51
308.2586979829
  0
LINE
  5
1BC
330
1F
100
AcDbEntity
  8
0
  6
Continuous
 62
     7
370
    25
100
AcDbLine
 10
727.6868040482
 20
514.722308569
 30
0.0
 11
728.6475023971
 21
514.7960148227
 31
0.0
  0
LINE
  5
1BD
330
1F
100
AcDbEntity
  8
0
  6
Continuous
 62
     7
370
    25
100
AcDbLine
 10
717.190850846
 20
516.539390415
 30
0.0
 11
717.1900722396
 21
516.5385837979
 31
0.0
  0
ARC
  5
1BE
330
1F
100
AcDbEntity
  8
0
  6
Continuous
 62
     7
370
    25
100
AcDbCircle
 10
738.8783738771
 20
519.4083823725
 30
0.0
 40
6.834138728215066
100
AcDbArc
 50
211.8771071303
 51
226.9488007428
  0
SPLINE
  5
1BF
330
1F
100
AcDbEntity
  8
0
  6
Continuous
 62
     7
370
    25
100
AcDbSpline
210
0.0
220
0.0
230
1.0
 70
     8
 71
     3
 72
    17
 73
    13
 74
     0
 42
0.00000001
 43
0.00000001
 40
0.0
 40
0.0
 40
0.0
 40
0.0
 40
0.2859834379244703
 40
0.521592264412224
 40
0.759239901680938
 40
0.85214924050605
 40
0.9266708633836014
 40
0.9605058393195369
 40
0.9835417153308584
 40
0.9930790992390832
 40
0.9972256067114875
 40
1.0
 40
1.0
 40
1.0
 40
1.0
 10
733.0749410859911
 20
515.7992799917096
 30
0.0
 10
734.3037192697386
 20
516.33114811573
 30
0.0
 10
736.5448322515693
 20
517.3011983437776
 30
0.0
 10
739.8837809384711
 20
518.3434290145623
 30
0.0
 10
742.386436305178
 20
518.961247575489
 30
0.0
 10
744.1567425892141
 20
519.315222884707
 30
0.0
 10
745.0218634245514
 20
519.46992391932
 30
0.0
 10
745.547450853827
 20
519.5584239101518
 30
0.0
 10
745.7811129674841
 20
519.5975356729742
 30
0.0
 10
745.8587631269735
 20
519.6118554397362
 30
0.0
 10
745.8748447811736
 20
519.6155891920536
 30
0.0
 10
745.8759051691495
 20
519.6163230332486
 30
0.0
 10
745.8763302486853
 20
519.6166172094197
 30
0.0
  0
SPLINE
  5
1C0
330
1F
100
AcDbEntity
  8
0
  6
Continuous
 62
     7
370
    25
100
AcDbSpline
210
0.0
220
0.0
230
1.0
 70
     8
 71
     3
 72
    10
 73
     6
 74
     0
 42
0.00000001
 43
0.00000001
 40
0.0
 40
0.0
 40
0.0
 40
0.0
 40
0.5975855365574454
 40
0.9790563563181981
 40
1.0
 40
1.0
 40
1.0
 40
1.0
 10
745.9863555683731
 20
519.6074903120802
 30
0.0
 10
745.9888747077266
 20
519.6112296098066
 30
0.0
 10
745.9930019485072
 20
519.6173559013301
 30
0.0
 10
745.9186308219516
 20
519.6177324601867
 30
0.0
 10
745.8784228698473
 20
519.6166723811863
 30
0.0
 10
745.8763302486853
 20
519.6166172094197
 30
0.0
  0
SPLINE
  5
1C1
330
1F
100
AcDbEntity
  8
0
  6
Continuous
 62
     7
370
    25
100
AcDbSpline
210
0.0
220
0.0
230
1.0
 70
     8
 71
     3
 72
    14
 73
    10
 74
     0
 42
0.00000001
 43
0.00000001
 40
0.0
 40
0.0
 40
0.0
 40
0.0
 40
0.0129036569231464
 40
0.0519665716781148
 40
0.1318891824261205
 40
0.2280032005552168
 40
0.4679440229400844
 40
0.7079115564493632
 40
1.0
 40
1.0
 40
1.0
 40
1.0
 10
745.9863555683731
 20
519.6074903120802
 30
0.0
 10
745.9528869919087
 20
519.599645338019
 30
0.0
 10
745.818099839076
 20
519.5680514720864
 30
0.0
 10
745.3788263940836
 20
519.4656694247926
 30
0.0
 10
744.5673989758577
 20
519.2632679159756
 30
0.0
 10
742.913921794037
 20
518.7962172352094
 30
0.0
 10
740.5696317217934
 20
517.9587601758191
 30
0.0
 10
737.4245375452962
 20
516.5138199354687
 30
0.0
 10
735.3512388711036
 20
515.1584490526741
 30
0.0
 10
734.2130379883566
 20
514.4143766455244
 30
0.0
  0
LINE
  5
1C2
330
1F
100
AcDbEntity
  8
0
  6
Continuous
 62
     7
370
    25
100
AcDbLine
 10
731.6342727239
 20
515.2751363097
 30
0.0
 11
729.5341902078
 21
515.159145361
 31
0.0
  0
LINE
  5
1C3
330
1F
100
AcDbEntity
  8
0
  6
Continuous
 62
     7
370
    25
100
AcDbLine
 10
729.3384461721
 20
518.7032031655
 30
0.0
 11
729.5341902078
 21
515.159145361
 31
0.0
  0
LINE
  5
1C4
330
1F
100
AcDbEntity
  8
0
  6
Continuous
 62
     7
370
    25
100
AcDbLine
 10
731.6342727239
 20
515.2751363097
 30
0.0
 11
733.074941086
 21
515.7992799917
 31
0.0
  0
LWPOLYLINE
  5
1C5
330
1F
100
AcDbEntity
  8
0
  6
Continuous
 62
     7
370
    25
100
AcDbPolyline
 90
        4
 70
   128
 43
0.0
 10
746.0058823824
 20
519.4563947358
 10
746.0036377468
 20
519.4737528827
 10
745.9946627128
 20
519.5431856289
 10
745.9863555684
 20
519.6074903121
  0
LINE
  5
1C6
330
1F
100
AcDbEntity
  8
0
  6
Continuous
 62
     7
370
    25
100
AcDbLine
 10
744.2177580987
 20
519.0268672325
 30
0.0
 11
746.0058823824
 21
519.4563947358
 31
0.0
  0
ARC
  5
1C7
330
1F
100
AcDbEntity
  8
0
  6
Continuous
 62
     7
370
    25
100
AcDbCircle
 10
752.4033164972
 20
488.6011736387
 30
0.0
 40
31.50755777528331
100
AcDbArc
 50
105.0579972479
 51
125.1719294169
  0
LINE
  5
1C8
330
1F
100
AcDbEntity
  8
0
  6
Continuous
 62
     7
370
    25
100
AcDbLine
 10
734.2130379884
 20
514.4143766455
 30
0.0
 11
734.2539578746
 21
514.3563086325
 31
0.0
  0
SPLINE
  5
1C9
330
1F
100
AcDbEntity
  8
0
  6
Continuous
 62
     7
370
    25
100
AcDbSpline
210
0.0
220
0.0
230
1.0
 70
     8
 71
     3
 72
     9
 73
     5
 74
     0
 42
0.00000001
 43
0.00000001
 40
0.0
 40
0.0
 40
0.0
 40
0.0
 40
0.4998978730609624
 40
1.0
 40
1.0
 40
1.0
 40
1.0
 10
729.5341902078173
 20
515.1591453610189
 30
0.0
 10
729.3859952919217
 20
515.1391790230166
 30
0.0
 10
729.0895449089898
 20
515.0992381889419
 30
0.0
 10
728.840811680213
 20
514.9330722463714
 30
0.0
 10
728.7164196634615
 20
514.849972305067
 30
0.0
  0
ARC
  5
1CA
330
1F
100
AcDbEntity
  8
0
  6
Continuous
 62
     7
370
    25
100
AcDbCircle
 10
746.0876908833
 20
519.1177888723
 30
0.0
 40
0.5000763403809522
100
AcDbArc
 50
93.16262964
 51
101.6913635617
  0
ARC
  5
1CB
330
1F
100
AcDbEntity
  8
0
  6
Continuous
 62
     7
370
    25
100
AcDbCircle
 10
737.7886815703
 20
489.4594808617
 30
0.0
 40
48.10950076354636
100
AcDbArc
 50
102.8580809319
 51
103.1066633214
  0
SPLINE
  5
1CC
330
1F
100
AcDbEntity
  8
0
  6
Continuous
 62
     7
370
    25
100
AcDbSpline
210
0.0
220
0.0
230
1.0
 70
     8
 71
     3
 72
    13
 73
     9
 74
     0
 42
0.00000001
 43
0.00000001
 40
0.0
 40
0.0
 40
0.0
 40
0.0
 40
0.0460329529079886
 40
0.2492425848193727
 40
0.477522557027288
 40
0.7051721168687837
 40
0.8526808263814667
 40
0.9999999999999999
 40
0.9999999999999999
 40
0.9999999999999999
 40
0.9999999999999999
 10
717.1733236889605
 20
532.8422535207973
 30
0.0
 10
717.3016583409988
 20
532.9047624892339
 30
0.0
 10
717.9965184004844
 20
533.2432134441112
 30
0.0
 10
719.356181635061
 20
533.8611908681402
 30
0.0
 10
721.3641542518794
 20
534.6716631948534
 30
0.0
 10
723.3786645137825
 20
535.364287996118
 30
0.0
 10
725.2409477950279
 20
535.9145217978161
 30
0.0
 10
726.3333173582665
 20
536.182037908922
 30
0.0
 10
726.8791510142736
 20
536.3157099754823
 30
0.0
  0
LWPOLYLINE
  5
1CD
330
1F
100
AcDbEntity
  8
0
  6
Continuous
 62
     7
370
    25
100
AcDbPolyline
 90
        3
 70
   128
 43
0.0
 10
717.173323689
 20
532.8422535208
 10
717.1299668123
 20
532.8696449932
 10
717.0253887392
 20
532.9356430232
  0
ARC
  5
1CE
330
1F
100
AcDbEntity
  8
0
  6
Continuous
 62
     7
370
    25
100
AcDbCircle
 10
737.7886815703
 20
489.4594808617
 30
0.0
 40
48.17977797259042
100
AcDbArc
 50
102.8580809319
 51
115.5281512988
  0
LINE
  5
1CF
330
1F
100
AcDbEntity
  8
0
  6
Continuous
 62
     7
370
    25
100
AcDbLine
 10
727.0825426058
 20
536.3626007173
 30
0.0
 11
727.0669033338
 21
536.4311156739
 31
0.0
  0
LINE
  5
1D0
330
1F
100
AcDbEntity
  8
0
  6
Continuous
 62
     7
370
    25
100
AcDbLine
 10
727.3326110922
 20
534.3681074463
 30
0.0
 11
726.8791510143
 21
536.3157099755
 31
0.0
  0
SPLINE
  5
1D1
330
1F
100
AcDbEntity
  8
0
  6
Continuous
 62
     7
370
    25
100
AcDbSpline
210
0.0
220
0.0
230
1.0
 70
     8
 71
     3
 72
    13
 73
     9
 74
     0
 42
0.00000001
 43
0.00000001
 40
0.0
 40
0.0
 40
0.0
 40
0.0
 40
0.2574896950994368
 40
0.4890886589321025
 40
0.7206004760683485
 40
0.9447506334961274
 40
0.9460032291293288
 40
1.0
 40
1.0
 40
1.0
 40
1.0
 10
727.3326110921605
 20
534.3681074462683
 30
0.0
 10
726.4138855161727
 20
534.396170410383
 30
0.0
 10
724.6688127290346
 20
534.4494745920485
 30
0.0
 10
722.1742474831211
 20
534.2849104732104
 30
0.0
 10
719.8585976771203
 20
533.8715364782003
 30
0.0
 10
718.3814890755162
 20
533.371979291637
 30
0.0
 10
717.5102276309756
 20
532.997736436707
 30
0.0
 10
717.3401812221528
 20
532.9187560182218
 30
0.0
 10
717.1739900500974
 20
532.8415662180472
 30
0.0
  0
LINE
  5
1D2
330
1F
100
AcDbEntity
  8
0
  6
Continuous
 62
     7
370
    25
100
AcDbLine
 10
717.1739900501
 20
532.841566218
 30
0.0
 11
717.173323689
 21
532.8422535208
 31
0.0
  0
LINE
  5
1D3
330
1F
100
AcDbEntity
  8
0
  6
Continuous
 62
     7
370
    25
100
AcDbLine
 10
733.4379304079
 20
533.0602230388
 30
0.0
 11
734.5674058254
 21
534.7103948284
 31
0.0
  0
SPLINE
  5
1D4
330
1F
100
AcDbEntity
  8
0
  6
Continuous
 62
     7
370
    25
100
AcDbSpline
210
0.0
220
0.0
230
1.0
 70
     8
 71
     3
 72
    15
 73
    11
 74
     0
 42
0.00000001
 43
0.00000001
 40
0.0
 40
0.0
 40
0.0
 40
0.0
 40
0.2255198391625378
 40
0.451564594375195
 40
0.6337799820516977
 40
0.8158790324473547
 40
0.8946729146060269
 40
0.9638048440471935
 40
0.9940832206369723
 40
1.0
 40
1.0
 40
1.0
 40
1.0
 10
734.5674058254293
 20
534.710394828425
 30
0.0
 10
735.4128543662832
 20
534.1653871590836
 30
0.0
 10
737.1057192992911
 20
533.0741032700411
 30
0.0
 10
739.5820354929705
 20
531.8569998804484
 30
0.0
 10
741.9104464076817
 20
530.9261000720131
 30
0.0
 10
743.6509258975042
 20
530.3703095271997
 30
0.0
 10
744.9085947538738
 20
530.0337567002354
 30
0.0
 10
745.5527276517862
 20
529.8784095939109
 30
0.0
 10
745.8806729418682
 20
529.8028561956434
 30
0.0
 10
745.9732103854924
 20
529.7813354875933
 30
0.0
 10
745.9883373720278
 20
529.7778175228847
 30
0.0
  0
SPLINE
  5
1D5
330
1F
100
AcDbEntity
  8
0
  6
Continuous
 62
     7
370
    25
100
AcDbSpline
210
0.0
220
0.0
230
1.0
 70
     8
 71
     3
 72
    11
 73
     7
 74
     0
 42
0.00000001
 43
0.00000001
 40
0.0
 40
0.0
 40
0.0
 40
0.0
 40
0.019556121229571
 40
0.168189199674442
 40
0.5898876540792781
 40
1.0
 40
1.0
 40
1.0
 40
1.0
 10
745.8783959806107
 20
529.7695499607917
 30
0.0
 10
745.8803546937587
 20
529.7694918470759
 30
0.0
 10
745.8972002835814
 20
529.7689920496351
 30
0.0
 10
745.9491008473408
 20
529.7681456322216
 30
0.0
 10
745.9983854794061
 20
529.7702349307438
 30
0.0
 10
745.9916554943297
 20
529.7753135719272
 30
0.0
 10
745.9883373720278
 20
529.7778175228847
 30
0.0
  0
SPLINE
  5
1D6
330
1F
100
AcDbEntity
  8
0
  6
Continuous
 62
     7
370
    25
100
AcDbSpline
210
0.0
220
0.0
230
1.0
 70
     8
 71
     3
 72
    17
 73
    13
 74
     0
 42
0.00000001
 43
0.00000001
 40
0.0
 40
0.0
 40
0.0
 40
0.0
 40
0.0068263121770685
 40
0.0088448507297254
 40
0.0223990310416126
 40
0.0309593028397538
 40
0.0563218912149143
 40
0.1198824177066684
 40
0.1957460556357056
 40
0.5558621944880031
 40
0.77803360979772
 40
1.0
 40
1.0
 40
1.0
 40
1.0
 10
745.8783959806107
 20
529.7695499607917
 30
0.0
 10
745.874775835449
 20
529.7705881438367
 30
0.0
 10
745.8700852144016
 20
529.7719333173104
 30
0.0
 10
745.8265525016983
 20
529.7795233053854
 30
0.0
 10
745.7520205792658
 20
529.7912748121919
 30
0.0
 10
745.5851883337639
 20
529.8169937074151
 30
0.0
 10
745.2036122166965
 20
529.8755082864374
 30
0.0
 10
744.5207112499622
 20
529.9847052710246
 30
0.0
 10
742.4157119330445
 20
530.3518775034486
 30
0.0
 10
739.6027773512584
 20
530.986055187414
 30
0.0
 10
736.2039931366917
 20
531.9989954792725
 30
0.0
 10
734.3596675219279
 20
532.7065893999592
 30
0.0
 10
733.4379304079374
 20
533.0602230387861
 30
0.0
  0
LINE
  5
1D7
330
1F
100
AcDbEntity
  8
0
  6
Continuous
 62
     7
370
    25
100
AcDbLine
 10
729.3444875572
 20
530.682744423
 30
0.0
 11
729.4878493861
 21
533.2783923925
 31
0.0
  0
LINE
  5
1D8
330
1F
100
AcDbEntity
  8
0
  6
Continuous
 62
     7
370
    25
100
AcDbLine
 10
729.4878493861
 20
533.2783923925
 30
0.0
 11
733.4379304079
 21
533.0602230388
 31
0.0
  0
LINE
  5
1D9
330
1F
100
AcDbEntity
  8
0
  6
Continuous
 62
     7
370
    25
100
AcDbLine
 10
726.5260353181
 20
531.7477184008
 30
0.0
 11
728.1349923114
 21
533.7895799018
 31
0.0
  0
LINE
  5
1DA
330
1F
100
AcDbEntity
  8
0
  6
Continuous
 62
     7
370
    25
100
AcDbLine
 10
717.1739900501
 20
532.841566218
 30
0.0
 11
717.1745579356
 21
532.8409791771
 31
0.0
  0
ARC
  5
1DB
330
1F
100
AcDbEntity
  8
0
  6
Continuous
 62
     7
370
    25
100
AcDbCircle
 10
720.9607021634
 20
524.6849817607
 30
0.0
 40
11.59155496206734
100
AcDbArc
 50
51.762407147
 51
56.6533814372
  0
LWPOLYLINE
  5
1DC
330
1F
100
AcDbEntity
  8
0
  6
Continuous
 62
     7
370
    25
100
AcDbPolyline
 90
        4
 70
   128
 43
0.0
 10
745.988337372
 20
529.7778175229
 10
745.9905796183
 20
529.7951757779
 10
745.9995521012
 20
529.8646086395
 10
746.0058823824
 20
529.9135687856
  0
ARC
  5
1DD
330
1F
100
AcDbEntity
  8
0
  6
Continuous
 62
     7
370
    25
100
AcDbCircle
 10
752.4033164972
 20
560.7687898827
 30
0.0
 40
31.57783498432754
100
AcDbArc
 50
234.8280705831
 51
235.6099480104
  0
LINE
  5
1DE
330
1F
100
AcDbEntity
  8
0
  6
Continuous
 62
     7
370
    25
100
AcDbLine
 10
734.2134759597
 20
534.9562083861
 30
0.0
 11
734.2539578746
 21
535.0136548889
 31
0.0
  0
ARC
  5
1DF
330
1F
100
AcDbEntity
  8
0
  6
Continuous
 62
     7
370
    25
100
AcDbCircle
 10
752.4033164972
 20
560.7687898827
 30
0.0
 40
31.50755777528333
100
AcDbArc
 50
234.8280705831
 51
254.9420027521
  0
LINE
  5
1E0
330
1F
100
AcDbEntity
  8
0
  6
Continuous
 62
     7
370
    25
100
AcDbLine
 10
746.0058823824
 20
529.9135687856
 30
0.0
 11
744.2177580987
 21
530.3430962889
 31
0.0
  0
LINE
  5
1E1
330
1F
100
AcDbEntity
  8
0
  6
Continuous
 62
     7
370
    25
100
AcDbLine
 10
746.0797197918
 20
519.4667130321
 30
0.0
 11
746.0058823824
 21
519.4563947358
 31
0.0
  0
SPLINE
  5
1E2
330
1F
100
AcDbEntity
  8
0
  6
Continuous
 62
     7
370
    25
100
AcDbSpline
210
0.0
220
0.0
230
1.0
 70
     8
 71
     3
 72
    10
 73
     6
 74
     0
 42
0.00000001
 43
0.00000001
 40
0.0
 40
0.0
 40
0.0
 40
0.0
 40
0.0490769085761659
 40
0.599580584366531
 40
1.0
 40
1.0
 40
1.0
 40
1.0
 10
728.1349923114005
 20
533.7895799018196
 30
0.0
 10
728.1539398497696
 20
533.7749571662182
 30
0.0
 10
728.3854250116761
 20
533.5963088240292
 30
0.0
 10
728.8312987864934
 20
533.3622568306079
 30
0.0
 10
729.2933053633778
 20
533.3032424575903
 30
0.0
 10
729.4878493861315
 20
533.278392392458
 30
0.0
  0
ARC
  5
1E3
330
1F
100
AcDbEntity
  8
0
  6
Continuous
 62
     7
370
    25
100
AcDbCircle
 10
746.089690773
 20
530.2675152199
 30
0.0
 40
0.500076340487477
100
AcDbArc
 50
258.3065203377
 51
266.8373700348
  0
SPLINE
  5
1E4
330
1F
100
AcDbEntity
  8
0
  6
Continuous
 62
     7
370
    25
100
AcDbSpline
210
0.0
220
0.0
230
1.0
 70
     8
 71
     3
 72
     9
 73
     5
 74
     0
 42
0.00000001
 43
0.00000001
 40
0.0
 40
0.0
 40
0.0
 40
0.0
 40
0.8458911907785723
 40
1.0
 40
1.0
 40
1.0
 40
1.0
 10
746.0058823824382
 20
529.9135687855709
 30
0.0
 10
746.0267229785493
 20
529.9097539785786
 30
0.0
 10
746.0513604216843
 20
529.9052441704213
 30
0.0
 10
746.0759329488604
 20
529.9035167066701
 30
0.0
 10
746.0797197917632
 20
529.9032504892886
 30
0.0
  0
LINE
  5
1E5
330
1F
100
AcDbEntity
  8
0
  6
Continuous
 62
     7
370
    25
100
AcDbLine
 10
764.0751399894
 20
528.836994636
 30
0.0
 11
764.0746819696
 21
528.8370197225
 31
0.0
  0
LINE
  5
1E6
330
1F
100
AcDbEntity
  8
0
  6
Continuous
 62
     7
370
    25
100
AcDbLine
 10
734.2130379884
 20
514.4143766455
 30
0.0
 11
732.374297139
 21
513.4174104099
 31
0.0
  0
LINE
  5
1E7
330
1F
100
AcDbEntity
  8
0
  6
Continuous
 62
     7
370
    25
100
AcDbLine
 10
731.6342727239
 20
515.2751363097
 30
0.0
 11
732.374297139
 21
513.4174104099
 31
0.0
  0
LINE
  5
1E8
330
1F
100
AcDbEntity
  8
0
  6
Continuous
 62
     7
370
    25
100
AcDbLine
 10
728.6475023971
 20
514.7960148227
 30
0.0
 11
728.5256686505
 21
512.8000343138
 31
0.0
  0
LINE
  5
1E9
330
1F
100
AcDbEntity
  8
0
  6
Continuous
 62
     7
370
    25
100
AcDbLine
 10
728.5256686505
 20
512.8000343138
 30
0.0
 11
727.0827614107
 21
513.008321379
 31
0.0
  0
ARC
  5
1EA
330
1F
100
AcDbEntity
  8
0
  6
Continuous
 62
     7
370
    25
100
AcDbCircle
 10
729.0697173687
 20
521.7130872849
 30
0.0
 40
6.929946387144304
100
AcDbArc
 50
266.5070253286
 51
291.7198462835
  0
ARC
  5
1EB
330
1F
100
AcDbEntity
  8
0
  6
Continuous
 62
     7
370
    25
100
AcDbCircle
 10
737.7886815703
 20
489.4594808617
 30
0.0
 40
46.10980537323352
100
AcDbArc
 50
102.8580809319
 51
103.1066633214
  0
LINE
  5
1EC
330
1F
100
AcDbEntity
  8
0
  6
Continuous
 62
     7
370
    25
100
AcDbLine
 10
727.5275486107
 20
534.413049151
 30
0.0
 11
727.0825426058
 21
536.3626007173
 31
0.0
  0
ARC
  5
1ED
330
1F
100
AcDbEntity
  8
0
  6
Continuous
 62
     7
370
    25
100
AcDbCircle
 10
752.4033164972
 20
560.7687898827
 30
0.0
 40
33.57753037464028
100
AcDbArc
 50
234.8280705831
 51
235.6099480104
  0
ARC
  5
1EE
330
1F
100
AcDbEntity
  8
0
  6
Continuous
 62
     7
370
    25
100
AcDbCircle
 10
729.0697173687
 20
527.6568762365
 30
0.0
 40
6.929946387144233
100
AcDbArc
 50
54.8280705831
 51
102.8580809319
  0
ARC
  5
1EF
330
1F
100
AcDbEntity
  8
0
  6
Continuous
 62
     7
370
    25
100
AcDbCircle
 10
729.0697173687
 20
521.7130872849
 30
0.0
 40
8.929641777457016
100
AcDbArc
 50
266.5070253286
 51
291.7198462835
  0
ARC
  5
1F0
330
1F
100
AcDbEntity
  8
0
  6
Continuous
 62
     7
370
    25
100
AcDbCircle
 10
729.0697173687
 20
527.6568762365
 30
0.0
 40
8.929641777457071
100
AcDbArc
 50
54.8280705831
 51
102.8580809319
  0
LINE
  5
1F1
330
1F
100
AcDbEntity
  8
0
  6
Continuous
 62
     7
370
    25
100
AcDbLine
 10
733.0615876086
 20
533.3216029657
 30
0.0
 11
734.2134759597
 21
534.9562083861
 31
0.0
  0
ARC
  5
1F2
330
1F
100
AcDbEntity
  8
0
  6
Continuous
 62
     7
370
    25
100
AcDbCircle
 10
729.0697173687
 20
521.7130872849
 30
0.0
 40
8.999918986501244
100
AcDbArc
 50
257.1419190681
 51
305.1719294169
  0
ARC
  5
1F3
330
1F
100
AcDbEntity
  8
0
  6
Continuous
 62
     7
370
    25
100
AcDbCircle
 10
729.0697173687
 20
527.6568762365
 30
0.0
 40
8.999918986501134
100
AcDbArc
 50
54.8280705831
 51
102.8580809319
  0
SPLINE
  5
1F4
330
1F
100
AcDbEntity
  8
0
  6
Continuous
 62
     7
370
    25
100
AcDbSpline
210
0.0
220
0.0
230
1.0
 70
     8
 71
     3
 72
    11
 73
     7
 74
     0
 42
0.00000001
 43
0.00000001
 40
0.0
 40
0.0
 40
0.0
 40
0.0
 40
0.2200386424382255
 40
0.6637869905998169
 40
0.8890365590789576
 40
1.0
 40
1.0
 40
1.0
 40
1.0
 10
511.0831120188397
 20
518.6646634537439
 30
0.0
 10
510.8788905558382
 20
518.9296820650027
 30
0.0
 10
510.2628189929547
 20
519.7291593953074
 30
0.0
 10
509.7392696419375
 20
520.9923286658352
 30
0.0
 10
509.4876404421764
 20
522.1588984791593
 30
0.0
 10
509.5083476368987
 20
522.6701782778186
 30
0.0
 10
509.5151818209247
 20
522.838920605291
 30
0.0
  0
SPLINE
  5
1F5
330
1F
100
AcDbEntity
  8
0
  6
Continuous
 62
     7
370
    25
100
AcDbSpline
210
0.0
220
0.0
230
1.0
 70
     8
 71
     3
 72
     9
 73
     5
 74
     0
 42
0.00000001
 43
0.00000001
 40
0.0
 40
0.0
 40
0.0
 40
0.0
 40
0.9209630919903056
 40
1.0
 40
1.0
 40
1.0
 40
1.0
 10
509.4430696555924
 20
518.9849867293773
 30
0.0
 10
509.9574911934652
 20
518.9281596704587
 30
0.0
 10
510.51606030698
 20
518.8664557222628
 30
0.0
 10
511.0415768186494
 20
518.6794442613748
 30
0.0
 10
511.0831120188397
 20
518.6646634537439
 30
0.0
  0
SPLINE
  5
1F6
330
1F
100
AcDbEntity
  8
0
  6
Continuous
 62
     7
370
    25
100
AcDbSpline
210
0.0
220
0.0
230
1.0
 70
     8
 71
     3
 72
    10
 73
     6
 74
     0
 42
0.00000001
 43
0.00000001
 40
0.0
 40
0.0
 40
0.0
 40
0.0
 40
0.2596150688488836
 40
0.629760644481066
 40
0.9999999999999999
 40
0.9999999999999999
 40
0.9999999999999999
 40
0.9999999999999999
 10
462.2679087016552
 20
521.5765442983665
 30
0.0
 10
466.3457289203782
 20
521.2767901612681
 30
0.0
 10
476.2374917537435
 20
520.5496622661038
 30
0.0
 10
491.9670644364167
 20
519.7238153962137
 30
0.0
 10
503.6172426976814
 20
519.2312837469481
 30
0.0
 10
509.4430696555924
 20
518.9849867293773
 30
0.0
  0
SPLINE
  5
1F7
330
1F
100
AcDbEntity
  8
0
  6
Continuous
 62
     7
370
    25
100
AcDbSpline
210
0.0
220
0.0
230
1.0
 70
     8
 71
     3
 72
    11
 73
     7
 74
     0
 42
0.00000001
 43
0.00000001
 40
0.0
 40
0.0
 40
0.0
 40
0.0
 40
0.061464119541392
 40
0.4999988937835378
 40
0.9375097801832794
 40
1.0
 40
1.0
 40
1.0
 40
1.0
 10
462.2679087016554
 20
527.3025766453683
 30
0.0
 10
462.256239505453
 20
527.1861196729163
 30
0.0
 10
462.1613128191836
 20
526.238764405585
 30
0.0
 10
462.0776099919175
 20
524.4415202071368
 30
0.0
 10
462.1611799154375
 20
522.642322182896
 30
0.0
 10
462.2560516204829
 20
521.6949473584629
 30
0.0
 10
462.2679087016552
 20
521.5765442983665
 30
0.0
  0
SPLINE
  5
1F8
330
1F
100
AcDbEntity
  8
0
  6
Continuous
 62
     7
370
    25
100
AcDbSpline
210
0.0
220
0.0
230
1.0
 70
     8
 71
     3
 72
    11
 73
     7
 74
     0
 42
0.00000001
 43
0.00000001
 40
0.0
 40
0.0
 40
0.0
 40
0.0
 40
0.259458927729189
 40
0.6296002946237427
 40
0.8147836738016297
 40
1.0
 40
1.0
 40
1.0
 40
1.0
 10
509.4430696555924
 20
529.8941342143555
 30
0.0
 10
505.3600690062474
 20
529.7286356279346
 30
0.0
 10
495.452302739443
 20
529.327038505483
 30
0.0
 10
482.637165780482
 20
528.6487856894597
 30
0.0
 10
470.9928935142224
 20
527.9713647972475
 30
0.0
 10
465.1764094310898
 20
527.5255192486352
 30
0.0
 10
462.2679087016554
 20
527.3025766453683
 30
0.0
  0
SPLINE
  5
1F9
330
1F
100
AcDbEntity
  8
0
  6
Continuous
 62
     7
370
    25
100
AcDbSpline
210
0.0
220
0.0
230
1.0
 70
     8
 71
     3
 72
     9
 73
     5
 74
     0
 42
0.00000001
 43
0.00000001
 40
0.0
 40
0.0
 40
0.0
 40
0.0
 40
0.0790369080192139
 40
1.0
 40
1.0
 40
1.0
 40
1.0
 10
511.083112018839
 20
530.2144574899888
 30
0.0
 10
511.0415768186436
 20
530.1996766823561
 30
0.0
 10
510.5160603069744
 20
530.0126652214683
 30
0.0
 10
509.9574911934598
 20
529.9509612732729
 30
0.0
 10
509.4430696555924
 20
529.8941342143555
 30
0.0
  0
SPLINE
  5
1FA
330
1F
100
AcDbEntity
  8
0
  6
Continuous
 62
     7
370
    25
100
AcDbSpline
210
0.0
220
0.0
230
1.0
 70
     8
 71
     3
 72
    11
 73
     7
 74
     0
 42
0.00000001
 43
0.00000001
 40
0.0
 40
0.0
 40
0.0
 40
0.0
 40
0.0728838064943292
 40
0.4140719411596029
 40
0.9209668754550567
 40
1.0
 40
1.0
 40
1.0
 40
1.0
 10
509.5151818209285
 20
526.040200338427
 30
0.0
 10
509.5074666717908
 20
526.1506467726659
 30
0.0
 10
509.4636348944263
 20
526.778121812997
 30
0.0
 10
509.8081266058643
 20
528.1611138434621
 30
0.0
 10
510.4478159553508
 20
529.4310453612396
 30
0.0
 10
511.0076047047834
 20
530.1213460274125
 30
0.0
 10
511.083112018839
 20
530.2144574899888
 30
0.0
  0
SPLINE
  5
1FB
330
1F
100
AcDbEntity
  8
0
  6
Continuous
 62
     7
370
    25
100
AcDbSpline
210
0.0
220
0.0
230
1.0
 70
     8
 71
     3
 72
    10
 73
     6
 74
     0
 42
0.00000001
 43
0.00000001
 40
0.0
 40
0.0
 40
0.0
 40
0.0
 40
0.3880207377811389
 40
0.979063776650686
 40
1.0
 40
1.0
 40
1.0
 40
1.0
 10
509.5151818209247
 20
522.838920605291
 30
0.0
 10
509.5884963516841
 20
523.2497604671468
 30
0.0
 10
509.7734854370074
 20
524.286402036995
 30
0.0
 10
509.6777785111765
 20
525.3801713585664
 30
0.0
 10
509.5205603599285
 20
526.0183672272858
 30
0.0
 10
509.5151818209285
 20
526.040200338427
 30
0.0
  0
ARC
  5
1FC
330
1F
100
AcDbEntity
  8
0
  6
Continuous
 62
     7
370
    25
100
AcDbCircle
 10
517.7607021634
 20
524.4395604719
 30
0.0
 40
8.399443654264582
100
AcDbArc
 50
190.985757993
 51
169.0142420071
  0
SPLINE
  5
1FD
330
1F
100
AcDbEntity
  8
0
  6
Continuous
 62
     7
370
    25
100
AcDbSpline
210
0.0
220
0.0
230
1.0
 70
     8
 71
     3
 72
     9
 73
     5
 74
     0
 42
0.00000001
 43
0.00000001
 40
0.0
 40
0.0
 40
0.0
 40
0.0
 40
0.6817923421274312
 40
1.0
 40
1.0
 40
1.0
 40
1.0
 10
511.083112018839
 20
530.2144574899888
 30
0.0
 10
511.225375579482
 20
530.404367845094
 30
0.0
 10
511.4340367096424
 20
530.6829135889676
 30
0.0
 10
511.6634625435228
 20
530.9158179619105
 30
0.0
 10
511.7364676007773
 20
530.9899299169331
 30
0.0
  0
ARC
  5
1FE
330
1F
100
AcDbEntity
  8
0
  6
Continuous
 62
     7
370
    25
100
AcDbCircle
 10
517.7607021634
 20
524.4395604719
 30
0.0
 40
8.899367501836336
100
AcDbArc
 50
227.3959191961
 51
132.6040808039
  0
LINE
  5
1FF
330
1F
100
AcDbEntity
  8
0
  6
Continuous
 62
     7
370
    25
100
AcDbLine
 10
511.7364676008
 20
517.8891910268
 30
0.0
 11
511.0831120188
 21
518.6646634537
 31
0.0
  0
SPLINE
  5
200
330
1F
100
AcDbEntity
  8
0
  6
Continuous
 62
     7
370
    25
100
AcDbSpline
210
0.0
220
0.0
230
1.0
 70
     8
 71
     3
 72
    10
 73
     6
 74
     0
 42
0.00000001
 43
0.00000001
 40
0.0
 40
0.0
 40
0.0
 40
0.0
 40
0.3702896688583046
 40
0.7405318123903298
 40
0.9999999999999999
 40
0.9999999999999999
 40
0.9999999999999999
 40
0.9999999999999999
 10
462.256389238477
 20
527.7454362262015
 30
0.0
 10
468.0764530846953
 20
528.0656272407278
 30
0.0
 10
479.715833793199
 20
528.7059681744335
 30
0.0
 10
495.4347021999736
 20
529.5752025062967
 30
0.0
 10
505.3318760159835
 20
530.1239435079059
 30
0.0
 10
509.4099443364477
 20
530.3500487917378
 30
0.0
  0
ARC
  5
201
330
1F
100
AcDbEntity
  8
0
  6
Continuous
 62
     7
370
    25
100
AcDbCircle
 10
502.194855129
 20
529.5966624251
 30
0.0
 40
7.254316183424548
100
AcDbArc
 50
2.3501399449
 51
5.9611177313
  0
ARC
  5
202
330
1F
100
AcDbEntity
  8
0
  6
Continuous
 62
     7
370
    25
100
AcDbCircle
 10
466.5169117797
 20
527.6346794022
 30
0.0
 40
4.26196191887406
100
AcDbArc
 50
178.5108705386
 51
184.4691613065
  0
SPLINE
  5
203
330
1F
100
AcDbEntity
  8
0
  6
Continuous
 62
     7
370
    25
100
AcDbSpline
210
0.0
220
0.0
230
1.0
 70
     8
 71
     3
 72
    10
 73
     6
 74
     0
 42
0.00000001
 43
0.00000001
 40
0.0
 40
0.0
 40
0.0
 40
0.0
 40
0.3702717503651152
 40
0.7405122151371749
 40
1.0
 40
1.0
 40
1.0
 40
1.0
 10
509.4099443364477
 20
518.5290721519951
 30
0.0
 10
503.5902722747785
 20
518.8516006376631
 30
0.0
 10
491.9514198764816
 20
519.4966303574063
 30
0.0
 10
476.232280292527
 20
520.3654448448851
 30
0.0
 10
466.3347828688283
 20
520.9094997556521
 30
0.0
 10
462.2563892384803
 20
521.1336847175312
 30
0.0
  0
ARC
  5
204
330
1F
100
AcDbEntity
  8
0
  6
Continuous
 62
     7
370
    25
100
AcDbCircle
 10
466.5169117826
 20
521.2444415415
 30
0.0
 40
4.261961921792643
100
AcDbArc
 50
175.530838696
 51
181.4891294598
  0
ARC
  5
205
330
1F
100
AcDbEntity
  8
0
  6
Continuous
 62
     7
370
    25
100
AcDbCircle
 10
502.1948551289
 20
519.2824585187
 30
0.0
 40
7.254316183549815
100
AcDbArc
 50
354.0388822687
 51
357.6498600551
  0
SPLINE
  5
206
330
1F
100
AcDbEntity
  8
0
  6
Continuous
 62
     7
370
    25
100
AcDbSpline
210
0.0
220
0.0
230
1.0
 70
     8
 71
     3
 72
    12
 73
     8
 74
     0
 42
0.00000001
 43
0.00000001
 40
0.0
 40
0.0
 40
0.0
 40
0.0
 40
0.1224290494151349
 40
0.3423522449770471
 40
0.5614228816909413
 40
0.7807229538533572
 40
1.0
 40
1.0
 40
1.0
 40
1.0
 10
460.3321812688077
 20
521.6872186680228
 30
0.0
 10
460.3411853446717
 20
521.6848599835818
 30
0.0
 10
460.3663637284028
 20
521.678264319257
 30
0.0
 10
460.5823514120475
 20
521.6612563515177
 30
0.0
 10
461.0182495417766
 20
521.6357453773634
 30
0.0
 10
461.6021751552067
 20
521.606193194804
 30
0.0
 10
462.0460052867749
 20
521.586426917925
 30
0.0
 10
462.2679087016552
 20
521.5765442983665
 30
0.0
  0
SPLINE
  5
207
330
1F
100
AcDbEntity
  8
0
  6
Continuous
 62
     7
370
    25
100
AcDbSpline
210
0.0
220
0.0
230
1.0
 70
     8
 71
     3
 72
    11
 73
     7
 74
     0
 42
0.00000001
 43
0.00000001
 40
0.0
 40
0.0
 40
0.0
 40
0.0
 40
0.0800485240044433
 40
0.5000005853538798
 40
0.9209248322279645
 40
1.0
 40
1.0
 40
1.0
 40
1.0
 10
460.3321812688077
 20
521.6872186680228
 30
0.0
 10
460.3324675132219
 20
521.8334630931233
 30
0.0
 10
460.3342554584264
 20
522.7469377519564
 30
0.0
 10
460.3354911552564
 20
524.441347339715
 30
0.0
 10
460.3342534571615
 20
526.1339741915696
 30
0.0
 10
460.3324642351935
 20
527.0474375672134
 30
0.0
 10
460.3321812688076
 20
527.1919022757047
 30
0.0
  0
SPLINE
  5
208
330
1F
100
AcDbEntity
  8
0
  6
Continuous
 62
     7
370
    25
100
AcDbSpline
210
0.0
220
0.0
230
1.0
 70
     8
 71
     3
 72
    12
 73
     8
 74
     0
 42
0.00000001
 43
0.00000001
 40
0.0
 40
0.0
 40
0.0
 40
0.0
 40
0.1130367476169362
 40
0.3328594693548023
 40
0.5544127937945006
 40
0.7774207483513244
 40
1.0
 40
1.0
 40
1.0
 40
1.0
 10
462.2679087016554
 20
527.3025766453683
 30
0.0
 10
462.1538378616685
 20
527.2975613996668
 30
0.0
 10
461.8179332990605
 20
527.2827929986112
 30
0.0
 10
461.2838654426658
 20
527.2572007945017
 30
0.0
 10
460.7673398047787
 20
527.2293255316308
 30
0.0
 10
460.4104450876242
 20
527.2058836580403
 30
0.0
 10
460.3582524701058
 20
527.1965597462806
 30
0.0
 10
460.3321812688076
 20
527.1919022757047
 30
0.0
  0
SPLINE
  5
209
330
1F
100
AcDbEntity
  8
0
  6
Continuous
 62
     7
370
    25
100
AcDbSpline
210
0.0
220
0.0
230
1.0
 70
     8
 71
     3
 72
     9
 73
     5
 74
     0
 42
0.00000001
 43
0.00000001
 40
0.0
 40
0.0
 40
0.0
 40
0.0
 40
0.500010612381544
 40
1.0
 40
1.0
 40
1.0
 40
1.0
 10
512.2360754496202
 20
517.4573593375535
 30
0.0
 10
511.8063540827994
 20
517.7451998756468
 30
0.0
 10
510.9469295902388
 20
518.3208687333982
 30
0.0
 10
509.9222655049605
 20
518.459671994485
 30
0.0
 10
509.4099443364477
 20
518.5290721519951
 30
0.0
  0
SPLINE
  5
20A
330
1F
100
AcDbEntity
  8
0
  6
Continuous
 62
     7
370
    25
100
AcDbSpline
210
0.0
220
0.0
230
1.0
 70
     8
 71
     3
 72
     9
 73
     5
 74
     0
 42
0.00000001
 43
0.00000001
 40
0.0
 40
0.0
 40
0.0
 40
0.0
 40
0.9838702326459385
 40
1.0
 40
1.0
 40
1.0
 40
1.0
 10
511.7364676007774
 20
517.8891910267998
 30
0.0
 10
511.8978084157119
 20
517.7443586137808
 30
0.0
 10
512.0617942845604
 20
517.5971517889241
 30
0.0
 10
512.2333089578424
 20
517.4595783648775
 30
0.0
 10
512.2360754496202
 20
517.4573593375535
 30
0.0
  0
SPLINE
  5
20B
330
1F
100
AcDbEntity
  8
0
  6
Continuous
 62
     7
370
    25
100
AcDbSpline
210
0.0
220
0.0
230
1.0
 70
     8
 71
     3
 72
     9
 73
     5
 74
     0
 42
0.00000001
 43
0.00000001
 40
0.0
 40
0.0
 40
0.0
 40
0.0
 40
0.5055561057107305
 40
1.0
 40
1.0
 40
1.0
 40
1.0
 10
509.4099443364477
 20
530.3500487917378
 30
0.0
 10
509.9280038537807
 20
530.4207048260076
 30
0.0
 10
510.952735849856
 20
530.5604638625852
 30
0.0
 10
511.8114764186176
 20
531.1367971373808
 30
0.0
 10
512.2360754496202
 20
531.4217616061794
 30
0.0
  0
SPLINE
  5
20C
330
1F
100
AcDbEntity
  8
0
  6
Continuous
 62
     7
370
    25
100
AcDbSpline
210
0.0
220
0.0
230
1.0
 70
     8
 71
     3
 72
     9
 73
     5
 74
     0
 42
0.00000001
 43
0.00000001
 40
0.0
 40
0.0
 40
0.0
 40
0.0
 40
0.0161297673533178
 40
0.9999999999999999
 40
0.9999999999999999
 40
0.9999999999999999
 40
0.9999999999999999
 10
512.2360754496202
 20
531.4217616061794
 30
0.0
 10
512.2333089578425
 20
531.4195425788555
 30
0.0
 10
512.0617942845564
 20
531.2819691548059
 30
0.0
 10
511.89780841571
 20
531.1347623299505
 30
0.0
 10
511.7364676007773
 20
530.9899299169331
 30
0.0
  0
SPLINE
  5
20D
330
1F
100
AcDbEntity
  8
0
  6
Continuous
 62
     7
370
    25
100
AcDbSpline
210
0.0
220
0.0
230
1.0
 70
     8
 71
     3
 72
    12
 73
     8
 74
     0
 42
0.00000001
 43
0.00000001
 40
0.0
 40
0.0
 40
0.0
 40
0.0
 40
0.2230315344150378
 40
0.4461337558340359
 40
0.6675099896777023
 40
0.8870667292265011
 40
1.0
 40
1.0
 40
1.0
 40
1.0
 10
460.8045355338922
 20
527.6910653467531
 30
0.0
 10
460.8240693200181
 20
527.6891750994583
 30
0.0
 10
460.8631430832546
 20
527.685394005779
 30
0.0
 10
461.1307322653108
 20
527.6923368420496
 30
0.0
 10
461.5182613491359
 20
527.7079256645395
 30
0.0
 10
461.9189834615989
 20
527.7272629446037
 30
0.0
 10
462.1708428838568
 20
527.7408285457802
 30
0.0
 10
462.256389238477
 20
527.7454362262015
 30
0.0
  0
ARC
  5
20E
330
1F
100
AcDbEntity
  8
0
  6
Continuous
 62
     7
370
    25
100
AcDbCircle
 10
460.8322811564
 20
527.1917356904
 30
0.0
 40
0.500099915346948
100
AcDbArc
 50
93.1804119247
 51
179.9809145383
  0
SPLINE
  5
20F
330
1F
100
AcDbEntity
  8
0
  6
Continuous
 62
     7
370
    25
100
AcDbSpline
210
0.0
220
0.0
230
1.0
 70
     8
 71
     3
 72
    12
 73
     8
 74
     0
 42
0.00000001
 43
0.00000001
 40
0.0
 40
0.0
 40
0.0
 40
0.0
 40
0.2190444340109334
 40
0.4380981679380241
 40
0.6571027493691853
 40
0.8772791087290019
 40
1.0
 40
1.0
 40
1.0
 40
1.0
 10
462.2563892384803
 20
521.1336847175312
 30
0.0
 10
462.0899714977095
 20
521.1425135304809
 30
0.0
 10
461.7571289506104
 20
521.1601715312232
 30
0.0
 10
461.3189705079673
 20
521.1796900206323
 30
0.0
 10
460.9920046812076
 20
521.1909958042645
 30
0.0
 10
460.8301608041936
 20
521.1928196723411
 30
0.0
 10
460.8112894717813
 20
521.1893112430164
 30
0.0
 10
460.8045355338922
 20
521.1880555969798
 30
0.0
  0
ARC
  5
210
330
1F
100
AcDbEntity
  8
0
  6
Continuous
 62
     7
370
    25
100
AcDbCircle
 10
460.8322811564
 20
521.6873852534
 30
0.0
 40
0.500099915346948
100
AcDbArc
 50
180.0190854623
 51
266.8195880753
  0
LINE
  5
211
330
1F
100
AcDbEntity
  8
0
  6
Continuous
 62
     7
370
    25
100
AcDbLine
 10
509.4099443364
 20
530.3500487917
 30
0.0
 11
509.3829581548
 21
530.4213390671
 31
0.0
  0
LINE
  5
212
330
1F
100
AcDbEntity
  8
0
  6
Continuous
 62
     7
370
    25
100
AcDbLine
 10
460.7998451732
 20
527.6955037998
 30
0.0
 11
460.8045355339
 21
527.6910653468
 31
0.0
  0
ELLIPSE
  5
213
330
1F
100
AcDbEntity
  8
0
  6
Continuous
 62
     7
370
    25
100
AcDbEllipse
 10
462.299616716
 20
527.7787962498
 30
0.0
 11
1.499999304622804
 21
0.0828726334386829
 31
0.0
210
0.0
220
0.0
230
1.0
 40
0.0174284859
 41
2.255125316696344
 42
3.158083049610755
  0
LINE
  5
214
330
1F
100
AcDbEntity
  8
0
  6
Continuous
 62
     7
370
    25
100
AcDbLine
 10
464.815231385
 20
527.9875558378
 30
0.0
 11
461.3502681755
 21
527.7466645588
 31
0.0
  0
LINE
  5
215
330
1F
100
AcDbEntity
  8
0
  6
Continuous
 62
     7
370
    25
100
AcDbLine
 10
464.815231385
 20
527.9874574466
 30
0.0
 11
464.815231385
 21
527.9875558378
 31
0.0
  0
ELLIPSE
  5
216
330
1F
100
AcDbEntity
  8
0
  6
Continuous
 62
     7
370
    25
100
AcDbEllipse
 10
474.2647178059
 20
528.3171034981
 30
0.0
 11
14.49999327802044
 21
0.8011021232405255
 31
0.0
210
0.0
220
0.0
230
1.0
 40
0.0174284859
 41
1.54351683885242
 42
2.279642175408455
  0
ELLIPSE
  5
217
330
1F
100
AcDbEntity
  8
0
  6
Continuous
 62
     7
370
    25
100
AcDbEllipse
 10
475.5857277215
 20
529.2673870474
 30
0.0
 11
35.70262504606018
 21
1.972514619921981
 31
0.0
210
0.0
220
0.0
230
1.0
 40
0.0174284859
 41
4.685109492442213
 42
5.167309992307874
  0
ELLIPSE
  5
218
330
1F
100
AcDbEntity
  8
0
  6
Continuous
 62
     7
370
    25
100
AcDbEllipse
 10
494.6059551935
 20
529.6397831071
 30
0.0
 11
7.499996523113906
 21
0.4143631671935281
 31
0.0
210
0.0
220
0.0
230
1.0
 40
0.0174284859
 41
1.834826681007688
 42
2.025717338717974
  0
LINE
  5
219
330
1F
100
AcDbEntity
  8
0
  6
Continuous
 62
     7
370
    25
100
AcDbLine
 10
492.6613027925
 20
529.5074386559
 30
0.0
 11
492.6416845351
 21
529.6578292005
 31
0.0
  0
SPLINE
  5
21A
330
1F
100
AcDbEntity
  8
0
  6
Continuous
 62
     7
370
    25
100
AcDbSpline
210
0.0
220
0.0
230
1.0
 70
     8
 71
     3
 72
    10
 73
     6
 74
     0
 42
0.00000001
 43
0.00000001
 40
0.0
 40
0.0
 40
0.0
 40
0.0
 40
0.0186368637457253
 40
0.3939469944633057
 40
1.0
 40
1.0
 40
1.0
 40
1.0
 10
492.8450740781779
 20
529.5079250231416
 30
0.0
 10
492.8426178709292
 20
529.5078372726623
 30
0.0
 10
492.7906984344522
 20
529.5059823984693
 30
0.0
 10
492.6866995859743
 20
529.5033024170912
 30
0.0
 10
492.670998928625
 20
529.5058594984887
 30
0.0
 10
492.6613027924814
 20
529.5074386558966
 30
0.0
  0
LINE
  5
21B
330
1F
100
AcDbEntity
  8
0
  6
Continuous
 62
     7
370
    25
100
AcDbLine
 10
509.3829581548
 20
530.4213390671
 30
0.0
 11
492.8450740782
 21
529.5079250231
 31
0.0
  0
LINE
  5
21C
330
1F
100
AcDbEntity
  8
0
  6
Continuous
 62
     7
370
    25
100
AcDbLine
 10
492.8430083463
 20
519.3549922718
 30
0.0
 11
509.3769167697
 21
518.4417978096
 31
0.0
  0
SPLINE
  5
21D
330
1F
100
AcDbEntity
  8
0
  6
Continuous
 62
     7
370
    25
100
AcDbSpline
210
0.0
220
0.0
230
1.0
 70
     8
 71
     3
 72
    11
 73
     7
 74
     0
 42
0.00000001
 43
0.00000001
 40
0.0
 40
0.0
 40
0.0
 40
0.0
 40
0.4177469294495291
 40
0.8392770662410922
 40
0.9817832068819584
 40
1.0
 40
1.0
 40
1.0
 40
1.0
 10
492.6593029056095
 20
519.3563417170496
 30
0.0
 10
492.6639399336414
 20
519.3574249082334
 30
0.0
 10
492.6732559836428
 20
519.3596011002164
 30
0.0
 10
492.748752449393
 20
519.358398923325
 30
0.0
 10
492.8190126499649
 20
519.355928395985
 30
0.0
 10
492.8405654866226
 20
519.3550875730281
 30
0.0
 10
492.8430083462526
 20
519.3549922717697
 30
0.0
  0
LINE
  5
21E
330
1F
100
AcDbEntity
  8
0
  6
Continuous
 62
     7
370
    25
100
AcDbLine
 10
492.6416845351
 20
519.2212917433
 30
0.0
 11
492.6593029056
 21
519.356341717
 31
0.0
  0
ELLIPSE
  5
21F
330
1F
100
AcDbEntity
  8
0
  6
Continuous
 62
     7
370
    25
100
AcDbEllipse
 10
494.6059551935
 20
519.2393378366
 30
0.0
 11
7.499996523114021
 21
-0.4143631671935282
 31
0.0
210
0.0
220
0.0
230
1.0
 40
0.0174284859
 41
4.257467968461772
 42
4.448358626171732
  0
ELLIPSE
  5
220
330
1F
100
AcDbEntity
  8
0
  6
Continuous
 62
     7
370
    25
100
AcDbEllipse
 10
475.5857277215
 20
519.6117338964
 30
0.0
 11
35.70262504606006
 21
-1.972514619921981
 31
0.0
210
0.0
220
0.0
230
1.0
 40
0.0174284859
 41
1.11587531487179
 42
1.598075814737374
  0
ELLIPSE
  5
221
330
1F
100
AcDbEntity
  8
0
  6
Continuous
 62
     7
370
    25
100
AcDbEllipse
 10
474.2647178059
 20
520.5620174457
 30
0.0
 11
14.49999327802044
 21
-0.8011021232406392
 31
0.0
210
0.0
220
0.0
230
1.0
 40
0.0174284859
 41
4.003543131771659
 42
4.739668468327168
  0
LINE
  5
222
330
1F
100
AcDbEntity
  8
0
  6
Continuous
 62
     7
370
    25
100
AcDbLine
 10
464.815231385
 20
520.8915651059
 30
0.0
 11
464.815231385
 21
520.8916634971
 31
0.0
  0
LINE
  5
223
330
1F
100
AcDbEntity
  8
0
  6
Continuous
 62
     7
370
    25
100
AcDbLine
 10
461.3502681755
 20
521.1324563849
 30
0.0
 11
464.815231385
 21
520.8915651059
 31
0.0
  0
ELLIPSE
  5
224
330
1F
100
AcDbEntity
  8
0
  6
Continuous
 62
     7
370
    25
100
AcDbEllipse
 10
462.299616716
 20
521.1003246939
 30
0.0
 11
1.499999304622804
 21
-0.0828726334387966
 31
0.0
210
0.0
220
0.0
230
1.0
 40
0.0174284859
 41
3.623455767623196
 42
4.028059990488096
  0
LINE
  5
225
330
1F
100
AcDbEntity
  8
0
  6
Continuous
 62
     7
370
    25
100
AcDbLine
 10
460.8045355339
 20
521.188055597
 30
0.0
 11
460.7998451732
 21
521.1836171439
 31
0.0
  0
LINE
  5
226
330
1F
100
AcDbEntity
  8
0
  6
Continuous
 62
     7
370
    25
100
AcDbLine
 10
509.3769167697
 20
518.4417978096
 30
0.0
 11
509.4099443364
 21
518.529072152
 31
0.0
  0
SPLINE
  5
227
330
1F
100
AcDbEntity
  8
0
  6
Continuous
 62
     7
370
    25
100
AcDbSpline
210
0.0
220
0.0
230
1.0
 70
     8
 71
     3
 72
     9
 73
     5
 74
     0
 42
0.00000001
 43
0.00000001
 40
0.0
 40
0.0
 40
0.0
 40
0.0
 40
0.5001021276704695
 40
1.0
 40
1.0
 40
1.0
 40
1.0
 10
512.2028565835648
 20
531.4874530531395
 30
0.0
 10
511.7739088078574
 20
531.200927419051
 30
0.0
 10
510.916188450407
 20
530.6279931757532
 30
0.0
 10
509.8939653217919
 20
530.490214389299
 30
0.0
 10
509.3829581547511
 20
530.4213390670984
 30
0.0
  0
LINE
  5
228
330
1F
100
AcDbEntity
  8
0
  6
Continuous
 62
     7
370
    25
100
AcDbLine
 10
512.2028565836
 20
531.4874530531
 30
0.0
 11
512.2360754496
 21
531.4217616062
 31
0.0
  0
SPLINE
  5
229
330
1F
100
AcDbEntity
  8
0
  6
Continuous
 62
     7
370
    25
100
AcDbSpline
210
0.0
220
0.0
230
1.0
 70
     8
 71
     3
 72
     9
 73
     5
 74
     0
 42
0.00000001
 43
0.00000001
 40
0.0
 40
0.0
 40
0.0
 40
0.0
 40
0.400722737156528
 40
1.0
 40
1.0
 40
1.0
 40
1.0
 10
509.3769167696994
 20
518.441797809555
 30
0.0
 10
509.7856028931087
 20
518.3933905474895
 30
0.0
 10
510.8054754521485
 20
518.2725906587456
 30
0.0
 10
511.6745514959744
 20
517.7124833853919
 30
0.0
 10
512.1953690087213
 20
517.3768238317178
 30
0.0
  0
LINE
  5
22A
330
1F
100
AcDbEntity
  8
0
  6
Continuous
 62
     7
370
    25
100
AcDbLine
 10
512.2360754496
 20
517.4573593376
 30
0.0
 11
512.1953690087
 21
517.3768238317
 31
0.0
  0
ARC
  5
22B
330
1F
100
AcDbEntity
  8
0
  6
Continuous
 62
     7
370
    25
100
AcDbCircle
 10
517.7607021634
 20
524.4395604719
 30
0.0
 40
8.975658044222099
100
AcDbArc
 50
65.1648853947
 51
128.2586979829
  0
LWPOLYLINE
  5
22C
330
1F
100
AcDbEntity
  8
0
  6
Continuous
 62
     7
370
    25
100
AcDbPolyline
 90
        3
 70
   128
 43
0.0
 10
521.6960155877
 20
532.6902201952
 10
521.5914340235
 20
532.6239677839
 10
521.5305534808
 20
532.5851518176
  0
ARC
  5
22D
330
1F
100
AcDbEntity
  8
0
  6
Continuous
 62
     7
370
    25
100
AcDbCircle
 10
517.7607021634
 20
524.4395604719
 30
0.0
 40
9.141120151092256
100
AcDbArc
 50
295.4997164176
 51
64.5002794289
  0
LWPOLYLINE
  5
22E
330
1F
100
AcDbEntity
  8
0
  6
Continuous
 62
     7
370
    25
100
AcDbPolyline
 90
        3
 70
   128
 43
0.0
 10
521.5468463913
 20
516.2835630554
 10
521.5914340235
 20
516.2551531598
 10
521.696015588
 20
516.1889007484
  0
ARC
  5
22F
330
1F
100
AcDbEntity
  8
0
  6
Continuous
 62
     7
370
    25
100
AcDbCircle
 10
517.7607021634
 20
524.4395604719
 30
0.0
 40
8.991950954660814
100
AcDbArc
 50
231.762407147
 51
294.9014811666
  0
LINE
  5
230
330
1F
100
AcDbEntity
  8
0
  6
Continuous
 62
     7
370
    25
100
AcDbLine
 10
460.3274909081
 20
521.682780215
 30
0.0
 11
460.3321812688
 21
521.687218668
 31
0.0
  0
LINE
  5
231
330
1F
100
AcDbEntity
  8
0
  6
Continuous
 62
     7
370
    25
100
AcDbLine
 10
460.3274909081
 20
527.1963407288
 30
0.0
 11
460.3274909081
 21
521.682780215
 31
0.0
  0
LINE
  5
232
330
1F
100
AcDbEntity
  8
0
  6
Continuous
 62
     7
370
    25
100
AcDbLine
 10
460.3321812688
 20
527.1919022757
 30
0.0
 11
460.3274909081
 21
527.1963407288
 31
0.0
  0
ARC
  5
233
330
1F
100
AcDbEntity
  8
0
  6
Continuous
 62
     7
370
    25
100
AcDbCircle
 10
460.8275907957
 20
521.6829468003
 30
0.0
 40
0.5000999153469704
100
AcDbArc
 50
180.0190854617
 51
266.8195880753
  0
ARC
  5
234
330
1F
100
AcDbEntity
  8
0
  6
Continuous
 62
     7
370
    25
100
AcDbCircle
 10
460.8275907957
 20
527.1961741434
 30
0.0
 40
0.5000999153468376
100
AcDbArc
 50
93.1804119247
 51
179.9809145383
  0
LINE
  5
235
330
1F
100
AcDbEntity
  8
0
  6
Continuous
 62
     7
370
    25
100
AcDbLine
 10
461.3502681755
 20
527.7466645588
 30
0.0
 11
461.3431604448
 21
527.7462975222
 31
0.0
  0
LINE
  5
236
330
1F
100
AcDbEntity
  8
0
  6
Continuous
 62
     7
370
    25
100
AcDbLine
 10
461.3502681755
 20
521.1324563849
 30
0.0
 11
461.3431604448
 21
521.1328234215
 31
0.0
  0
SPLINE
  5
237
330
1F
100
AcDbEntity
  8
0
  6
Continuous
 62
     7
370
    25
100
AcDbSpline
210
0.0
220
0.0
230
1.0
 70
     8
 71
     3
 72
    12
 73
     8
 74
     0
 42
0.00000001
 43
0.00000001
 40
0.0
 40
0.0
 40
0.0
 40
0.0
 40
0.1662426524176545
 40
0.3368059756191297
 40
0.6054181071254586
 40
0.8801435087136193
 40
1.0
 40
1.0
 40
1.0
 40
1.0
 10
511.6386429161211
 20
536.1162208535374
 30
0.0
 10
512.2763244366572
 20
535.9607356780544
 30
0.0
 10
513.5682609134577
 20
535.6457242446992
 30
0.0
 10
515.7524472958072
 20
534.9827591397006
 30
0.0
 10
518.1144216393669
 20
534.1305642228953
 30
0.0
 10
520.0799592012595
 20
533.2879355442832
 30
0.0
 10
521.193734186055
 20
532.750077451588
 30
0.0
 10
521.5320496642126
 20
532.5867000007607
 30
0.0
  0
LINE
  5
238
330
1F
100
AcDbEntity
  8
0
  6
Continuous
 62
     7
370
    25
100
AcDbLine
 10
511.6386429161
 20
536.1162208535
 30
0.0
 11
511.6545009931
 21
536.1856943851
 31
0.0
  0
ARC
  5
239
330
1F
100
AcDbEntity
  8
0
  6
Continuous
 62
     7
370
    25
100
AcDbCircle
 10
500.9327227566
 20
489.2140595729
 30
0.0
 40
48.17977797259054
100
AcDbArc
 50
64.4718479123
 51
77.1419190681
  0
LWPOLYLINE
  5
23A
330
1F
100
AcDbEntity
  8
0
  6
Continuous
 62
     7
370
    25
100
AcDbPolyline
 90
        3
 70
   128
 43
0.0
 10
521.5320496642
 20
532.5867000008
 10
521.5914375146
 20
532.6242237043
 10
521.6960155874
 20
532.6902217342
  0
SPLINE
  5
23B
330
1F
100
AcDbEntity
  8
0
  6
Continuous
 62
     7
370
    25
100
AcDbSpline
210
0.0
220
0.0
230
1.0
 70
     8
 71
     3
 72
    11
 73
     7
 74
     0
 42
0.00000001
 43
0.00000001
 40
0.0
 40
0.0
 40
0.0
 40
0.0
 40
0.1345990676765959
 40
0.4126978815969493
 40
0.6969472592954598
 40
1.0
 40
1.0
 40
1.0
 40
1.0
 10
521.5313320872556
 20
532.5859584346869
 30
0.0
 10
521.1020260670073
 20
532.7768423198479
 30
0.0
 10
519.785719140283
 20
533.3621166192677
 30
0.0
 10
517.4099090893998
 20
533.9845845032913
 30
0.0
 10
514.3562197045187
 20
534.3610871857917
 30
0.0
 10
512.165189796158
 20
534.3882285141245
 30
0.0
 10
511.03460027862
 20
534.4022336635695
 30
0.0
  0
ARC
  5
23C
330
1F
100
AcDbEntity
  8
0
  6
Continuous
 62
     7
370
    25
100
AcDbCircle
 10
515.5271312716
 20
533.782409619
 30
0.0
 40
4.535087272518982
100
AcDbArc
 50
149.0284626407
 51
172.1446266983
  0
LINE
  5
23D
330
1F
100
AcDbEntity
  8
0
  6
Continuous
 62
     7
370
    25
100
AcDbLine
 10
521.5320496642
 20
532.5867000008
 30
0.0
 11
521.5313320873
 21
532.5859584347
 31
0.0
  0
LINE
  5
23E
330
1F
100
AcDbEntity
  8
0
  6
Continuous
 62
     7
370
    25
100
AcDbLine
 10
512.2028565836
 20
531.4874530531
 30
0.0
 11
510.0049846634
 21
534.2745699275
 31
0.0
  0
ARC
  5
23F
330
1F
100
AcDbEntity
  8
0
  6
Continuous
 62
     7
370
    25
100
AcDbCircle
 10
517.7607021634
 20
524.4395604719
 30
0.0
 40
12.52511736202722
100
AcDbArc
 50
127.8583068702
 51
128.2586979829
  0
LINE
  5
240
330
1F
100
AcDbEntity
  8
0
  6
Continuous
 62
     7
370
    25
100
AcDbLine
 10
511.0346002786
 20
534.4022336636
 30
0.0
 11
510.0739019297
 21
534.3285274098
 31
0.0
  0
LINE
  5
241
330
1F
100
AcDbEntity
  8
0
  6
Continuous
 62
     7
370
    25
100
AcDbLine
 10
521.5305534808
 20
532.5851518176
 30
0.0
 11
521.5313320873
 21
532.5859584347
 31
0.0
  0
ARC
  5
242
330
1F
100
AcDbEntity
  8
0
  6
Continuous
 62
     7
370
    25
100
AcDbCircle
 10
499.8430304497
 20
529.71615986
 30
0.0
 40
6.834138728221622
100
AcDbArc
 50
31.8771071303
 51
46.9488007428
  0
SPLINE
  5
243
330
1F
100
AcDbEntity
  8
0
  6
Continuous
 62
     7
370
    25
100
AcDbSpline
210
0.0
220
0.0
230
1.0
 70
     8
 71
     3
 72
    17
 73
    13
 74
     0
 42
0.00000001
 43
0.00000001
 40
0.0
 40
0.0
 40
0.0
 40
0.0
 40
0.2859834379244703
 40
0.5215922644122238
 40
0.759239901680938
 40
0.85214924050605
 40
0.9266708633836014
 40
0.9605058393195369
 40
0.9835417153308584
 40
0.9930790992390832
 40
0.9972256067114875
 40
1.0
 40
1.0
 40
1.0
 40
1.0
 10
505.6464632408722
 20
533.3252622408517
 30
0.0
 10
504.4176850571248
 20
532.7933941168312
 30
0.0
 10
502.176572075294
 20
531.8233438887836
 30
0.0
 10
498.8376233883921
 20
530.781113217999
 30
0.0
 10
496.3349680216854
 20
530.1632946570722
 30
0.0
 10
494.5646617376491
 20
529.8093193478542
 30
0.0
 10
493.6995409023119
 20
529.6546183132413
 30
0.0
 10
493.1739534730364
 20
529.5661183224095
 30
0.0
 10
492.9402913593792
 20
529.527006559587
 30
0.0
 10
492.8626411998898
 20
529.5126867928251
 30
0.0
 10
492.8465595456897
 20
529.5089530405077
 30
0.0
 10
492.8454991577138
 20
529.5082191993126
 30
0.0
 10
492.8450740781779
 20
529.5079250231416
 30
0.0
  0
SPLINE
  5
244
330
1F
100
AcDbEntity
  8
0
  6
Continuous
 62
     7
370
    25
100
AcDbSpline
210
0.0
220
0.0
230
1.0
 70
     8
 71
     3
 72
    10
 73
     6
 74
     0
 42
0.00000001
 43
0.00000001
 40
0.0
 40
0.0
 40
0.0
 40
0.0
 40
0.5975855365574454
 40
0.9790563563181981
 40
1.0
 40
1.0
 40
1.0
 40
1.0
 10
492.7350487584902
 20
529.517051920481
 30
0.0
 10
492.7325296191368
 20
529.5133126227546
 30
0.0
 10
492.7284023783561
 20
529.5071863312311
 30
0.0
 10
492.8027735049117
 20
529.5068097723745
 30
0.0
 10
492.842981457016
 20
529.507869851375
 30
0.0
 10
492.8450740781779
 20
529.5079250231416
 30
0.0
  0
SPLINE
  5
245
330
1F
100
AcDbEntity
  8
0
  6
Continuous
 62
     7
370
    25
100
AcDbSpline
210
0.0
220
0.0
230
1.0
 70
     8
 71
     3
 72
    14
 73
    10
 74
     0
 42
0.00000001
 43
0.00000001
 40
0.0
 40
0.0
 40
0.0
 40
0.0
 40
0.0129036569231464
 40
0.0519665716781148
 40
0.131889182426121
 40
0.2280032005552168
 40
0.4679440229400842
 40
0.7079115564493631
 40
0.9999999999999999
 40
0.9999999999999999
 40
0.9999999999999999
 40
0.9999999999999999
 10
492.7350487584902
 20
529.517051920481
 30
0.0
 10
492.7685173349545
 20
529.5248968945423
 30
0.0
 10
492.9033044877872
 20
529.5564907604748
 30
0.0
 10
493.3425779327798
 20
529.6588728077686
 30
0.0
 10
494.1540053510056
 20
529.8612743165855
 30
0.0
 10
495.8074825328262
 20
530.3283249973518
 30
0.0
 10
498.1517726050699
 20
531.1657820567422
 30
0.0
 10
501.2968667815671
 20
532.6107222970925
 30
0.0
 10
503.3701654557597
 20
533.9660931798871
 30
0.0
 10
504.5083663385067
 20
534.7101655870368
 30
0.0
  0
LINE
  5
246
330
1F
100
AcDbEntity
  8
0
  6
Continuous
 62
     7
370
    25
100
AcDbLine
 10
507.087131603
 20
533.8494059228
 30
0.0
 11
509.187214119
 21
533.9653968715
 31
0.0
  0
LINE
  5
247
330
1F
100
AcDbEntity
  8
0
  6
Continuous
 62
     7
370
    25
100
AcDbLine
 10
509.3829581548
 20
530.4213390671
 30
0.0
 11
509.187214119
 21
533.9653968715
 31
0.0
  0
LINE
  5
248
330
1F
100
AcDbEntity
  8
0
  6
Continuous
 62
     7
370
    25
100
AcDbLine
 10
507.087131603
 20
533.8494059228
 30
0.0
 11
505.6464632409
 21
533.3252622409
 31
0.0
  0
LWPOLYLINE
  5
249
330
1F
100
AcDbEntity
  8
0
  6
Continuous
 62
     7
370
    25
100
AcDbPolyline
 90
        4
 70
   128
 43
0.0
 10
492.7155219444
 20
529.6681474967
 10
492.7177665801
 20
529.6507893499
 10
492.726741614
 20
529.5813566037
 10
492.7350487585
 20
529.5170519205
  0
LINE
  5
24A
330
1F
100
AcDbEntity
  8
0
  6
Continuous
 62
     7
370
    25
100
AcDbLine
 10
494.5036462282
 20
530.097675
 30
0.0
 11
492.7155219444
 21
529.6681474967
 31
0.0
  0
ARC
  5
24B
330
1F
100
AcDbEntity
  8
0
  6
Continuous
 62
     7
370
    25
100
AcDbCircle
 10
486.3180878296
 20
560.5233685939
 30
0.0
 40
31.50755777528337
100
AcDbArc
 50
285.0579972479
 51
305.1719294169
  0
LINE
  5
24C
330
1F
100
AcDbEntity
  8
0
  6
Continuous
 62
     7
370
    25
100
AcDbLine
 10
504.5083663385
 20
534.710165587
 30
0.0
 11
504.4674464523
 21
534.7682336001
 31
0.0
  0
SPLINE
  5
24D
330
1F
100
AcDbEntity
  8
0
  6
Continuous
 62
     7
370
    25
100
AcDbSpline
210
0.0
220
0.0
230
1.0
 70
     8
 71
     3
 72
     9
 73
     5
 74
     0
 42
0.00000001
 43
0.00000001
 40
0.0
 40
0.0
 40
0.0
 40
0.0
 40
0.4998978730609624
 40
1.0
 40
1.0
 40
1.0
 40
1.0
 10
509.1872141190459
 20
533.9653968715423
 30
0.0
 10
509.3354090349416
 20
533.9853632095446
 30
0.0
 10
509.6318594178736
 20
534.0253040436194
 30
0.0
 10
509.8805926466502
 20
534.1914699861899
 30
0.0
 10
510.0049846634018
 20
534.2745699274942
 30
0.0
  0
ARC
  5
24E
330
1F
100
AcDbEntity
  8
0
  6
Continuous
 62
     7
370
    25
100
AcDbCircle
 10
492.6337134436
 20
530.0067533603
 30
0.0
 40
0.5000763403839016
100
AcDbArc
 50
273.16262964
 51
281.6913635617
  0
SPLINE
  5
24F
330
1F
100
AcDbEntity
  8
0
  6
Continuous
 62
     7
370
    25
100
AcDbSpline
210
0.0
220
0.0
230
1.0
 70
     8
 71
     3
 72
    13
 73
     9
 74
     0
 42
0.00000001
 43
0.00000001
 40
0.0
 40
0.0
 40
0.0
 40
0.0
 40
0.0460329529079877
 40
0.249242584819372
 40
0.4775225570272876
 40
0.7051721168687834
 40
0.8526808263814666
 40
1.0
 40
1.0
 40
1.0
 40
1.0
 10
521.5480806379028
 20
516.282288711764
 30
0.0
 10
521.4197459858643
 20
516.2197797433273
 30
0.0
 10
520.724885926379
 20
515.8813287884501
 30
0.0
 10
519.3652226918023
 20
515.263351364421
 30
0.0
 10
517.3572500749839
 20
514.4528790377078
 30
0.0
 10
515.3427398130808
 20
513.7602542364432
 30
0.0
 10
513.4804565318353
 20
513.2100204347452
 30
0.0
 10
512.3880869685967
 20
512.9425043236394
 30
0.0
 10
511.8422533125897
 20
512.8088322570788
 30
0.0
  0
LINE
  5
250
330
1F
100
AcDbEntity
  8
0
  6
Continuous
 62
     7
370
    25
100
AcDbLine
 10
511.3887932347
 20
514.7564347863
 30
0.0
 11
511.8422533126
 21
512.8088322571
 31
0.0
  0
SPLINE
  5
251
330
1F
100
AcDbEntity
  8
0
  6
Continuous
 62
     7
370
    25
100
AcDbSpline
210
0.0
220
0.0
230
1.0
 70
     8
 71
     3
 72
    13
 73
     9
 74
     0
 42
0.00000001
 43
0.00000001
 40
0.0
 40
0.0
 40
0.0
 40
0.0
 40
0.2574896950994368
 40
0.4890886589321025
 40
0.7206004760683485
 40
0.9447506334961274
 40
0.9460032291293288
 40
1.0
 40
1.0
 40
1.0
 40
1.0
 10
511.3887932347027
 20
514.756434786293
 30
0.0
 10
512.3075188106906
 20
514.7283718221781
 30
0.0
 10
514.0525915978287
 20
514.6750676405128
 30
0.0
 10
516.5471568437422
 20
514.8396317593508
 30
0.0
 10
518.8628066497429
 20
515.253005754361
 30
0.0
 10
520.3399152513471
 20
515.7525629409242
 30
0.0
 10
521.2111766958877
 20
516.1268057958542
 30
0.0
 10
521.3812231047106
 20
516.2057862143394
 30
0.0
 10
521.5474142767658
 20
516.282976014514
 30
0.0
  0
LINE
  5
252
330
1F
100
AcDbEntity
  8
0
  6
Continuous
 62
     7
370
    25
100
AcDbLine
 10
521.5474142768
 20
516.2829760145
 30
0.0
 11
521.5480806379
 21
516.2822887118
 31
0.0
  0
ARC
  5
253
330
1F
100
AcDbEntity
  8
0
  6
Continuous
 62
     7
370
    25
100
AcDbCircle
 10
500.9327227566
 20
559.6650613709
 30
0.0
 40
48.10950076354642
100
AcDbArc
 50
282.8580809319
 51
283.1066633214
  0
LWPOLYLINE
  5
254
330
1F
100
AcDbEntity
  8
0
  6
Continuous
 62
     7
370
    25
100
AcDbPolyline
 90
        3
 70
   128
 43
0.0
 10
521.5480806379
 20
516.2822887118
 10
521.5914375146
 20
516.2548972394
 10
521.6960155877
 20
516.1888992093
  0
ARC
  5
255
330
1F
100
AcDbEntity
  8
0
  6
Continuous
 62
     7
370
    25
100
AcDbCircle
 10
500.9327227566
 20
559.6650613709
 30
0.0
 40
48.17977797259048
100
AcDbArc
 50
282.8580809319
 51
295.5281512988
  0
LINE
  5
256
330
1F
100
AcDbEntity
  8
0
  6
Continuous
 62
     7
370
    25
100
AcDbLine
 10
511.6388617211
 20
512.7619415153
 30
0.0
 11
511.6545009931
 21
512.6934265586
 31
0.0
  0
LINE
  5
257
330
1F
100
AcDbEntity
  8
0
  6
Continuous
 62
     7
370
    25
100
AcDbLine
 10
505.2834739189
 20
516.0643191938
 30
0.0
 11
504.1539985014
 21
514.4141474041
 31
0.0
  0
SPLINE
  5
258
330
1F
100
AcDbEntity
  8
0
  6
Continuous
 62
     7
370
    25
100
AcDbSpline
210
0.0
220
0.0
230
1.0
 70
     8
 71
     3
 72
    15
 73
    11
 74
     0
 42
0.00000001
 43
0.00000001
 40
0.0
 40
0.0
 40
0.0
 40
0.0
 40
0.2255198391625377
 40
0.4515645943751947
 40
0.6337799820516974
 40
0.8158790324473547
 40
0.8946729146060268
 40
0.9638048440471935
 40
0.9940832206369723
 40
0.9999999999999999
 40
0.9999999999999999
 40
0.9999999999999999
 40
0.9999999999999999
 10
504.1539985014339
 20
514.4141474041362
 30
0.0
 10
503.3085499605801
 20
514.9591550734776
 30
0.0
 10
501.6156850275722
 20
516.0504389625203
 30
0.0
 10
499.1393688338927
 20
517.2675423521129
 30
0.0
 10
496.8109579191816
 20
518.1984421605481
 30
0.0
 10
495.0704784293591
 20
518.7542327053616
 30
0.0
 10
493.8128095729895
 20
519.0907855323259
 30
0.0
 10
493.1686766750771
 20
519.2461326386504
 30
0.0
 10
492.8407313849951
 20
519.3216860369179
 30
0.0
 10
492.7481939413709
 20
519.3432067449679
 30
0.0
 10
492.7330669548356
 20
519.3467247096766
 30
0.0
  0
SPLINE
  5
259
330
1F
100
AcDbEntity
  8
0
  6
Continuous
 62
     7
370
    25
100
AcDbSpline
210
0.0
220
0.0
230
1.0
 70
     8
 71
     3
 72
    11
 73
     7
 74
     0
 42
0.00000001
 43
0.00000001
 40
0.0
 40
0.0
 40
0.0
 40
0.0
 40
0.0195561212295927
 40
0.1681891996744411
 40
0.5898876540792777
 40
1.0
 40
1.0
 40
1.0
 40
1.0
 10
492.8430083462526
 20
519.3549922717697
 30
0.0
 10
492.8410496331046
 20
519.3550503854854
 30
0.0
 10
492.8242040432818
 20
519.3555501829261
 30
0.0
 10
492.7723034795227
 20
519.3563966003396
 30
0.0
 10
492.7230188474571
 20
519.3543073018176
 30
0.0
 10
492.7297488325335
 20
519.349228660634
 30
0.0
 10
492.7330669548355
 20
519.3467247096766
 30
0.0
  0
SPLINE
  5
25A
330
1F
100
AcDbEntity
  8
0
  6
Continuous
 62
     7
370
    25
100
AcDbSpline
210
0.0
220
0.0
230
1.0
 70
     8
 71
     3
 72
    17
 73
    13
 74
     0
 42
0.00000001
 43
0.00000001
 40
0.0
 40
0.0
 40
0.0
 40
0.0
 40
0.0068263121770685
 40
0.0088448507297254
 40
0.0223990310416126
 40
0.0309593028397538
 40
0.0563218912149143
 40
0.1198824177066684
 40
0.1957460556357056
 40
0.5558621944880031
 40
0.77803360979772
 40
1.0
 40
1.0
 40
1.0
 40
1.0
 10
492.8430083462526
 20
519.3549922717697
 30
0.0
 10
492.8466284914143
 20
519.3539540887245
 30
0.0
 10
492.8513191124618
 20
519.3526089152508
 30
0.0
 10
492.894851825165
 20
519.3450189271758
 30
0.0
 10
492.9693837475975
 20
519.3332674203692
 30
0.0
 10
493.1362159930994
 20
519.3075485251461
 30
0.0
 10
493.5177921101668
 20
519.2490339461239
 30
0.0
 10
494.2006930769011
 20
519.1398369615366
 30
0.0
 10
496.3056923938188
 20
518.7726647291126
 30
0.0
 10
499.1186269756049
 20
518.1384870451473
 30
0.0
 10
502.5174111901716
 20
517.1255467532889
 30
0.0
 10
504.3617368049353
 20
516.417952832602
 30
0.0
 10
505.2834739189259
 20
516.0643191937751
 30
0.0
  0
LINE
  5
25B
330
1F
100
AcDbEntity
  8
0
  6
Continuous
 62
     7
370
    25
100
AcDbLine
 10
509.3769167697
 20
518.4417978096
 30
0.0
 11
509.2335549407
 21
515.8461498401
 31
0.0
  0
LINE
  5
25C
330
1F
100
AcDbEntity
  8
0
  6
Continuous
 62
     7
370
    25
100
AcDbLine
 10
509.2335549407
 20
515.8461498401
 30
0.0
 11
505.2834739189
 21
516.0643191938
 31
0.0
  0
LINE
  5
25D
330
1F
100
AcDbEntity
  8
0
  6
Continuous
 62
     7
370
    25
100
AcDbLine
 10
512.1953690087
 20
517.3768238317
 30
0.0
 11
510.5864120155
 21
515.3349623307
 31
0.0
  0
LINE
  5
25E
330
1F
100
AcDbEntity
  8
0
  6
Continuous
 62
     7
370
    25
100
AcDbLine
 10
521.5474142768
 20
516.2829760145
 30
0.0
 11
521.5468463913
 21
516.2835630554
 31
0.0
  0
ARC
  5
25F
330
1F
100
AcDbEntity
  8
0
  6
Continuous
 62
     7
370
    25
100
AcDbCircle
 10
517.7607021634
 20
524.4395604719
 30
0.0
 40
11.5915549620673
100
AcDbArc
 50
231.762407147
 51
236.6533814372
  0
LWPOLYLINE
  5
260
330
1F
100
AcDbEntity
  8
0
  6
Continuous
 62
     7
370
    25
100
AcDbPolyline
 90
        4
 70
   128
 43
0.0
 10
492.7330669548
 20
519.3467247097
 10
492.7308247085
 20
519.3293664547
 10
492.7218522257
 20
519.2599335931
 10
492.7155219444
 20
519.210973447
  0
ARC
  5
261
330
1F
100
AcDbEntity
  8
0
  6
Continuous
 62
     7
370
    25
100
AcDbCircle
 10
486.3180878296
 20
488.3557523499
 30
0.0
 40
31.57783498432746
100
AcDbArc
 50
54.8280705831
 51
55.6099480104
  0
LINE
  5
262
330
1F
100
AcDbEntity
  8
0
  6
Continuous
 62
     7
370
    25
100
AcDbLine
 10
504.5079283671
 20
514.1683338465
 30
0.0
 11
504.4674464523
 21
514.1108873437
 31
0.0
  0
ARC
  5
263
330
1F
100
AcDbEntity
  8
0
  6
Continuous
 62
     7
370
    25
100
AcDbCircle
 10
486.3180878296
 20
488.3557523499
 30
0.0
 40
31.50755777528333
100
AcDbArc
 50
54.8280705831
 51
74.9420027521
  0
LINE
  5
264
330
1F
100
AcDbEntity
  8
0
  6
Continuous
 62
     7
370
    25
100
AcDbLine
 10
492.7155219444
 20
519.210973447
 30
0.0
 11
494.5036462282
 21
518.7814459437
 31
0.0
  0
LINE
  5
265
330
1F
100
AcDbEntity
  8
0
  6
Continuous
 62
     7
370
    25
100
AcDbLine
 10
492.6416845351
 20
529.6578292005
 30
0.0
 11
492.7155219444
 21
529.6681474967
 31
0.0
  0
SPLINE
  5
266
330
1F
100
AcDbEntity
  8
0
  6
Continuous
 62
     7
370
    25
100
AcDbSpline
210
0.0
220
0.0
230
1.0
 70
     8
 71
     3
 72
    10
 73
     6
 74
     0
 42
0.00000001
 43
0.00000001
 40
0.0
 40
0.0
 40
0.0
 40
0.0
 40
0.0490769085761659
 40
0.599580584366531
 40
1.0
 40
1.0
 40
1.0
 40
1.0
 10
510.5864120154627
 20
515.3349623307415
 30
0.0
 10
510.5674644770937
 20
515.349585066343
 30
0.0
 10
510.3359793151872
 20
515.5282334085321
 30
0.0
 10
509.8901055403699
 20
515.7622854019532
 30
0.0
 10
509.4280989634854
 20
515.821299774971
 30
0.0
 10
509.2335549407317
 20
515.8461498401033
 30
0.0
  0
ARC
  5
267
330
1F
100
AcDbEntity
  8
0
  6
Continuous
 62
     7
370
    25
100
AcDbCircle
 10
492.6317135539
 20
518.8570270127
 30
0.0
 40
0.500076340490795
100
AcDbArc
 50
78.3065203377
 51
86.8373700347
  0
SPLINE
  5
268
330
1F
100
AcDbEntity
  8
0
  6
Continuous
 62
     7
370
    25
100
AcDbSpline
210
0.0
220
0.0
230
1.0
 70
     8
 71
     3
 72
     9
 73
     5
 74
     0
 42
0.00000001
 43
0.00000001
 40
0.0
 40
0.0
 40
0.0
 40
0.0
 40
0.8458911907785839
 40
1.0
 40
1.0
 40
1.0
 40
1.0
 10
492.715521944425
 20
519.2109734469904
 30
0.0
 10
492.694681348314
 20
519.2147882539828
 30
0.0
 10
492.6700439051792
 20
519.21929806214
 30
0.0
 10
492.6454713780029
 20
519.221025525891
 30
0.0
 10
492.6416845351002
 20
519.2212917432727
 30
0.0
  0
LINE
  5
269
330
1F
100
AcDbEntity
  8
0
  6
Continuous
 62
     7
370
    25
100
AcDbLine
 10
474.6462643375
 20
520.2875475965
 30
0.0
 11
474.6467223573
 21
520.2875225101
 31
0.0
  0
LINE
  5
26A
330
1F
100
AcDbEntity
  8
0
  6
Continuous
 62
     7
370
    25
100
AcDbLine
 10
504.5083663385
 20
534.710165587
 30
0.0
 11
506.3471071878
 21
535.7071318227
 31
0.0
  0
LINE
  5
26B
330
1F
100
AcDbEntity
  8
0
  6
Continuous
 62
     7
370
    25
100
AcDbLine
 10
507.087131603
 20
533.8494059228
 30
0.0
 11
506.3471071878
 21
535.7071318227
 31
0.0
  0
LINE
  5
26C
330
1F
100
AcDbEntity
  8
0
  6
Continuous
 62
     7
370
    25
100
AcDbLine
 10
510.0739019297
 20
534.3285274098
 30
0.0
 11
510.1957356764
 21
536.3245079188
 31
0.0
  0
LINE
  5
26D
330
1F
100
AcDbEntity
  8
0
  6
Continuous
 62
     7
370
    25
100
AcDbLine
 10
510.1957356764
 20
536.3245079188
 30
0.0
 11
511.6386429161
 21
536.1162208535
 31
0.0
  0
ARC
  5
26E
330
1F
100
AcDbEntity
  8
0
  6
Continuous
 62
     7
370
    25
100
AcDbCircle
 10
509.6516869582
 20
527.4114549477
 30
0.0
 40
6.929946387144304
100
AcDbArc
 50
86.5070253286
 51
111.7198462835
  0
ARC
  5
26F
330
1F
100
AcDbEntity
  8
0
  6
Continuous
 62
     7
370
    25
100
AcDbCircle
 10
486.3180878296
 20
488.3557523499
 30
0.0
 40
33.57753037464031
100
AcDbArc
 50
54.8280705831
 51
55.6099480104
  0
LINE
  5
270
330
1F
100
AcDbEntity
  8
0
  6
Continuous
 62
     7
370
    25
100
AcDbLine
 10
505.6598167183
 20
515.8029392669
 30
0.0
 11
504.5079283671
 21
514.1683338465
 31
0.0
  0
ARC
  5
271
330
1F
100
AcDbEntity
  8
0
  6
Continuous
 62
     7
370
    25
100
AcDbCircle
 10
500.9327227566
 20
559.6650613709
 30
0.0
 40
46.10980537323366
100
AcDbArc
 50
282.8580809319
 51
283.1066633214
  0
ARC
  5
272
330
1F
100
AcDbEntity
  8
0
  6
Continuous
 62
     7
370
    25
100
AcDbCircle
 10
509.6516869582
 20
521.4676659961
 30
0.0
 40
6.92994638714442
100
AcDbArc
 50
234.8280705831
 51
282.8580809319
  0
ARC
  5
273
330
1F
100
AcDbEntity
  8
0
  6
Continuous
 62
     7
370
    25
100
AcDbCircle
 10
509.6516869582
 20
527.4114549477
 30
0.0
 40
8.929641777457142
100
AcDbArc
 50
86.5070253286
 51
111.7198462835
  0
LINE
  5
274
330
1F
100
AcDbEntity
  8
0
  6
Continuous
 62
     7
370
    25
100
AcDbLine
 10
511.1938557161
 20
514.7114930815
 30
0.0
 11
511.6388617211
 21
512.7619415153
 31
0.0
  0
ARC
  5
275
330
1F
100
AcDbEntity
  8
0
  6
Continuous
 62
     7
370
    25
100
AcDbCircle
 10
509.6516869582
 20
521.4676659961
 30
0.0
 40
8.929641777457183
100
AcDbArc
 50
234.8280705831
 51
282.8580809319
  0
ARC
  5
276
330
1F
100
AcDbEntity
  8
0
  6
Continuous
 62
     7
370
    25
100
AcDbCircle
 10
509.6516869582
 20
527.4114549477
 30
0.0
 40
8.999918986501244
100
AcDbArc
 50
77.1419190681
 51
125.1719294169
  0
ARC
  5
277
330
1F
100
AcDbEntity
  8
0
  6
Continuous
 62
     7
370
    25
100
AcDbCircle
 10
509.6516869582
 20
521.4676659961
 30
0.0
 40
8.999918986501244
100
AcDbArc
 50
234.8280705831
 51
282.8580809319
  0
SPLINE
  5
278
330
1F
100
AcDbEntity
  8
0
  6
Continuous
 62
     7
370
    25
100
AcDbSpline
210
0.0
220
0.0
230
1.0
 70
    24
 71
     3
 72
    11
 73
     7
 74
     0
 42
0.00000001
 43
0.00000001
 40
0.0
 40
0.0
 40
0.0
 40
0.0
 40
0.0021152250679324
 40
0.4720453783890878
 40
0.9429411169536822
 40
0.9999999999999999
 40
0.9999999999999999
 40
0.9999999999999999
 40
0.9999999999999999
 10
721.0405445717189
 20
514.9395604718663
 30
0.0
 10
721.0376324482792
 20
514.9395604718663
 30
0.0
 10
720.3877468016686
 20
514.9395604718663
 30
0.0
 10
719.0746483149703
 20
514.9395604718663
 30
0.0
 10
717.7398475088405
 20
514.9395604718663
 30
0.0
 10
717.0547902241077
 20
514.9395604718663
 30
0.0
 10
716.9807524150051
 20
514.9395604718663
 30
0.0
  0
ARC
  5
279
330
1F
100
AcDbEntity
  8
0
  6
Continuous
 62
     7
370
    25
100
AcDbCircle
 10
720.9607021634
 20
524.4395604719
 30
0.0
 40
10.30000000000012
100
AcDbArc
 50
232.7308609266
 51
247.2691390734
  0
SPLINE
  5
27A
330
1F
100
AcDbEntity
  8
0
  6
Continuous
 62
     7
370
    25
100
AcDbSpline
210
0.0
220
0.0
230
1.0
 70
    24
 71
     3
 72
    11
 73
     7
 74
     0
 42
0.00000001
 43
0.00000001
 40
0.0
 40
0.0
 40
0.0
 40
0.0
 40
0.2431641197380911
 40
0.4936284730588937
 40
0.7421706076863289
 40
1.0
 40
1.0
 40
1.0
 40
1.0
 10
714.7234357016928
 20
516.2428228839436
 30
0.0
 10
714.409676699996
 20
516.7862694162144
 30
0.0
 10
713.772739074976
 20
517.8894777440013
 30
0.0
 10
712.7623501059694
 20
519.6395227737278
 30
0.0
 10
711.7306429781335
 20
521.4264919376707
 30
0.0
 10
711.0765372352353
 20
522.5594363178931
 30
0.0
 10
710.7434859532661
 20
523.1362980597893
 30
0.0
  0
ARC
  5
27B
330
1F
100
AcDbEntity
  8
0
  6
Continuous
 62
     7
370
    25
100
AcDbCircle
 10
720.9607021634
 20
524.4395604719
 30
0.0
 40
10.30000000000007
100
AcDbArc
 50
172.7308609266
 51
187.2691390734
  0
SPLINE
  5
27C
330
1F
100
AcDbEntity
  8
0
  6
Continuous
 62
     7
370
    25
100
AcDbSpline
210
0.0
220
0.0
230
1.0
 70
    24
 71
     3
 72
    11
 73
     7
 74
     0
 42
0.00000001
 43
0.00000001
 40
0.0
 40
0.0
 40
0.0
 40
0.0
 40
0.2431641197380909
 40
0.4936284730588934
 40
0.7421706076863288
 40
1.0
 40
1.0
 40
1.0
 40
1.0
 10
710.7434859532663
 20
525.7428228839436
 30
0.0
 10
711.057244954963
 20
526.2862694162145
 30
0.0
 10
711.6941825799829
 20
527.3894777440013
 30
0.0
 10
712.7045715489895
 20
529.1395227737278
 30
0.0
 10
713.7362786768256
 20
530.9264919376707
 30
0.0
 10
714.3903844197238
 20
532.059436317893
 30
0.0
 10
714.7234357016928
 20
532.6362980597892
 30
0.0
  0
ARC
  5
27D
330
1F
100
AcDbEntity
  8
0
  6
Continuous
 62
     7
370
    25
100
AcDbCircle
 10
720.9607021634
 20
524.4395604719
 30
0.0
 40
10.30000000000001
100
AcDbArc
 50
112.7308609266
 51
127.2691390734
  0
SPLINE
  5
27E
330
1F
100
AcDbEntity
  8
0
  6
Continuous
 62
     7
370
    25
100
AcDbSpline
210
0.0
220
0.0
230
1.0
 70
    24
 71
     3
 72
    10
 73
     6
 74
     0
 42
0.00000001
 43
0.00000001
 40
0.0
 40
0.0
 40
0.0
 40
0.0
 40
0.0979345275880368
 40
0.906168920506475
 40
1.0
 40
1.0
 40
1.0
 40
1.0
 10
716.9807524150051
 20
533.9395604718665
 30
0.0
 10
717.0548090653608
 20
533.9395604718665
 30
0.0
 10
717.7400406845028
 20
533.9395604718665
 30
0.0
 10
718.5142265079436
 20
533.9395604718665
 30
0.0
 10
719.2394717380322
 20
533.9395604718665
 30
0.0
 10
719.314910323055
 20
533.9395604718665
 30
0.0
  0
ARC
  5
27F
330
1F
100
AcDbEntity
  8
0
  6
Continuous
 62
     7
370
    25
100
AcDbCircle
 10
517.7607021634
 20
524.4395604719
 30
0.0
 40
10.30000000000012
100
AcDbArc
 50
292.7308609266
 51
307.2691390734
  0
SPLINE
  5
280
330
1F
100
AcDbEntity
  8
0
  6
Continuous
 62
     7
370
    25
100
AcDbSpline
210
0.0
220
0.0
230
1.0
 70
    24
 71
     3
 72
    10
 73
     6
 74
     0
 42
0.00000001
 43
0.00000001
 40
0.0
 40
0.0
 40
0.0
 40
0.0
 40
0.0807135950718163
 40
0.7120610797460127
 40
1.0
 40
1.0
 40
1.0
 40
1.0
 10
521.7406519118581
 20
514.9395604718663
 30
0.0
 10
521.6654373962588
 20
514.9395604718663
 30
0.0
 10
521.0018895869638
 20
514.9395604718663
 30
0.0
 10
520.0446948314152
 20
514.9395604718665
 30
0.0
 10
519.1325053134613
 20
514.9395604718663
 30
0.0
 10
518.8467892803961
 20
514.9395604718663
 30
0.0
  0
SPLINE
  5
281
330
1F
100
AcDbEntity
  8
0
  6
Continuous
 62
     7
370
    25
100
AcDbSpline
210
0.0
220
0.0
230
1.0
 70
    24
 71
     3
 72
    10
 73
     6
 74
     0
 42
0.00000001
 43
0.00000001
 40
0.0
 40
0.0
 40
0.0
 40
0.0
 40
0.3721604041261106
 40
0.928833084193436
 40
0.9999999999999999
 40
0.9999999999999999
 40
0.9999999999999999
 40
0.9999999999999999
 10
518.4489355276353
 20
533.9395604718665
 30
0.0
 10
518.8681483589813
 20
533.9395604718665
 30
0.0
 10
519.9144142775358
 20
533.9395604718665
 30
0.0
 10
521.0019425829078
 20
533.9395604718665
 30
0.0
 10
521.6654427918564
 20
533.9395604718665
 30
0.0
 10
521.7406519118581
 20
533.9395604718665
 30
0.0
  0
ARC
  5
282
330
1F
100
AcDbEntity
  8
0
  6
Continuous
 62
     7
370
    25
100
AcDbCircle
 10
517.7607021634
 20
524.4395604719
 30
0.0
 40
10.30000000000002
100
AcDbArc
 50
52.7308609266
 51
67.2691390734
  0
SPLINE
  5
283
330
1F
100
AcDbEntity
  8
0
  6
Continuous
 62
     7
370
    25
100
AcDbSpline
210
0.0
220
0.0
230
1.0
 70
    24
 71
     3
 72
    11
 73
     7
 74
     0
 42
0.00000001
 43
0.00000001
 40
0.0
 40
0.0
 40
0.0
 40
0.0
 40
0.2431641197380913
 40
0.4936284730588932
 40
0.7421706076863291
 40
1.0
 40
1.0
 40
1.0
 40
1.0
 10
523.9979686251705
 20
532.6362980597893
 30
0.0
 10
524.3117276268673
 20
532.0928515275184
 30
0.0
 10
524.9486652518872
 20
530.9896431997316
 30
0.0
 10
525.9590542208937
 20
529.2395981700051
 30
0.0
 10
526.9907613487298
 20
527.4526290060621
 30
0.0
 10
527.644867091628
 20
526.3196846258398
 30
0.0
 10
527.977918373597
 20
525.7428228839436
 30
0.0
  0
ARC
  5
284
330
1F
100
AcDbEntity
  8
0
  6
Continuous
 62
     7
370
    25
100
AcDbCircle
 10
517.7607021634
 20
524.4395604719
 30
0.0
 40
10.30000000000007
100
AcDbArc
 50
352.7308609266
 51
7.2691390734
  0
SPLINE
  5
285
330
1F
100
AcDbEntity
  8
0
  6
Continuous
 62
     7
370
    25
100
AcDbSpline
210
0.0
220
0.0
230
1.0
 70
    24
 71
     3
 72
    11
 73
     7
 74
     0
 42
0.00000001
 43
0.00000001
 40
0.0
 40
0.0
 40
0.0
 40
0.0
 40
0.2431641197380911
 40
0.493628473058894
 40
0.742170607686329
 40
1.0
 40
1.0
 40
1.0
 40
1.0
 10
527.9779183735969
 20
523.1362980597893
 30
0.0
 10
527.6641593719003
 20
522.5928515275184
 30
0.0
 10
527.0272217468803
 20
521.4896431997315
 30
0.0
 10
526.0168327778737
 20
519.739598170005
 30
0.0
 10
524.9851256500377
 20
517.9526290060622
 30
0.0
 10
524.3310199071396
 20
516.81968462584
 30
0.0
 10
523.9979686251705
 20
516.2428228839436
 30
0.0
  0
ARC
  5
286
330
1F
100
AcDbEntity
  8
0
  6
Continuous
 62
     7
370
    25
100
AcDbCircle
 10
517.7607021634
 20
524.4395604719
 30
0.0
 40
14.87500000000004
100
AcDbArc
 50
233.3837470415
 51
30.0
  0
ARC
  5
287
330
1F
100
AcDbEntity
  8
0
  6
Continuous
 62
     7
370
    25
100
AcDbCircle
 10
517.7607021634
 20
524.4395604719
 30
0.0
 40
14.875
100
AcDbArc
 50
30.0
 51
126.6162529585
  0
ARC
  5
288
330
1F
100
AcDbEntity
  8
0
  6
Continuous
 62
     7
370
    25
100
AcDbCircle
 10
517.7607021634
 20
524.4395604719
 30
0.0
 40
10.57500000000006
100
AcDbArc
 50
261.6509017607
 51
30.0
  0
ARC
  5
289
330
1F
100
AcDbEntity
  8
0
  6
Continuous
 62
     7
370
    25
100
AcDbCircle
 10
517.7607021634
 20
524.4395604719
 30
0.0
 40
10.57500000000006
100
AcDbArc
 50
30.0
 51
98.3490982393
  0
ARC
  5
28A
330
1F
100
AcDbEntity
  8
0
  6
Continuous
 62
     7
370
    25
100
AcDbCircle
 10
517.7607021634
 20
524.4395604719
 30
0.0
 40
16.19999999999995
100
AcDbArc
 50
223.9250761661
 51
136.0749238339
  0
SPLINE
  5
28B
330
1F
100
AcDbEntity
  8
0
  6
Continuous
 62
     7
370
    25
100
AcDbSpline
210
0.0
220
0.0
230
1.0
 70
     8
 71
     3
 72
     9
 73
     5
 74
     0
 42
0.00000001
 43
0.00000001
 40
0.0
 40
0.0
 40
0.0
 40
0.0
 40
0.5850553834534097
 40
1.0
 40
1.0
 40
1.0
 40
1.0
 10
506.6342915155168
 20
511.2110690199303
 30
0.0
 10
506.8940664353256
 20
510.8245224943661
 30
0.0
 10
507.338084091014
 20
510.163821753041
 30
0.0
 10
508.0099352830468
 20
509.6856629209149
 30
0.0
 10
508.2887163183013
 20
509.48725348767
 30
0.0
  0
LINE
  5
28C
330
1F
100
AcDbEntity
  8
0
  6
Continuous
 62
     7
370
    25
100
AcDbLine
 10
505.1391684557
 20
513.800698123
 30
0.0
 11
506.6342915155
 21
511.2110690199
 31
0.0
  0
SPLINE
  5
28D
330
1F
100
AcDbEntity
  8
0
  6
Continuous
 62
     7
370
    25
100
AcDbSpline
210
0.0
220
0.0
230
1.0
 70
     8
 71
     3
 72
     9
 73
     5
 74
     0
 42
0.00000001
 43
0.00000001
 40
0.0
 40
0.0
 40
0.0
 40
0.0
 40
0.584191749740925
 40
1.0
 40
1.0
 40
1.0
 40
1.0
 10
508.2887163183013
 20
539.391867456063
 30
0.0
 10
507.9010600528508
 20
539.1025915525632
 30
0.0
 10
507.2374829557376
 20
538.6074186857297
 30
0.0
 10
506.8114426073291
 20
537.9439342331185
 30
0.0
 10
506.6342915155176
 20
537.6680519238041
 30
0.0
  0
ARC
  5
28E
330
1F
100
AcDbEntity
  8
0
  6
Continuous
 62
     7
370
    25
100
AcDbCircle
 10
517.7607021634
 20
524.4395604719
 30
0.0
 40
17.70000000000002
100
AcDbArc
 50
117.6465635726
 51
122.3534364274
  0
SPLINE
  5
28F
330
1F
100
AcDbEntity
  8
0
  6
Continuous
 62
     7
370
    25
100
AcDbSpline
210
0.0
220
0.0
230
1.0
 70
     8
 71
     3
 72
     9
 73
     5
 74
     0
 42
0.00000001
 43
0.00000001
 40
0.0
 40
0.0
 40
0.0
 40
0.0
 40
0.5850553834536162
 40
1.0
 40
1.0
 40
1.0
 40
1.0
 10
511.8676978362654
 20
540.6895604718665
 30
0.0
 10
511.403051265478
 20
540.6578620548278
 30
0.0
 10
510.6088588113475
 20
540.6036818559352
 30
0.0
 10
509.8588355196665
 20
540.2609210721351
 30
0.0
 10
509.5476173924991
 20
540.1186943301342
 30
0.0
  0
SPLINE
  5
290
330
1F
100
AcDbEntity
  8
0
  6
Continuous
 62
     7
370
    25
100
AcDbSpline
210
0.0
220
0.0
230
1.0
 70
    24
 71
     3
 72
    11
 73
     7
 74
     0
 42
0.00000001
 43
0.00000001
 40
0.0
 40
0.0
 40
0.0
 40
0.0
 40
0.2328716322111479
 40
0.4710265024313248
 40
0.7311421212560302
 40
0.9999999999999999
 40
0.9999999999999999
 40
0.9999999999999999
 40
0.9999999999999999
 10
523.6537064905979
 20
540.6895604718665
 30
0.0
 10
522.7598500602775
 20
540.6895604718665
 30
0.0
 10
520.9518579744581
 20
540.6895604718665
 30
0.0
 10
518.0241852338952
 20
540.6895604718665
 30
0.0
 10
514.9370863234171
 20
540.6895604718665
 30
0.0
 10
512.9020383024309
 20
540.6895604718665
 30
0.0
 10
511.8676978362654
 20
540.6895604718665
 30
0.0
  0
SPLINE
  5
291
330
1F
100
AcDbEntity
  8
0
  6
Continuous
 62
     7
370
    25
100
AcDbSpline
210
0.0
220
0.0
230
1.0
 70
     8
 71
     3
 72
     9
 73
     5
 74
     0
 42
0.00000001
 43
0.00000001
 40
0.0
 40
0.0
 40
0.0
 40
0.0
 40
0.5841917497409234
 40
1.0
 40
1.0
 40
1.0
 40
1.0
 10
525.9737869343642
 20
540.1186943301342
 30
0.0
 10
525.5294385205053
 20
540.3097765522007
 30
0.0
 10
524.7688176900061
 20
540.6368647422535
 30
0.0
 10
523.9812031248246
 20
540.6740842807068
 30
0.0
 10
523.6537064905979
 20
540.6895604718665
 30
0.0
  0
ARC
  5
292
330
1F
100
AcDbEntity
  8
0
  6
Continuous
 62
     7
370
    25
100
AcDbCircle
 10
517.7607021634
 20
524.4395604719
 30
0.0
 40
17.70000000000007
100
AcDbArc
 50
57.6465635726
 51
62.3534364274
  0
SPLINE
  5
293
330
1F
100
AcDbEntity
  8
0
  6
Continuous
 62
     7
370
    25
100
AcDbSpline
210
0.0
220
0.0
230
1.0
 70
     8
 71
     3
 72
     9
 73
     5
 74
     0
 42
0.00000001
 43
0.00000001
 40
0.0
 40
0.0
 40
0.0
 40
0.0
 40
0.5850553834536193
 40
1.0
 40
1.0
 40
1.0
 40
1.0
 10
528.8871128113456
 20
537.6680519238041
 30
0.0
 10
528.6273378915367
 20
538.0545984493679
 30
0.0
 10
528.1833202358484
 20
538.7152991906925
 30
0.0
 10
527.5114690438161
 20
539.1934580228183
 30
0.0
 10
527.2326880085619
 20
539.391867456063
 30
0.0
  0
SPLINE
  5
294
330
1F
100
AcDbEntity
  8
0
  6
Continuous
 62
     7
370
    25
100
AcDbSpline
210
0.0
220
0.0
230
1.0
 70
    24
 71
     3
 72
    11
 73
     7
 74
     0
 42
0.00000001
 43
0.00000001
 40
0.0
 40
0.0
 40
0.0
 40
0.0
 40
0.2556279644380972
 40
0.5185037642963867
 40
0.7560467972580103
 40
1.0
 40
1.0
 40
1.0
 40
1.0
 10
534.7801171385119
 20
527.4610690199288
 30
0.0
 10
534.2888240602437
 20
528.3120135928963
 30
0.0
 10
533.2923082407997
 20
530.0380296227194
 30
0.0
 10
531.7720973343465
 20
532.6711121509167
 30
0.0
 10
530.2803816127984
 20
535.2548395710875
 30
0.0
 10
529.3556394492919
 20
536.8565399821817
 30
0.0
 10
528.8871128113456
 20
537.6680519238041
 30
0.0
  0
SPLINE
  5
295
330
1F
100
AcDbEntity
  8
0
  6
Continuous
 62
     7
370
    25
100
AcDbSpline
210
0.0
220
0.0
230
1.0
 70
     8
 71
     3
 72
     9
 73
     5
 74
     0
 42
0.00000001
 43
0.00000001
 40
0.0
 40
0.0
 40
0.0
 40
0.0
 40
0.5841917497409242
 40
1.0
 40
1.0
 40
1.0
 40
1.0
 10
535.4457727794944
 20
525.1663873459377
 30
0.0
 10
535.3890806310862
 20
525.6467454715039
 30
0.0
 10
535.2920368977002
 20
526.4690065283902
 30
0.0
 10
534.9304626809271
 20
527.1697105194548
 30
0.0
 10
534.7801171385119
 20
527.4610690199288
 30
0.0
  0
ARC
  5
296
330
1F
100
AcDbEntity
  8
0
  6
Continuous
 62
     7
370
    25
100
AcDbCircle
 10
517.7607021634
 20
524.4395604719
 30
0.0
 40
17.70000000000003
100
AcDbArc
 50
357.6465635726
 51
2.3534364274
  0
SPLINE
  5
297
330
1F
100
AcDbEntity
  8
0
  6
Continuous
 62
     7
370
    25
100
AcDbSpline
210
0.0
220
0.0
230
1.0
 70
     8
 71
     3
 72
     9
 73
     5
 74
     0
 42
0.00000001
 43
0.00000001
 40
0.0
 40
0.0
 40
0.0
 40
0.0
 40
0.5850553834536182
 40
0.9999999999999999
 40
0.9999999999999999
 40
0.9999999999999999
 40
0.9999999999999999
 10
534.7801171385119
 20
521.4180519238041
 30
0.0
 10
534.9849887894903
 20
521.8362968664065
 30
0.0
 10
535.3351635879326
 20
522.5511778066237
 30
0.0
 10
535.4133356875811
 20
523.3720974225496
 30
0.0
 10
535.4457727794944
 20
523.7127335977951
 30
0.0
  0
SPLINE
  5
298
330
1F
100
AcDbEntity
  8
0
  6
Continuous
 62
     7
370
    25
100
AcDbSpline
210
0.0
220
0.0
230
1.0
 70
    24
 71
     3
 72
    11
 73
     7
 74
     0
 42
0.00000001
 43
0.00000001
 40
0.0
 40
0.0
 40
0.0
 40
0.0
 40
0.2328716322111471
 40
0.471026502431323
 40
0.7311421212560296
 40
1.0
 40
1.0
 40
1.0
 40
1.0
 10
528.8871128113456
 20
511.2110690199289
 30
0.0
 10
529.3340410265058
 20
511.9851713959225
 30
0.0
 10
530.2380370694156
 20
513.5509384720831
 30
0.0
 10
531.701873439697
 20
516.0863774393779
 30
0.0
 10
533.2454228949359
 20
518.759883519847
 30
0.0
 10
534.2629469054291
 20
520.5222868039423
 30
0.0
 10
534.7801171385119
 20
521.4180519238041
 30
0.0
  0
SPLINE
  5
299
330
1F
100
AcDbEntity
  8
0
  6
Continuous
 62
     7
370
    25
100
AcDbSpline
210
0.0
220
0.0
230
1.0
 70
     8
 71
     3
 72
     9
 73
     5
 74
     0
 42
0.00000001
 43
0.00000001
 40
0.0
 40
0.0
 40
0.0
 40
0.0
 40
0.5841917497409237
 40
1.0
 40
1.0
 40
1.0
 40
1.0
 10
527.2326880085619
 20
509.48725348767
 30
0.0
 10
527.6203442740125
 20
509.7765293911697
 30
0.0
 10
528.2839213711256
 20
510.2717022580032
 30
0.0
 10
528.7099617195341
 20
510.9351867106145
 30
0.0
 10
528.8871128113456
 20
511.2110690199289
 30
0.0
  0
ARC
  5
29A
330
1F
100
AcDbEntity
  8
0
  6
Continuous
 62
     7
370
    25
100
AcDbCircle
 10
517.7607021634
 20
524.4395604719
 30
0.0
 40
17.70000000000002
100
AcDbArc
 50
297.6465635726
 51
302.3534364274
  0
SPLINE
  5
29B
330
1F
100
AcDbEntity
  8
0
  6
Continuous
 62
     7
370
    25
100
AcDbSpline
210
0.0
220
0.0
230
1.0
 70
     8
 71
     3
 72
     9
 73
     5
 74
     0
 42
0.00000001
 43
0.00000001
 40
0.0
 40
0.0
 40
0.0
 40
0.0
 40
0.5850553834536171
 40
1.0
 40
1.0
 40
1.0
 40
1.0
 10
523.6537064905979
 20
508.1895604718665
 30
0.0
 10
524.1183530613852
 20
508.2212588889051
 30
0.0
 10
524.9125455155157
 20
508.2754390877976
 30
0.0
 10
525.6625688071966
 20
508.6181998715977
 30
0.0
 10
525.973786934364
 20
508.7604266135988
 30
0.0
  0
SPLINE
  5
29C
330
1F
100
AcDbEntity
  8
0
  6
Continuous
 62
     7
370
    25
100
AcDbSpline
210
0.0
220
0.0
230
1.0
 70
    24
 71
     3
 72
    11
 73
     7
 74
     0
 42
0.00000001
 43
0.00000001
 40
0.0
 40
0.0
 40
0.0
 40
0.0
 40
0.2328716322111485
 40
0.471026502431326
 40
0.7311421212560308
 40
1.0
 40
1.0
 40
1.0
 40
1.0
 10
511.8676978362654
 20
508.1895604718665
 30
0.0
 10
512.7615542665859
 20
508.1895604718665
 30
0.0
 10
514.5695463524052
 20
508.1895604718665
 30
0.0
 10
517.4972190929681
 20
508.1895604718665
 30
0.0
 10
520.584318003446
 20
508.1895604718665
 30
0.0
 10
522.6193660244322
 20
508.1895604718665
 30
0.0
 10
523.6537064905979
 20
508.1895604718665
 30
0.0
  0
SPLINE
  5
29D
330
1F
100
AcDbEntity
  8
0
  6
Continuous
 62
     7
370
    25
100
AcDbSpline
210
0.0
220
0.0
230
1.0
 70
     8
 71
     3
 72
     9
 73
     5
 74
     0
 42
0.00000001
 43
0.00000001
 40
0.0
 40
0.0
 40
0.0
 40
0.0
 40
0.5841917497409266
 40
1.0
 40
1.0
 40
1.0
 40
1.0
 10
509.5476173924991
 20
508.7604266135988
 30
0.0
 10
509.9919658063579
 20
508.5693443915322
 30
0.0
 10
510.7525866368571
 20
508.2422562014794
 30
0.0
 10
511.5402012020387
 20
508.2050366630262
 30
0.0
 10
511.8676978362654
 20
508.1895604718665
 30
0.0
  0
ARC
  5
29E
330
1F
100
AcDbEntity
  8
0
  6
Continuous
 62
     7
370
    25
100
AcDbCircle
 10
517.7607021634
 20
524.4395604719
 30
0.0
 40
17.69999999999997
100
AcDbArc
 50
237.6465635726
 51
242.3534364274
  0
LWPOLYLINE
  5
29F
330
1F
100
AcDbEntity
  8
0
  6
Continuous
 62
     7
370
    25
100
AcDbPolyline
 90
        3
 70
   128
 43
0.0
 10
713.3487770291
 20
518.3468520635
 10
712.5169544765
 20
519.5645604719
 10
711.8877062163
 20
520.8697923361
  0
ARC
  5
2A0
330
1F
100
AcDbEntity
  8
0
  6
Continuous
 62
     7
370
    25
100
AcDbCircle
 10
720.9607021634
 20
524.4395604719
 30
0.0
 40
10.57500000000009
100
AcDbArc
 50
84.5490172093
 51
281.0490866707
  0
ARC
  5
2A1
330
1F
100
AcDbEntity
  8
0
  6
Continuous
 62
     7
370
    25
100
AcDbCircle
 10
720.9607021634
 20
524.4395604719
 30
0.0
 40
14.87500000000004
100
AcDbArc
 50
55.1611835908
 51
308.4167037132
  0
SPLINE
  5
2A2
330
1F
100
AcDbEntity
  8
0
  6
Continuous
 62
     7
370
    25
100
AcDbSpline
210
0.0
220
0.0
230
1.0
 70
     8
 71
     3
 72
     9
 73
     5
 74
     0
 42
0.00000001
 43
0.00000001
 40
0.0
 40
0.0
 40
0.0
 40
0.0
 40
0.5850553834534097
 40
1.0
 40
1.0
 40
1.0
 40
1.0
 10
709.834291515517
 20
511.2110690199303
 30
0.0
 10
710.0940664353257
 20
510.8245224943661
 30
0.0
 10
710.5380840910141
 20
510.163821753041
 30
0.0
 10
711.2099352830469
 20
509.6856629209149
 30
0.0
 10
711.4887163183014
 20
509.48725348767
 30
0.0
  0
SPLINE
  5
2A3
330
1F
100
AcDbEntity
  8
0
  6
Continuous
 62
     7
370
    25
100
AcDbSpline
210
0.0
220
0.0
230
1.0
 70
    24
 71
     3
 72
    11
 73
     7
 74
     0
 42
0.00000001
 43
0.00000001
 40
0.0
 40
0.0
 40
0.0
 40
0.0
 40
0.2379053903768482
 40
0.4814905141303176
 40
0.7366519444348056
 40
0.9999999999999999
 40
0.9999999999999999
 40
0.9999999999999999
 40
0.9999999999999999
 10
703.9412871883512
 20
521.4180519238043
 30
0.0
 10
704.3980192991265
 20
520.6269687024934
 30
0.0
 10
705.3223875048601
 20
519.0259160052616
 30
0.0
 10
706.7987135973798
 20
516.4688442044778
 30
0.0
 10
708.3308469818433
 20
513.8151113386147
 30
0.0
 10
709.3278959464897
 20
512.088171874213
 30
0.0
 10
709.834291515517
 20
511.2110690199303
 30
0.0
  0
SPLINE
  5
2A4
330
1F
100
AcDbEntity
  8
0
  6
Continuous
 62
     7
370
    25
100
AcDbSpline
210
0.0
220
0.0
230
1.0
 70
     8
 71
     3
 72
     9
 73
     5
 74
     0
 42
0.00000001
 43
0.00000001
 40
0.0
 40
0.0
 40
0.0
 40
0.0
 40
0.5841917497409942
 40
1.0
 40
1.0
 40
1.0
 40
1.0
 10
703.2756315473688
 20
523.7127335977951
 30
0.0
 10
703.3323236957771
 20
523.232375472229
 30
0.0
 10
703.4293674291631
 20
522.4101144153427
 30
0.0
 10
703.7909416459362
 20
521.7094104242783
 30
0.0
 10
703.9412871883512
 20
521.4180519238043
 30
0.0
  0
ARC
  5
2A5
330
1F
100
AcDbEntity
  8
0
  6
Continuous
 62
     7
370
    25
100
AcDbCircle
 10
720.9607021634
 20
524.4395604719
 30
0.0
 40
17.70000000000003
100
AcDbArc
 50
177.6465635726
 51
182.3534364274
  0
SPLINE
  5
2A6
330
1F
100
AcDbEntity
  8
0
  6
Continuous
 62
     7
370
    25
100
AcDbSpline
210
0.0
220
0.0
230
1.0
 70
     8
 71
     3
 72
     9
 73
     5
 74
     0
 42
0.00000001
 43
0.00000001
 40
0.0
 40
0.0
 40
0.0
 40
0.0
 40
0.5850553834536183
 40
1.0
 40
1.0
 40
1.0
 40
1.0
 10
703.9412871883515
 20
527.4610690199288
 30
0.0
 10
703.736415537373
 20
527.0428240773264
 30
0.0
 10
703.3862407389307
 20
526.3279431371092
 30
0.0
 10
703.3080686392822
 20
525.5070235211834
 30
0.0
 10
703.2756315473688
 20
525.1663873459377
 30
0.0
  0
SPLINE
  5
2A7
330
1F
100
AcDbEntity
  8
0
  6
Continuous
 62
     7
370
    25
100
AcDbSpline
210
0.0
220
0.0
230
1.0
 70
    24
 71
     3
 72
    11
 73
     7
 74
     0
 42
0.00000001
 43
0.00000001
 40
0.0
 40
0.0
 40
0.0
 40
0.0
 40
0.2328716322111468
 40
0.4710265024313225
 40
0.7311421212560294
 40
1.0
 40
1.0
 40
1.0
 40
1.0
 10
709.8342915155176
 20
537.668051923804
 30
0.0
 10
709.3873633003575
 20
536.8939495478104
 30
0.0
 10
708.4833672574479
 20
535.3281824716497
 30
0.0
 10
707.0195308871663
 20
532.792743504355
 30
0.0
 10
705.4759814319274
 20
530.1192374238858
 30
0.0
 10
704.4584574214342
 20
528.3568341397905
 30
0.0
 10
703.9412871883515
 20
527.4610690199288
 30
0.0
  0
SPLINE
  5
2A8
330
1F
100
AcDbEntity
  8
0
  6
Continuous
 62
     7
370
    25
100
AcDbSpline
210
0.0
220
0.0
230
1.0
 70
     8
 71
     3
 72
     9
 73
     5
 74
     0
 42
0.00000001
 43
0.00000001
 40
0.0
 40
0.0
 40
0.0
 40
0.0
 40
0.584191749740925
 40
1.0
 40
1.0
 40
1.0
 40
1.0
 10
711.4887163183014
 20
539.391867456063
 30
0.0
 10
711.1010600528508
 20
539.1025915525632
 30
0.0
 10
710.4374829557377
 20
538.6074186857297
 30
0.0
 10
710.0114426073292
 20
537.9439342331184
 30
0.0
 10
709.8342915155176
 20
537.668051923804
 30
0.0
  0
ARC
  5
2A9
330
1F
100
AcDbEntity
  8
0
  6
Continuous
 62
     7
370
    25
100
AcDbCircle
 10
720.9607021634
 20
524.4395604719
 30
0.0
 40
17.70000000000002
100
AcDbArc
 50
117.6465635726
 51
122.3534364274
  0
SPLINE
  5
2AA
330
1F
100
AcDbEntity
  8
0
  6
Continuous
 62
     7
370
    25
100
AcDbSpline
210
0.0
220
0.0
230
1.0
 70
     8
 71
     3
 72
     9
 73
     5
 74
     0
 42
0.00000001
 43
0.00000001
 40
0.0
 40
0.0
 40
0.0
 40
0.0
 40
0.5850553834536162
 40
1.0
 40
1.0
 40
1.0
 40
1.0
 10
715.0676978362654
 20
540.6895604718665
 30
0.0
 10
714.603051265478
 20
540.6578620548278
 30
0.0
 10
713.8088588113476
 20
540.6036818559352
 30
0.0
 10
713.0588355196666
 20
540.2609210721351
 30
0.0
 10
712.7476173924991
 20
540.1186943301342
 30
0.0
  0
SPLINE
  5
2AB
330
1F
100
AcDbEntity
  8
0
  6
Continuous
 62
     7
370
    25
100
AcDbSpline
210
0.0
220
0.0
230
1.0
 70
    24
 71
     3
 72
    11
 73
     7
 74
     0
 42
0.00000001
 43
0.00000001
 40
0.0
 40
0.0
 40
0.0
 40
0.0
 40
0.2328716322111479
 40
0.4710265024313248
 40
0.7311421212560302
 40
0.9999999999999999
 40
0.9999999999999999
 40
0.9999999999999999
 40
0.9999999999999999
 10
726.8537064905979
 20
540.6895604718665
 30
0.0
 10
725.9598500602775
 20
540.6895604718665
 30
0.0
 10
724.1518579744582
 20
540.6895604718665
 30
0.0
 10
721.2241852338952
 20
540.6895604718665
 30
0.0
 10
718.1370863234172
 20
540.6895604718665
 30
0.0
 10
716.102038302431
 20
540.6895604718665
 30
0.0
 10
715.0676978362654
 20
540.6895604718665
 30
0.0
  0
SPLINE
  5
2AC
330
1F
100
AcDbEntity
  8
0
  6
Continuous
 62
     7
370
    25
100
AcDbSpline
210
0.0
220
0.0
230
1.0
 70
     8
 71
     3
 72
     9
 73
     5
 74
     0
 42
0.00000001
 43
0.00000001
 40
0.0
 40
0.0
 40
0.0
 40
0.0
 40
0.5841917497409234
 40
1.0
 40
1.0
 40
1.0
 40
1.0
 10
729.1737869343642
 20
540.1186943301342
 30
0.0
 10
728.7294385205054
 20
540.3097765522007
 30
0.0
 10
727.9688176900062
 20
540.6368647422535
 30
0.0
 10
727.1812031248246
 20
540.6740842807068
 30
0.0
 10
726.8537064905979
 20
540.6895604718665
 30
0.0
  0
ARC
  5
2AD
330
1F
100
AcDbEntity
  8
0
  6
Continuous
 62
     7
370
    25
100
AcDbCircle
 10
720.9607021634
 20
524.4395604719
 30
0.0
 40
17.70000000000007
100
AcDbArc
 50
57.6465635726
 51
62.3534364274
  0
SPLINE
  5
2AE
330
1F
100
AcDbEntity
  8
0
  6
Continuous
 62
     7
370
    25
100
AcDbSpline
210
0.0
220
0.0
230
1.0
 70
     8
 71
     3
 72
     9
 73
     5
 74
     0
 42
0.00000001
 43
0.00000001
 40
0.0
 40
0.0
 40
0.0
 40
0.0
 40
0.5850553834536193
 40
1.0
 40
1.0
 40
1.0
 40
1.0
 10
732.0871128113456
 20
537.668051923804
 30
0.0
 10
731.8273378915368
 20
538.0545984493679
 30
0.0
 10
731.3833202358485
 20
538.7152991906925
 30
0.0
 10
730.7114690438161
 20
539.1934580228183
 30
0.0
 10
730.432688008562
 20
539.391867456063
 30
0.0
  0
LINE
  5
2AF
330
1F
100
AcDbEntity
  8
0
  6
Continuous
 62
     7
370
    25
100
AcDbLine
 10
733.3890316349
 20
535.4130623742
 30
0.0
 11
732.0871128113
 21
537.6680519238
 31
0.0
  0
SPLINE
  5
2B0
330
1F
100
AcDbEntity
  8
0
  6
Continuous
 62
     7
370
    25
100
AcDbSpline
210
0.0
220
0.0
230
1.0
 70
    24
 71
     3
 72
     9
 73
     5
 74
     0
 42
0.00000001
 43
0.00000001
 40
0.0
 40
0.0
 40
0.0
 40
0.0
 40
0.7734246074897154
 40
0.9999999999999999
 40
0.9999999999999999
 40
0.9999999999999999
 40
0.9999999999999999
 10
732.0871128113456
 20
511.2110690199289
 30
0.0
 10
732.5321016973572
 20
511.9818123793045
 30
0.0
 10
733.1074504536581
 20
512.9783456572892
 30
0.0
 10
733.708484213922
 20
514.0193666671303
 30
0.0
 10
733.8446636740656
 20
514.2552364110464
 30
0.0
  0
SPLINE
  5
2B1
330
1F
100
AcDbEntity
  8
0
  6
Continuous
 62
     7
370
    25
100
AcDbSpline
210
0.0
220
0.0
230
1.0
 70
     8
 71
     3
 72
     9
 73
     5
 74
     0
 42
0.00000001
 43
0.00000001
 40
0.0
 40
0.0
 40
0.0
 40
0.0
 40
0.5841917497409237
 40
1.0
 40
1.0
 40
1.0
 40
1.0
 10
730.432688008562
 20
509.48725348767
 30
0.0
 10
730.8203442740125
 20
509.7765293911697
 30
0.0
 10
731.4839213711257
 20
510.2717022580032
 30
0.0
 10
731.9099617195342
 20
510.9351867106145
 30
0.0
 10
732.0871128113456
 20
511.2110690199289
 30
0.0
  0
ARC
  5
2B2
330
1F
100
AcDbEntity
  8
0
  6
Continuous
 62
     7
370
    25
100
AcDbCircle
 10
720.9607021634
 20
524.4395604719
 30
0.0
 40
17.70000000000002
100
AcDbArc
 50
297.6465635726
 51
302.3534364274
  0
SPLINE
  5
2B3
330
1F
100
AcDbEntity
  8
0
  6
Continuous
 62
     7
370
    25
100
AcDbSpline
210
0.0
220
0.0
230
1.0
 70
     8
 71
     3
 72
     9
 73
     5
 74
     0
 42
0.00000001
 43
0.00000001
 40
0.0
 40
0.0
 40
0.0
 40
0.0
 40
0.5850553834536171
 40
1.0
 40
1.0
 40
1.0
 40
1.0
 10
726.8537064905979
 20
508.1895604718665
 30
0.0
 10
727.3183530613852
 20
508.2212588889051
 30
0.0
 10
728.1125455155158
 20
508.2754390877976
 30
0.0
 10
728.8625688071967
 20
508.6181998715976
 30
0.0
 10
729.1737869343642
 20
508.7604266135988
 30
0.0
  0
SPLINE
  5
2B4
330
1F
100
AcDbEntity
  8
0
  6
Continuous
 62
     7
370
    25
100
AcDbSpline
210
0.0
220
0.0
230
1.0
 70
    24
 71
     3
 72
    11
 73
     7
 74
     0
 42
0.00000001
 43
0.00000001
 40
0.0
 40
0.0
 40
0.0
 40
0.0
 40
0.2328716322111485
 40
0.471026502431326
 40
0.7311421212560308
 40
1.0
 40
1.0
 40
1.0
 40
1.0
 10
715.0676978362654
 20
508.1895604718665
 30
0.0
 10
715.9615542665858
 20
508.1895604718665
 30
0.0
 10
717.7695463524052
 20
508.1895604718665
 30
0.0
 10
720.6972190929681
 20
508.1895604718665
 30
0.0
 10
723.7843180034461
 20
508.1895604718665
 30
0.0
 10
725.8193660244322
 20
508.1895604718665
 30
0.0
 10
726.8537064905979
 20
508.1895604718665
 30
0.0
  0
SPLINE
  5
2B5
330
1F
100
AcDbEntity
  8
0
  6
Continuous
 62
     7
370
    25
100
AcDbSpline
210
0.0
220
0.0
230
1.0
 70
     8
 71
     3
 72
     9
 73
     5
 74
     0
 42
0.00000001
 43
0.00000001
 40
0.0
 40
0.0
 40
0.0
 40
0.0
 40
0.5841917497409266
 40
1.0
 40
1.0
 40
1.0
 40
1.0
 10
712.7476173924991
 20
508.7604266135988
 30
0.0
 10
713.1919658063579
 20
508.5693443915322
 30
0.0
 10
713.9525866368572
 20
508.2422562014794
 30
0.0
 10
714.7402012020387
 20
508.2050366630262
 30
0.0
 10
715.0676978362654
 20
508.1895604718665
 30
0.0
  0
ARC
  5
2B6
330
1F
100
AcDbEntity
  8
0
  6
Continuous
 62
     7
370
    25
100
AcDbCircle
 10
720.9607021634
 20
524.4395604719
 30
0.0
 40
17.69999999999997
100
AcDbArc
 50
237.6465635726
 51
242.3534364274
  0
ARC
  5
2B7
330
1F
100
AcDbEntity
  8
0
  6
Continuous
 62
     7
370
    25
100
AcDbCircle
 10
720.9607021634
 20
524.4395604719
 30
0.0
 40
16.20000000000002
100
AcDbArc
 50
210.0
 51
318.1420914366
  0
ARC
  5
2B8
330
1F
100
AcDbEntity
  8
0
  6
Continuous
 62
     7
370
    25
100
AcDbCircle
 10
720.9607021634
 20
524.4395604719
 30
0.0
 40
16.19999999999999
100
AcDbArc
 50
45.9729863763
 51
210.0
  0
SPLINE
  5
2B9
330
1F
100
AcDbEntity
  8
0
  6
Continuous
 62
     7
370
    25
100
AcDbSpline
210
0.0
220
0.0
230
1.0
 70
    24
 71
     3
 72
    10
 73
     6
 74
     0
 42
0.00000001
 43
0.00000001
 40
0.0
 40
0.0
 40
0.0
 40
0.0
 40
0.1495184211462175
 40
0.5726353493763275
 40
1.0
 40
1.0
 40
1.0
 40
1.0
 10
735.3209277005475
 20
534.3811414655681
 30
0.0
 10
735.102252606149
 20
534.7598978394161
 30
0.0
 10
734.264756542983
 20
536.2104835719585
 30
0.0
 10
732.8164884308586
 20
538.7189575251401
 30
0.0
 10
731.6146318065121
 20
540.8006342619215
 30
0.0
 10
731.0107021634317
 20
541.8466710879337
 30
0.0
  0
SPLINE
  5
2BA
330
1F
100
AcDbEntity
  8
0
  6
Continuous
 62
     7
370
    25
100
AcDbSpline
210
0.0
220
0.0
230
1.0
 70
    24
 71
     3
 72
     9
 73
     5
 74
     0
 42
0.00000001
 43
0.00000001
 40
0.0
 40
0.0
 40
0.0
 40
0.0
 40
0.6493326738907287
 40
1.0
 40
1.0
 40
1.0
 40
1.0
 10
731.0107021634317
 20
507.0324498557992
 30
0.0
 10
731.8816558901624
 20
508.5409859615383
 30
0.0
 10
733.2229617596362
 20
510.8641958759572
 30
0.0
 10
734.6101728487913
 20
513.2669159631968
 30
0.0
 10
735.0966224521744
 20
514.109471391578
 30
0.0
  0
SPLINE
  5
2BB
330
1F
100
AcDbEntity
  8
0
  6
Continuous
 62
     7
370
    25
100
AcDbSpline
210
0.0
220
0.0
230
1.0
 70
    24
 71
     3
 72
     9
 73
     5
 74
     0
 42
0.00000001
 43
0.00000001
 40
0.0
 40
0.0
 40
0.0
 40
0.0
 40
0.6430352570283622
 40
1.0
 40
1.0
 40
1.0
 40
1.0
 10
710.9107021634317
 20
507.0324498557992
 30
0.0
 10
712.6527347581493
 20
507.0324498557992
 30
0.0
 10
715.3618126441244
 20
507.0324498557992
 30
0.0
 10
718.1636000937364
 20
507.0324498557992
 30
0.0
 10
719.1637394305484
 20
507.0324498557992
 30
0.0
  0
SPLINE
  5
2BC
330
1F
100
AcDbEntity
  8
0
  6
Continuous
 62
     7
370
    25
100
AcDbSpline
210
0.0
220
0.0
230
1.0
 70
    24
 71
     3
 72
     9
 73
     5
 74
     0
 42
0.00000001
 43
0.00000001
 40
0.0
 40
0.0
 40
0.0
 40
0.0
 40
0.4638349026369095
 40
1.0
 40
1.0
 40
1.0
 40
1.0
 10
722.2314084601101
 20
507.0324498557992
 30
0.0
 10
723.6112028473635
 20
507.0324498557992
 30
0.0
 10
726.5859561042002
 20
507.0324498557992
 30
0.0
 10
729.4663405543005
 20
507.0324498557992
 30
0.0
 10
731.0107021634317
 20
507.0324498557992
 30
0.0
  0
SPLINE
  5
2BD
330
1F
100
AcDbEntity
  8
0
  6
Continuous
 62
     7
370
    25
100
AcDbSpline
210
0.0
220
0.0
230
1.0
 70
    24
 71
     3
 72
     9
 73
     5
 74
     0
 42
0.00000001
 43
0.00000001
 40
0.0
 40
0.0
 40
0.0
 40
0.0
 40
0.5284421106118057
 40
1.0
 40
1.0
 40
1.0
 40
1.0
 10
708.1810636109753
 20
511.7603225149525
 30
0.0
 10
708.6691685980499
 20
510.9148998779115
 30
0.0
 10
709.5928364459992
 20
509.3150602359455
 30
0.0
 10
710.4883946343219
 20
507.7639079526361
 30
0.0
 10
710.9107021634317
 20
507.0324498557992
 30
0.0
  0
SPLINE
  5
2BE
330
1F
100
AcDbEntity
  8
0
  6
Continuous
 62
     7
370
    25
100
AcDbSpline
210
0.0
220
0.0
230
1.0
 70
    24
 71
     3
 72
     9
 73
     5
 74
     0
 42
0.00000001
 43
0.00000001
 40
0.0
 40
0.0
 40
0.0
 40
0.0
 40
0.9662197297613763
 40
1.0
 40
1.0
 40
1.0
 40
1.0
 10
710.9107021634317
 20
541.8466710879337
 30
0.0
 10
710.0428970010358
 20
540.3435884555935
 30
0.0
 10
709.1447522668042
 20
538.787956143354
 30
0.0
 10
708.2157576563768
 20
537.1788902781358
 30
0.0
 10
708.1843759673862
 20
537.1245355983771
 30
0.0
  0
SPLINE
  5
2BF
330
1F
100
AcDbEntity
  8
0
  6
Continuous
 62
     7
370
    25
100
AcDbSpline
210
0.0
220
0.0
230
1.0
 70
    24
 71
     3
 72
     9
 73
     5
 74
     0
 42
0.00000001
 43
0.00000001
 40
0.0
 40
0.0
 40
0.0
 40
0.0
 40
0.6627171920262419
 40
1.0
 40
1.0
 40
1.0
 40
1.0
 10
731.0107021634317
 20
541.8466710879337
 30
0.0
 10
729.2690606849645
 20
541.8466710879337
 30
0.0
 10
726.6410294532077
 20
541.8466710879337
 30
0.0
 10
723.9230420247509
 20
541.8466710879337
 30
0.0
 10
723.0063115928435
 20
541.8466710879337
 30
0.0
  0
SPLINE
  5
2C0
330
1F
100
AcDbEntity
  8
0
  6
Continuous
 62
     7
370
    25
100
AcDbSpline
210
0.0
220
0.0
230
1.0
 70
    24
 71
     3
 72
     9
 73
     5
 74
     0
 42
0.00000001
 43
0.00000001
 40
0.0
 40
0.0
 40
0.0
 40
0.0
 40
0.4593017218712652
 40
1.0
 40
1.0
 40
1.0
 40
1.0
 10
719.6155424053019
 20
541.8466710879337
 30
0.0
 10
718.2607531104267
 20
541.8466710879337
 30
0.0
 10
715.3110814014778
 20
541.8466710879337
 30
0.0
 10
712.4549873170536
 20
541.8466710879337
 30
0.0
 10
710.9107021634317
 20
541.8466710879337
 30
0.0
  0
SPLINE
  5
2C1
330
1F
100
AcDbEntity
  8
0
  6
Continuous
 62
     7
370
    25
100
AcDbSpline
210
0.0
220
0.0
230
1.0
 70
    24
 71
     3
 72
    10
 73
     6
 74
     0
 42
0.00000001
 43
0.00000001
 40
0.0
 40
0.0
 40
0.0
 40
0.0
 40
0.1036559958095888
 40
0.5495896069780524
 40
1.0
 40
1.0
 40
1.0
 40
1.0
 10
503.6247818746888
 20
514.1094713915782
 30
0.0
 10
503.7685920311222
 20
513.8603848939911
 30
0.0
 10
504.5310811349735
 20
512.5397150259032
 30
0.0
 10
505.9047928244437
 20
510.1603765847893
 30
0.0
 10
507.1067313601291
 20
508.0785579734073
 30
0.0
 10
507.7107021634316
 20
507.0324498557992
 30
0.0
  0
SPLINE
  5
2C2
330
1F
100
AcDbEntity
  8
0
  6
Continuous
 62
     7
370
    25
100
AcDbSpline
210
0.0
220
0.0
230
1.0
 70
    24
 71
     3
 72
     9
 73
     5
 74
     0
 42
0.00000001
 43
0.00000001
 40
0.0
 40
0.0
 40
0.0
 40
0.0
 40
0.6054311480813678
 40
1.0
 40
1.0
 40
1.0
 40
1.0
 10
507.7107021634316
 20
541.8466710879337
 30
0.0
 10
506.8393122346666
 20
540.3373794581088
 30
0.0
 10
505.4000239992884
 20
537.8444591076976
 30
0.0
 10
503.9115018268463
 20
535.266263076835
 30
0.0
 10
503.3241773422104
 20
534.2489872289165
 30
0.0
  0
SPLINE
  5
2C3
330
1F
100
AcDbEntity
  8
0
  6
Continuous
 62
     7
370
    25
100
AcDbSpline
210
0.0
220
0.0
230
1.0
 70
    24
 71
     3
 72
     9
 73
     5
 74
     0
 42
0.00000001
 43
0.00000001
 40
0.0
 40
0.0
 40
0.0
 40
0.0
 40
0.610111084858524
 40
1.0
 40
1.0
 40
1.0
 40
1.0
 10
527.8107021634316
 20
541.8466710879337
 30
0.0
 10
526.0680153048535
 20
541.8466710879337
 30
0.0
 10
523.2116717604933
 20
541.8466710879337
 30
0.0
 10
520.257615652697
 20
541.8466710879337
 30
0.0
 10
519.1058619215612
 20
541.8466710879337
 30
0.0
  0
SPLINE
  5
2C4
330
1F
100
AcDbEntity
  8
0
  6
Continuous
 62
     7
370
    25
100
AcDbSpline
210
0.0
220
0.0
230
1.0
 70
    24
 71
     3
 72
     9
 73
     5
 74
     0
 42
0.00000001
 43
0.00000001
 40
0.0
 40
0.0
 40
0.0
 40
0.0
 40
0.4125769109041301
 40
1.0
 40
1.0
 40
1.0
 40
1.0
 10
515.7150927340198
 20
541.8466710879337
 30
0.0
 10
514.5954797310904
 20
541.8466710879337
 30
0.0
 10
511.8817723632308
 20
541.8466710879337
 30
0.0
 10
509.2541992679101
 20
541.8466710879337
 30
0.0
 10
507.7107021634316
 20
541.8466710879337
 30
0.0
  0
SPLINE
  5
2C5
330
1F
100
AcDbEntity
  8
0
  6
Continuous
 62
     7
370
    25
100
AcDbSpline
210
0.0
220
0.0
230
1.0
 70
    24
 71
     3
 72
     9
 73
     5
 74
     0
 42
0.00000001
 43
0.00000001
 40
0.0
 40
0.0
 40
0.0
 40
0.0
 40
0.5287616518379874
 40
0.9999999999999999
 40
0.9999999999999999
 40
0.9999999999999999
 40
0.9999999999999999
 10
530.5422096285167
 20
537.1155613771525
 30
0.0
 10
530.0534767288301
 20
537.9620715907403
 30
0.0
 10
529.1291795563939
 20
539.5630012546922
 30
0.0
 10
528.2330111044164
 20
541.1152105456575
 30
0.0
 10
527.8107021634316
 20
541.8466710879337
 30
0.0
  0
SPLINE
  5
2C6
330
1F
100
AcDbEntity
  8
0
  6
Continuous
 62
     7
370
    25
100
AcDbSpline
210
0.0
220
0.0
230
1.0
 70
    24
 71
     3
 72
     9
 73
     5
 74
     0
 42
0.00000001
 43
0.00000001
 40
0.0
 40
0.0
 40
0.0
 40
0.0
 40
0.9690787611407594
 40
1.0
 40
1.0
 40
1.0
 40
1.0
 10
527.8107021634316
 20
507.0324498557992
 30
0.0
 10
528.6784789187213
 20
508.5354832855882
 30
0.0
 10
529.5739445816652
 20
510.0864753102403
 30
0.0
 10
530.5001691057423
 20
511.6907432451583
 30
0.0
 10
530.5288091154886
 20
511.740349197168
 30
0.0
  0
SPLINE
  5
2C7
330
1F
100
AcDbEntity
  8
0
  6
Continuous
 62
     7
370
    25
100
AcDbSpline
210
0.0
220
0.0
230
1.0
 70
    24
 71
     3
 72
     9
 73
     5
 74
     0
 42
0.00000001
 43
0.00000001
 40
0.0
 40
0.0
 40
0.0
 40
0.0
 40
0.6050063193533035
 40
1.0
 40
1.0
 40
1.0
 40
1.0
 10
507.7107021634316
 20
507.0324498557992
 30
0.0
 10
509.4534904630898
 20
507.0324498557992
 30
0.0
 10
512.3341021921065
 20
507.0324498557992
 30
0.0
 10
515.3132509383003
 20
507.0324498557992
 30
0.0
 10
516.4899958667532
 20
507.0324498557992
 30
0.0
  0
SPLINE
  5
2C8
330
1F
100
AcDbEntity
  8
0
  6
Continuous
 62
     7
370
    25
100
AcDbSpline
210
0.0
220
0.0
230
1.0
 70
    24
 71
     3
 72
     9
 73
     5
 74
     0
 42
0.00000001
 43
0.00000001
 40
0.0
 40
0.0
 40
0.0
 40
0.0
 40
0.4300603629167566
 40
1.0
 40
1.0
 40
1.0
 40
1.0
 10
519.5576648963149
 20
507.0324498557992
 30
0.0
 10
520.760746010656
 20
507.0324498557992
 30
0.0
 10
523.558216361519
 20
507.0324498557992
 30
0.0
 10
526.2669101873614
 20
507.0324498557992
 30
0.0
 10
527.8107021634316
 20
507.0324498557992
 30
0.0
  0
ARC
  5
2C9
330
1F
100
AcDbEntity
  8
0
  6
Continuous
 62
     7
370
    25
100
AcDbCircle
 10
720.9607021634
 20
524.4395604719
 30
0.0
 40
25.80000000000007
100
AcDbArc
 50
207.7177476896
 51
270.0
  0
ARC
  5
2CA
330
1F
100
AcDbEntity
  8
0
  6
Continuous
 62
     7
370
    25
100
AcDbCircle
 10
720.9607021634
 20
524.4395604719
 30
0.0
 40
25.80000000000011
100
AcDbArc
 50
12.2405515581
 51
152.2822523104
  0
ARC
  5
2CB
330
1F
100
AcDbEntity
  8
0
  6
Continuous
 62
     7
370
    25
100
AcDbCircle
 10
720.9607021634
 20
524.4395604719
 30
0.0
 40
25.80000000000007
100
AcDbArc
 50
270.0
 51
348.688145037
  0
ARC
  5
2CC
330
1F
100
AcDbEntity
  8
0
  6
Continuous
 62
     7
370
    25
100
AcDbCircle
 10
517.7607021634
 20
524.4395604719
 30
0.0
 40
25.80000000000003
100
AcDbArc
 50
27.7177476896
 51
90.0
  0
ARC
  5
2CD
330
1F
100
AcDbEntity
  8
0
  6
Continuous
 62
     7
370
    25
100
AcDbCircle
 10
517.7607021634
 20
524.4395604719
 30
0.0
 40
25.80000000000003
100
AcDbArc
 50
191.8377225392
 51
332.2822523104
  0
ARC
  5
2CE
330
1F
100
AcDbEntity
  8
0
  6
Continuous
 62
     7
370
    25
100
AcDbCircle
 10
517.7607021634
 20
524.4395604719
 30
0.0
 40
25.79999999999995
100
AcDbArc
 50
90.0
 51
168.3414319472
  0
ARC
  5
2CF
330
1F
100
AcDbEntity
  8
0
  6
Continuous
 62
     8
370
    25
100
AcDbCircle
 10
619.4202557004
 20
439.2365144948
 30
0.0
 40
7.840679666466905
100
AcDbArc
 50
269.5648082465
 51
359.5580945801
  0
ARC
  5
2D0
330
1F
100
AcDbEntity
  8
0
  6
Continuous
 62
     8
370
    25
100
AcDbCircle
 10
619.3011486265
 20
439.2365144948
 30
0.0
 40
7.840679666466791
100
AcDbArc
 50
180.4419054199
 51
270.4351917535
  0
ARC
  5
2D1
330
1F
100
AcDbEntity
  8
0
  6
Continuous
 62
     8
370
    25
100
AcDbCircle
 10
619.3691765996
 20
439.1926851023
 30
0.0
 40
7.970276785518835
100
AcDbArc
 50
269.9390799677
 51
309.0204532622
  0
ARC
  5
2D2
330
1F
100
AcDbEntity
  8
0
  6
Continuous
 62
     8
370
    25
100
AcDbCircle
 10
619.3519380251
 20
439.1912452266
 30
0.0
 40
7.968837223943331
100
AcDbArc
 50
230.0890622345
 51
270.063013991
  0
ARC
  5
2D3
330
1F
100
AcDbEntity
  8
0
  6
Continuous
 62
     8
370
    25
100
AcDbCircle
 10
619.4953015467
 20
438.6473692212
 30
0.0
 40
9.676957548863614
100
AcDbArc
 50
269.2030320234
 51
36.634048299
  0
ARC
  5
2D4
330
1F
100
AcDbEntity
  8
0
  6
Continuous
 62
     8
370
    25
100
AcDbCircle
 10
619.2321430121
 20
438.6504576981
 30
0.0
 40
9.679963622828467
100
AcDbArc
 50
143.4019546955
 51
270.7609649821
  0
LINE
  5
2D5
330
1F
100
AcDbEntity
  8
0
  6
Continuous
 62
     8
370
    25
100
AcDbLine
 10
629.6636699444
 20
436.3427315201
 30
0.0
 11
629.9227805333
 21
436.2617935305
 31
0.0
  0
SPLINE
  5
2D6
330
1F
100
AcDbEntity
  8
0
  6
Continuous
 62
     8
370
    25
100
AcDbSpline
210
0.0
220
0.0
230
1.0
 70
     8
 71
     3
 72
    16
 73
    12
 74
     0
 42
0.00000001
 43
0.00000001
 40
0.0
 40
0.0
 40
0.0
 40
0.0
 40
0.0813136106776109
 40
0.1605245215906107
 40
0.2399383939260991
 40
0.2485515096895116
 40
0.3627608172497372
 40
0.477279420258778
 40
0.6362603090225973
 40
0.7954727285310932
 40
1.0
 40
1.0
 40
1.0
 40
1.0
 10
597.5803701925664
 20
524.4395604718665
 30
0.0
 10
597.6147942807435
 20
524.9701271926517
 30
0.0
 10
597.6827522798998
 20
526.0175406369226
 30
0.0
 10
598.1956399029225
 20
527.4824073555261
 30
0.0
 10
598.6950374851893
 20
528.4063677859313
 30
0.0
 10
599.3843983500172
 20
529.449304712134
 30
0.0
 10
600.3171569310522
 20
530.5628873902219
 30
0.0
 10
602.0645610115798
 20
532.0673239389538
 30
0.0
 10
604.2023772291583
 20
533.4028473256586
 30
0.0
 10
606.9266913153327
 20
534.6676739366935
 30
0.0
 10
608.9171984732053
 20
535.1748776232176
 30
0.0
 10
610.0364411842361
 20
535.4600732965438
 30
0.0
  0
SPLINE
  5
2D7
330
1F
100
AcDbEntity
  8
0
  6
Continuous
 62
     8
370
    25
100
AcDbSpline
210
0.0
220
0.0
230
1.0
 70
     8
 71
     3
 72
    24
 73
    20
 74
     0
 42
0.00000001
 43
0.00000001
 40
0.0
 40
0.0
 40
0.0
 40
0.0
 40
0.0536494293067243
 40
0.1462943649677565
 40
0.2387846405879898
 40
0.3001069040019218
 40
0.3612627889162706
 40
0.4009868925146821
 40
0.440619451040924
 40
0.4970424604829197
 40
0.5185427595024951
 40
0.583794404859687
 40
0.5982670608604362
 40
0.6504608748297978
 40
0.7028063657260566
 40
0.7793694504912287
 40
0.8564387278208051
 40
0.9333662493011828
 40
1.0
 40
1.0
 40
1.0
 40
1.0
 10
628.8958022814611
 20
535.3929212101984
 30
0.0
 10
629.4812703979155
 20
535.2659143494636
 30
0.0
 10
631.0777587000724
 20
534.9195847001483
 30
0.0
 10
633.5888468176647
 20
533.8788280598536
 30
0.0
 10
636.0615607245111
 20
532.4967559529941
 30
0.0
 10
638.0372884675253
 20
530.9243392753143
 30
0.0
 10
639.3537330799533
 20
529.4757731653858
 30
0.0
 10
640.2777886359045
 20
528.0037599872297
 30
0.0
 10
640.9434127877163
 20
526.419190181305
 30
0.0
 10
641.1840509034296
 20
524.8899384291092
 30
0.0
 10
641.0758563478698
 20
523.0411593068196
 30
0.0
 10
640.6910790110031
 20
521.7717359083467
 30
0.0
 10
639.9458642942826
 20
520.3057212896083
 30
0.0
 10
639.1090878485842
 20
519.0993458975777
 30
0.0
 10
637.5925010903869
 20
517.5540904195306
 30
0.0
 10
635.6550409378523
 20
516.1165372255919
 30
0.0
 10
633.31769813468
 20
514.8916618021401
 30
0.0
 10
630.9961688258235
 20
513.9517014706888
 30
0.0
 10
629.4297038442936
 20
513.5955523606603
 30
0.0
 10
628.7026314558059
 20
513.4302462815972
 30
0.0
  0
SPLINE
  5
2D8
330
1F
100
AcDbEntity
  8
0
  6
Continuous
 62
     8
370
    25
100
AcDbSpline
210
0.0
220
0.0
230
1.0
 70
     8
 71
     3
 72
    15
 73
    11
 74
     0
 42
0.00000001
 43
0.00000001
 40
0.0
 40
0.0
 40
0.0
 40
0.0
 40
0.1332651665038801
 40
0.3347335068462723
 40
0.5356742146630714
 40
0.6501337961233374
 40
0.7642617676092659
 40
0.842471336714207
 40
0.9204949666717943
 40
1.0
 40
1.0
 40
1.0
 40
1.0
 10
609.8337199387321
 20
513.4851891356391
 30
0.0
 10
609.1112556594885
 20
513.651927321192
 30
0.0
 10
607.2965803913245
 20
514.0707378704117
 30
0.0
 10
604.5120950816643
 20
515.2832898764843
 30
0.0
 10
601.9789691311702
 20
516.8456951723969
 30
0.0
 10
600.0999247410805
 20
518.5421717676257
 30
0.0
 10
598.9402245244781
 20
519.9994963701082
 30
0.0
 10
598.1587874806149
 20
521.4853418039429
 30
0.0
 10
597.676000463768
 20
522.9126602617044
 30
0.0
 10
597.6124461716685
 20
523.9274128159343
 30
0.0
 10
597.5803701925664
 20
524.4395604718665
 30
0.0
  0
SPLINE
  5
2D9
330
1F
100
AcDbEntity
  8
0
  6
Continuous
 62
     8
370
    25
100
AcDbSpline
210
0.0
220
0.0
230
1.0
 70
     8
 71
     3
 72
    13
 73
     9
 74
     0
 42
0.00000001
 43
0.00000001
 40
0.0
 40
0.0
 40
0.0
 40
0.0
 40
0.2467697394664379
 40
0.441195541972364
 40
0.6395478479553963
 40
0.75665405336476
 40
0.8773653852182144
 40
1.0
 40
1.0
 40
1.0
 40
1.0
 10
698.3474317232674
 20
531.6395604718664
 30
0.0
 10
698.9982628782632
 20
532.30017622482
 30
0.0
 10
700.1618731522849
 20
533.4812802199451
 30
0.0
 10
701.9376317355991
 20
534.746068007679
 30
0.0
 10
703.2768315936182
 20
535.559185059934
 30
0.0
 10
704.2291485618695
 20
536.069450310667
 30
0.0
 10
704.8541167351016
 20
536.3796664299543
 30
0.0
 10
704.9200017850918
 20
536.4106352680612
 30
0.0
 10
704.953204671095
 20
536.4262420681085
 30
0.0
  0
SPLINE
  5
2DA
330
1F
100
AcDbEntity
  8
0
  6
Continuous
 62
     8
370
    25
100
AcDbSpline
210
0.0
220
0.0
230
1.0
 70
     8
 71
     3
 72
    14
 73
    10
 74
     0
 42
0.00000001
 43
0.00000001
 40
0.0
 40
0.0
 40
0.0
 40
0.0
 40
0.3072384147767701
 40
0.5118826737351003
 40
0.715732567411734
 40
0.8814729497472087
 40
0.9339829013337565
 40
0.996857598335493
 40
1.0
 40
1.0
 40
1.0
 40
1.0
 10
540.3739726035959
 20
517.2395604718664
 30
0.0
 10
539.555664255542
 20
516.4284909079863
 30
0.0
 10
538.1923000243928
 20
515.0771870443543
 30
0.0
 10
536.1996852596898
 20
513.76343783322
 30
0.0
 10
534.7852289197767
 20
512.9530300617282
 30
0.0
 10
534.0089900330988
 20
512.5692156988415
 30
0.0
 10
533.7933216738155
 20
512.4648410586561
 30
0.0
 10
533.6958468915772
 20
512.4177043180472
 30
0.0
 10
533.7451484200864
 20
512.44173417463
 30
0.0
 10
533.7474951637085
 20
512.442877991351
 30
0.0
  0
SPLINE
  5
2DB
330
1F
100
AcDbEntity
  8
0
  6
Continuous
 62
     8
370
    25
100
AcDbSpline
210
0.0
220
0.0
230
1.0
 70
     8
 71
     3
 72
    14
 73
    10
 74
     0
 42
0.00000001
 43
0.00000001
 40
0.0
 40
0.0
 40
0.0
 40
0.0
 40
0.0032250075693136
 40
0.0661122633889641
 40
0.2407727398103609
 40
0.2841139427632433
 40
0.4898228521094892
 40
0.6963449667526296
 40
1.0
 40
1.0
 40
1.0
 40
1.0
 10
704.9737316579229
 20
512.4429645207297
 30
0.0
 10
704.9761372201525
 20
512.4417920243435
 30
0.0
 10
705.0254509536238
 20
512.4177559908634
 30
0.0
 10
704.8474249214389
 20
512.5038378957182
 30
0.0
 10
704.4943266935633
 20
512.6748149950669
 30
0.0
 10
703.6331932662473
 20
513.1258510099522
 30
0.0
 10
702.506810120655
 20
513.7723995042159
 30
0.0
 10
700.513724005283
 20
515.0894637566136
 30
0.0
 10
699.1557132955188
 20
516.437321749084
 30
0.0
 10
698.3474317232674
 20
517.2395604718665
 30
0.0
  0
SPLINE
  5
2DC
330
1F
100
AcDbEntity
  8
0
  6
Continuous
 62
     8
370
    25
100
AcDbSpline
210
0.0
220
0.0
230
1.0
 70
     8
 71
     3
 72
    14
 73
    10
 74
     0
 42
0.00000001
 43
0.00000001
 40
0.0
 40
0.0
 40
0.0
 40
0.0
 40
0.0341854902283342
 40
0.1230196924585334
 40
0.2395688159253041
 40
0.360737991990951
 40
0.5547190583069306
 40
0.7533419493758308
 40
1.0
 40
1.0
 40
1.0
 40
1.0
 10
533.7930518423913
 20
536.4142960542954
 30
0.0
 10
533.7762936963097
 20
536.4223902974009
 30
0.0
 10
533.7159879360779
 20
536.4515181902838
 30
0.0
 10
533.9692524648914
 20
536.3298680004897
 30
0.0
 10
534.4698102211075
 20
536.080393193525
 30
0.0
 10
535.4308697160732
 20
535.5676469129045
 30
0.0
 10
536.7695379907979
 20
534.7548961993069
 30
0.0
 10
538.548891201678
 20
533.4922077378872
 30
0.0
 10
539.7233790890957
 20
532.2999804918524
 30
0.0
 10
540.3739726035872
 20
531.6395604718762
 30
0.0
  0
ARC
  5
2DD
330
1F
100
AcDbEntity
  8
0
  6
Continuous
 62
     8
370
    25
100
AcDbCircle
 10
619.3607021634
 20
524.4395604719
 30
0.0
 40
11.05993649053887
100
AcDbArc
 50
182.3675813795
 51
224.4149728023
  0
ARC
  5
2DE
330
1F
100
AcDbEntity
  8
0
  6
Continuous
 62
     8
370
    25
100
AcDbCircle
 10
619.3607021634
 20
524.4395604719
 30
0.0
 40
11.05993649053903
100
AcDbArc
 50
315.5850271977
 51
182.3675813795
  0
ARC
  5
2DF
330
1F
100
AcDbEntity
  8
0
  6
Continuous
 62
     8
370
    25
100
AcDbCircle
 10
619.3607021634
 20
524.4395604719
 30
0.0
 40
11.30993649053895
100
AcDbArc
 50
314.3068486059
 51
182.3675813795
  0
ARC
  5
2E0
330
1F
100
AcDbEntity
  8
0
  6
Continuous
 62
     8
370
    25
100
AcDbCircle
 10
619.3607021634
 20
524.4395604719
 30
0.0
 40
11.30993649053879
100
AcDbArc
 50
182.3675813795
 51
225.6931513941
  0
SPLINE
  5
2E1
330
1F
100
AcDbEntity
  8
0
  6
Continuous
 62
     8
370
    25
100
AcDbSpline
210
0.0
220
0.0
230
1.0
 70
     8
 71
     3
 72
     9
 73
     5
 74
     0
 42
0.00000001
 43
0.00000001
 40
0.0
 40
0.0
 40
0.0
 40
0.0
 40
0.5050734883508596
 40
1.0
 40
1.0
 40
1.0
 40
1.0
 10
609.7871350866781
 20
513.5925612044022
 30
0.0
 10
610.0621058966367
 20
513.4037625063568
 30
0.0
 10
610.6065233255864
 20
513.02995809492
 30
0.0
 10
611.1779084948166
 20
512.698021135922
 30
0.0
 10
611.4607021634316
 20
512.5337367347178
 30
0.0
  0
SPLINE
  5
2E2
330
1F
100
AcDbEntity
  8
0
  6
Continuous
 62
     8
370
    25
100
AcDbSpline
210
0.0
220
0.0
230
1.0
 70
     8
 71
     3
 72
     9
 73
     5
 74
     0
 42
0.00000001
 43
0.00000001
 40
0.0
 40
0.0
 40
0.0
 40
0.0
 40
0.1103590486141647
 40
1.0
 40
1.0
 40
1.0
 40
1.0
 10
627.2607021634317
 20
512.5704529560871
 30
0.0
 10
627.3586290549933
 20
512.6317386044722
 30
0.0
 10
628.2459771500648
 20
513.1870682231543
 30
0.0
 10
629.0667880718487
 20
513.8394746982124
 30
0.0
 10
629.7970150812123
 20
514.4198822153734
 30
0.0
  0
ARC
  5
2E3
330
1F
100
AcDbEntity
  8
0
  6
Continuous
 62
     8
370
    25
100
AcDbCircle
 10
619.3607021634
 20
524.4395604719
 30
0.0
 40
9.37499999999989
100
AcDbArc
 50
119.4063269879
 51
212.5772063232
  0
ARC
  5
2E4
330
1F
100
AcDbEntity
  8
0
  6
Continuous
 62
     8
370
    25
100
AcDbCircle
 10
619.3607021634
 20
524.4395604719
 30
0.0
 40
9.375000000000025
100
AcDbArc
 50
327.4227936768
 51
119.4063269879
  0
ELLIPSE
  5
2E5
330
1F
100
AcDbEntity
  8
0
  6
Continuous
 62
     8
370
    25
100
AcDbEllipse
 10
776.4217876109
 20
528.0242175387
 30
0.0
 11
1.499999304622861
 21
-0.08287263343856921
 31
0.0
210
0.0
220
0.0
230
1.0
 40
0.0174284859
 41
6.266694911155877
 42
6.765048421205323
  0
ELLIPSE
  5
2E6
330
1F
100
AcDbEntity
  8
0
  6
Continuous
 62
     8
370
    25
100
AcDbEllipse
 10
462.299616716
 20
521.1003246939
 30
0.0
 11
1.499999304622804
 21
-0.0828726334387966
 31
0.0
210
0.0
220
0.0
230
1.0
 40
0.0174284859
 41
3.125102257573961
 42
3.623455767623196
  0
ARC
  5
2E7
330
1F
100
AcDbEntity
  8
0
  6
Continuous
 62
     8
370
    25
100
AcDbCircle
 10
720.9607021634
 20
524.4395604719
 30
0.0
 40
24.80000000000009
100
AcDbArc
 50
270.0
 51
347.8546853331
  0
ARC
  5
2E8
330
1F
100
AcDbEntity
  8
0
  6
Continuous
 62
     8
370
    25
100
AcDbCircle
 10
720.9607021634
 20
524.4395604719
 30
0.0
 40
24.80000000000006
100
AcDbArc
 50
13.4142274835
 51
151.0614722598
  0
ARC
  5
2E9
330
1F
100
AcDbEntity
  8
0
  6
Continuous
 62
     8
370
    25
100
AcDbCircle
 10
720.9607021634
 20
524.4395604719
 30
0.0
 40
24.80000000000007
100
AcDbArc
 50
208.9385277402
 51
270.0
  0
ARC
  5
2EA
330
1F
100
AcDbEntity
  8
0
  6
Continuous
 62
     8
370
    25
100
AcDbCircle
 10
517.7607021634
 20
524.4395604719
 30
0.0
 40
24.8
100
AcDbArc
 50
90.0
 51
167.2578426027
  0
ARC
  5
2EB
330
1F
100
AcDbEntity
  8
0
  6
Continuous
 62
     8
370
    25
100
AcDbCircle
 10
517.7607021634
 20
524.4395604719
 30
0.0
 40
24.80000000000001
100
AcDbArc
 50
192.7778263786
 51
331.0614722598
  0
ARC
  5
2EC
330
1F
100
AcDbEntity
  8
0
  6
Continuous
 62
     8
370
    25
100
AcDbCircle
 10
517.7607021634
 20
524.4395604719
 30
0.0
 40
24.80000000000001
100
AcDbArc
 50
28.9385277402
 51
90.0
  0
ENDSEC
  0
SECTION
  2
OBJECTS
  0
DICTIONARY
  5
C
330
0
100
AcDbDictionary
281
     1
  3
ACAD_GROUP
350
D
  3
ACAD_LAYOUT
350
1A
  3
ACAD_MLINESTYLE
350
17
  3
ACAD_PLOTSETTINGS
350
19
  3
ACAD_PLOTSTYLENAME
350
E
  3
ACAD_SCALELIST
350
47
  3
DWGPROPS
350
2ED
  0
DICTIONARY
  5
D
102
{ACAD_REACTORS
330
C
102
}
330
C
100
AcDbDictionary
281
     1
  0
DICTIONARY
  5
1A
102
{ACAD_REACTORS
330
C
102
}
330
C
100
AcDbDictionary
281
     1
  3
Layout1
350
1E
  3
Layout2
350
26
  3
Model
350
22
  0
DICTIONARY
  5
17
102
{ACAD_REACTORS
330
C
102
}
330
C
100
AcDbDictionary
281
     1
  3
Standard
350
18
  0
DICTIONARY
  5
19
102
{ACAD_REACTORS
330
C
102
}
330
C
100
AcDbDictionary
281
     1
  0
ACDBDICTIONARYWDFLT
  5
E
102
{ACAD_REACTORS
330
C
102
}
330
C
100
AcDbDictionary
281
     1
  3
Normal
350
F
100
AcDbDictionaryWithDefault
340
F
  0
DICTIONARY
  5
47
102
{ACAD_REACTORS
330
C
102
}
330
C
100
AcDbDictionary
281
     1
  3
A0
350
48
  3
A1
350
49
  3
A2
350
4A
  3
A3
350
4B
  3
A4
350
4C
  3
A5
350
4D
  3
A6
350
4E
  3
A7
350
4F
  3
A8
350
50
  3
A9
350
51
  3
B0
350
52
  3
B1
350
53
  3
B2
350
54
  3
B3
350
55
  3
B4
350
56
  3
B5
350
57
  3
B6
350
58
  3
B7
350
59
  3
B8
350
5A
  3
B9
350
5B
  3
C0
350
5C
  3
C1
350
5D
  3
C2
350
5E
  3
C3
350
5F
  3
C4
350
60
  3
C5
350
61
  3
C6
350
62
  3
C7
350
63
  3
C8
350
64
  3
C9
350
65
  3
D0
350
66
  3
D1
350
67
  3
D2
350
68
  0
XRECORD
  5
2ED
102
{ACAD_REACTORS
330
C
102
}
330
C
100
AcDbXrecord
280
     1
  1
DWGPROPS COOKIE
  2

  3

  4

  6

  7

  8
designer5
  9

300
=
301
=
302
=
303
=
304
=
305
=
306
=
307
=
308
=
309
=
 40
0.0
 41
2460383.234014155
 42
2460383.234014734
  1

 90
        0
  0
LAYOUT
  5
1E
102
{ACAD_REACTORS
330
1A
102
}
330
1A
100
AcDbPlotSettings
  1

  2
none_device
  4

  6

 40
0.0
 41
0.0
 42
0.0
 43
0.0
 44
0.0
 45
0.0
 46
0.0
 47
0.0
 48
0.0
 49
0.0
140
0.0
141
0.0
142
1.0
143
1.0
 70
   688
 72
     1
 73
     0
 74
     5
  7

 75
    16
147
1.0
148
0.0
149
0.0
100
AcDbLayout
  1
Layout1
 70
     1
 71
     1
 10
0.0
 20
0.0
 11
420.0
 21
297.0
 12
0.0
 22
0.0
 32
0.0
 14
1.0000000000E+20
 24
1.0000000000E+20
 34
1.0000000000E+20
 15
-1.0000000000E+20
 25
-1.0000000000E+20
 35
-1.0000000000E+20
146
0.0
 13
0.0
 23
0.0
 33
0.0
 16
1.0
 26
0.0
 36
0.0
 17
0.0
 27
1.0
 37
0.0
 76
     0
330
1B
  0
LAYOUT
  5
26
102
{ACAD_REACTORS
330
1A
102
}
330
1A
100
AcDbPlotSettings
  1

  2
none_device
  4

  6

 40
0.0
 41
0.0
 42
0.0
 43
0.0
 44
0.0
 45
0.0
 46
0.0
 47
0.0
 48
0.0
 49
0.0
140
0.0
141
0.0
142
1.0
143
1.0
 70
   688
 72
     1
 73
     0
 74
     5
  7

 75
    16
147
1.0
148
0.0
149
0.0
100
AcDbLayout
  1
Layout2
 70
     1
 71
     2
 10
0.0
 20
0.0
 11
0.0
 21
0.0
 12
0.0
 22
0.0
 32
0.0
 14
0.0
 24
0.0
 34
0.0
 15
0.0
 25
0.0
 35
0.0
146
0.0
 13
0.0
 23
0.0
 33
0.0
 16
1.0
 26
0.0
 36
0.0
 17
0.0
 27
1.0
 37
0.0
 76
     0
330
23
  0
LAYOUT
  5
22
102
{ACAD_REACTORS
330
1A
102
}
330
1A
100
AcDbPlotSettings
  1

  2
none_device
  4
Letter_(8.50_x_11.00_Inches)
  6

 40
6.35
 41
6.35
 42
6.35000508
 43
6.35000508
 44
215.9
 45
279.4
 46
0.0
 47
0.0
 48
0.0
 49
0.0
140
0.0
141
0.0
142
1.0
143
1.0
 70
  1712
 72
     1
 73
     0
 74
     0
  7

 75
     0
147
1.0
148
0.0
149
0.0
100
AcDbLayout
  1
Model
 70
     1
 71
     0
 10
0.0
 20
0.0
 11
1189.0
 21
841.0
 12
0.0
 22
0.0
 32
0.0
 14
0.0
 24
0.0
 34
0.0
 15
1189.0
 25
841.0
 35
0.0
146
0.0
 13
0.0
 23
0.0
 33
0.0
 16
1.0
 26
0.0
 36
0.0
 17
0.0
 27
1.0
 37
0.0
 76
     0
330
1F
331
29
  0
MLINESTYLE
  5
18
102
{ACAD_REACTORS
330
17
102
}
330
17
100
AcDbMlineStyle
  2
Standard
 70
     0
  3

 62
   256
 51
90.0
 52
90.0
 71
     2
 49
0.5
 62
   256
  6
BYLAYER
 49
-0.5
 62
   256
  6
BYLAYER
  0
ACDBPLACEHOLDER
  5
F
102
{ACAD_REACTORS
330
E
102
}
330
E
  0
SCALE
  5
48
102
{ACAD_REACTORS
330
47
102
}
330
47
100
AcDbScale
 70
     0
300
1:1
140
1.0
141
1.0
290
     1
  0
SCALE
  5
49
102
{ACAD_REACTORS
330
47
102
}
330
47
100
AcDbScale
 70
     0
300
1:2
140
1.0
141
2.0
290
     0
  0
SCALE
  5
4A
102
{ACAD_REACTORS
330
47
102
}
330
47
100
AcDbScale
 70
     0
300
1:4
140
1.0
141
4.0
290
     0
  0
SCALE
  5
4B
102
{ACAD_REACTORS
330
47
102
}
330
47
100
AcDbScale
 70
     0
300
1:5
140
1.0
141
5.0
290
     0
  0
SCALE
  5
4C
102
{ACAD_REACTORS
330
47
102
}
330
47
100
AcDbScale
 70
     0
300
1:8
140
1.0
141
8.0
290
     0
  0
SCALE
  5
4D
102
{ACAD_REACTORS
330
47
102
}
330
47
100
AcDbScale
 70
     0
300
1:10
140
1.0
141
10.0
290
     0
  0
SCALE
  5
4E
102
{ACAD_REACTORS
330
47
102
}
330
47
100
AcDbScale
 70
     0
300
1:16
140
1.0
141
16.0
290
     0
  0
SCALE
  5
4F
102
{ACAD_REACTORS
330
47
102
}
330
47
100
AcDbScale
 70
     0
300
1:20
140
1.0
141
20.0
290
     0
  0
SCALE
  5
50
102
{ACAD_REACTORS
330
47
102
}
330
47
100
AcDbScale
 70
     0
300
1:30
140
1.0
141
30.0
290
     0
  0
SCALE
  5
51
102
{ACAD_REACTORS
330
47
102
}
330
47
100
AcDbScale
 70
     0
300
1:40
140
1.0
141
40.0
290
     0
  0
SCALE
  5
52
102
{ACAD_REACTORS
330
47
102
}
330
47
100
AcDbScale
 70
     0
300
1:50
140
1.0
141
50.0
290
     0
  0
SCALE
  5
53
102
{ACAD_REACTORS
330
47
102
}
330
47
100
AcDbScale
 70
     0
300
1:100
140
1.0
141
100.0
290
     0
  0
SCALE
  5
54
102
{ACAD_REACTORS
330
47
102
}
330
47
100
AcDbScale
 70
     0
300
2:1
140
2.0
141
1.0
290
     0
  0
SCALE
  5
55
102
{ACAD_REACTORS
330
47
102
}
330
47
100
AcDbScale
 70
     0
300
4:1
140
4.0
141
1.0
290
     0
  0
SCALE
  5
56
102
{ACAD_REACTORS
330
47
102
}
330
47
100
AcDbScale
 70
     0
300
8:1
140
8.0
141
1.0
290
     0
  0
SCALE
  5
57
102
{ACAD_REACTORS
330
47
102
}
330
47
100
AcDbScale
 70
     0
300
10:1
140
10.0
141
1.0
290
     0
  0
SCALE
  5
58
102
{ACAD_REACTORS
330
47
102
}
330
47
100
AcDbScale
 70
     0
300
100:1
140
100.0
141
1.0
290
     0
  0
SCALE
  5
59
102
{ACAD_REACTORS
330
47
102
}
330
47
100
AcDbScale
 70
     0
300
1/128" = 1'-0"
140
0.0078125
141
12.0
290
     0
  0
SCALE
  5
5A
102
{ACAD_REACTORS
330
47
102
}
330
47
100
AcDbScale
 70
     0
300
1/64" = 1'-0"
140
0.015625
141
12.0
290
     0
  0
SCALE
  5
5B
102
{ACAD_REACTORS
330
47
102
}
330
47
100
AcDbScale
 70
     0
300
1/32" = 1'-0"
140
0.03125
141
12.0
290
     0
  0
SCALE
  5
5C
102
{ACAD_REACTORS
330
47
102
}
330
47
100
AcDbScale
 70
     0
300
1/16" = 1'-0"
140
0.0625
141
12.0
290
     0
  0
SCALE
  5
5D
102
{ACAD_REACTORS
330
47
102
}
330
47
100
AcDbScale
 70
     0
300
3/32" = 1'-0"
140
0.09375
141
12.0
290
     0
  0
SCALE
  5
5E
102
{ACAD_REACTORS
330
47
102
}
330
47
100
AcDbScale
 70
     0
300
1/8" = 1'-0"
140
0.125
141
12.0
290
     0
  0
SCALE
  5
5F
102
{ACAD_REACTORS
330
47
102
}
330
47
100
AcDbScale
 70
     0
300
3/16" = 1'-0"
140
0.1875
141
12.0
290
     0
  0
SCALE
  5
60
102
{ACAD_REACTORS
330
47
102
}
330
47
100
AcDbScale
 70
     0
300
1/4" = 1'-0"
140
0.25
141
12.0
290
     0
  0
SCALE
  5
61
102
{ACAD_REACTORS
330
47
102
}
330
47
100
AcDbScale
 70
     0
300
3/8" = 1'-0"
140
0.375
141
12.0
290
     0
  0
SCALE
  5
62
102
{ACAD_REACTORS
330
47
102
}
330
47
100
AcDbScale
 70
     0
300
1/2" = 1'-0"
140
0.5
141
12.0
290
     0
  0
SCALE
  5
63
102
{ACAD_REACTORS
330
47
102
}
330
47
100
AcDbScale
 70
     0
300
3/4" = 1'-0"
140
0.75
141
12.0
290
     0
  0
SCALE
  5
64
102
{ACAD_REACTORS
330
47
102
}
330
47
100
AcDbScale
 70
     0
300
1" = 1'-0"
140
1.0
141
12.0
290
     0
  0
SCALE
  5
65
102
{ACAD_REACTORS
330
47
102
}
330
47
100
AcDbScale
 70
     0
300
1-1/2" = 1'-0"
140
1.5
141
12.0
290
     0
  0
SCALE
  5
66
102
{ACAD_REACTORS
330
47
102
}
330
47
100
AcDbScale
 70
     0
300
3" = 1'-0"
140
3.0
141
12.0
290
     0
  0
SCALE
  5
67
102
{ACAD_REACTORS
330
47
102
}
330
47
100
AcDbScale
 70
     0
300
6" = 1'-0"
140
6.0
141
12.0
290
     0
  0
SCALE
  5
68
102
{ACAD_REACTORS
330
47
102
}
330
47
100
AcDbScale
 70
     0
300
1'-0" = 1'-0"
140
12.0
141
12.0
290
     0
  0
ENDSEC
  0
EOF
