  0
SECTION
  2
HEADER
  9
$ACADVER
  1
AC1015
  9
$ACADMAINTVER
 70
     6
  9
$DWGCODEPAGE
  3
ANSI_1252
  9
$INSBASE
 10
0.0
 20
0.0
 30
0.0
  9
$EXTMIN
 10
0.0
 20
0.0
 30
0.0
  9
$EXTMAX
 10
1189.0
 20
841.0
 30
0.0
  9
$LIMMIN
 10
0.0
 20
0.0
  9
$LIMMAX
 10
1189.0
 20
841.0
  9
$ORTHOMODE
 70
     0
  9
$REGENMODE
 70
     1
  9
$FILLMODE
 70
     1
  9
$QTEXTMODE
 70
     0
  9
$MIRRTEXT
 70
     1
  9
$LTSCALE
 40
1.0
  9
$ATTMODE
 70
     1
  9
$TEXTSIZE
 40
3.5
  9
$TRACEWID
 40
1.0
  9
$TEXTSTYLE
  7
Standard
  9
$CLAYER
  8
0
  9
$CELTYPE
  6
ByLayer
  9
$CECOLOR
 62
   256
  9
$CELTSCALE
 40
1.0
  9
$DISPSILH
 70
     0
  9
$DIMSCALE
 40
1.0
  9
$DIMASZ
 40
3.302
  9
$DIMEXO
 40
1.0
  9
$DIMDLI
 40
3.75
  9
$DIMRND
 40
0.0
  9
$DIMDLE
 40
0.0
  9
$DIMEXE
 40
1.0
  9
$DIMTP
 40
0.0
  9
$DIMTM
 40
0.0
  9
$DIMTXT
 40
3.5
  9
$DIMCEN
 40
2.5
  9
$DIMTSZ
 40
0.0
  9
$DIMTOL
 70
     0
  9
$DIMLIM
 70
     0
  9
$DIMTIH
 70
     1
  9
$DIMTOH
 70
     1
  9
$DIMSE1
 70
     0
  9
$DIMSE2
 70
     0
  9
$DIMTAD
 70
     1
  9
$DIMZIN
 70
     1
  9
$DIMBLK
  1

  9
$DIMASO
 70
     1
  9
$DIMSHO
 70
     1
  9
$DIMPOST
  1

  9
$DIMAPOST
  1

  9
$DIMALT
 70
     0
  9
$DIMALTD
 70
     3
  9
$DIMALTF
 40
0.0393700787
  9
$DIMLFAC
 40
2.0
  9
$DIMTOFL
 70
     1
  9
$DIMTVP
 40
0.0
  9
$DIMTIX
 70
     0
  9
$DIMSOXD
 70
     0
  9
$DIMSAH
 70
     0
  9
$DIMBLK1
  1

  9
$DIMBLK2
  1

  9
$DIMSTYLE
  2
ISO-25
  9
$DIMCLRD
 70
     0
  9
$DIMCLRE
 70
     0
  9
$DIMCLRT
 70
     0
  9
$DIMTFAC
 40
1.0
  9
$DIMGAP
 40
1.524
  9
$DIMJUST
 70
     0
  9
$DIMSD1
 70
     0
  9
$DIMSD2
 70
     0
  9
$DIMTOLJ
 70
     0
  9
$DIMTZIN
 70
     1
  9
$DIMALTZ
 70
     0
  9
$DIMALTTZ
 70
     0
  9
$DIMUPT
 70
     0
  9
$DIMDEC
 70
     2
  9
$DIMTDEC
 70
     2
  9
$DIMALTU
 70
     2
  9
$DIMALTTD
 70
     3
  9
$DIMTXSTY
  7
Standard
  9
$DIMAUNIT
 70
     0
  9
$DIMADEC
 70
     2
  9
$DIMALTRND
 40
0.0
  9
$DIMAZIN
 70
     0
  9
$DIMDSEP
 70
    44
  9
$DIMATFIT
 70
     3
  9
$DIMFRAC
 70
     0
  9
$DIMLDRBLK
  1

  9
$DIMLUNIT
 70
     2
  9
$DIMLWD
 70
    -2
  9
$DIMLWE
 70
    -2
  9
$DIMTMOVE
 70
     0
  9
$LUNITS
 70
     2
  9
$LUPREC
 70
     2
  9
$SKETCHINC
 40
1.0
  9
$FILLETRAD
 40
10.0
  9
$AUNITS
 70
     0
  9
$AUPREC
 70
     2
  9
$MENU
  1
.
  9
$ELEVATION
 40
0.0
  9
$PELEVATION
 40
0.0
  9
$THICKNESS
 40
0.0
  9
$LIMCHECK
 70
     0
  9
$CHAMFERA
 40
0.0
  9
$CHAMFERB
 40
0.0
  9
$CHAMFERC
 40
0.0
  9
$CHAMFERD
 40
0.0
  9
$SKPOLY
 70
     0
  9
$TDCREATE
 40
2460383.482918426
  9
$TDUCREATE
 40
2460383.253751759
  9
$TDUPDATE
 40
2460383.48291897
  9
$TDUUPDATE
 40
2460383.253752303
  9
$TDINDWG
 40
0.0000000116
  9
$TDUSRTIMER
 40
0.0000000116
  9
$USRTIMER
 70
     1
  9
$ANGBASE
 50
0.0
  9
$ANGDIR
 70
     0
  9
$PDMODE
 70
     0
  9
$PDSIZE
 40
-1.0
  9
$PLINEWID
 40
0.0
  9
$SPLFRAME
 70
     0
  9
$SPLINETYPE
 70
     6
  9
$SPLINESEGS
 70
     8
  9
$HANDSEED
  5
2EC
  9
$SURFTAB1
 70
     6
  9
$SURFTAB2
 70
     6
  9
$SURFTYPE
 70
     6
  9
$SURFU
 70
     6
  9
$SURFV
 70
     6
  9
$UCSBASE
  2

  9
$UCSNAME
  2

  9
$UCSORG
 10
0.0
 20
0.0
 30
0.0
  9
$UCSXDIR
 10
1.0
 20
0.0
 30
0.0
  9
$UCSYDIR
 10
0.0
 20
1.0
 30
0.0
  9
$UCSORTHOREF
  2

  9
$UCSORTHOVIEW
 70
     0
  9
$UCSORGTOP
 10
0.0
 20
0.0
 30
0.0
  9
$UCSORGBOTTOM
 10
0.0
 20
0.0
 30
0.0
  9
$UCSORGLEFT
 10
0.0
 20
0.0
 30
0.0
  9
$UCSORGRIGHT
 10
0.0
 20
0.0
 30
0.0
  9
$UCSORGFRONT
 10
0.0
 20
0.0
 30
0.0
  9
$UCSORGBACK
 10
0.0
 20
0.0
 30
0.0
  9
$PUCSBASE
  2

  9
$PUCSNAME
  2

  9
$PUCSORG
 10
0.0
 20
0.0
 30
0.0
  9
$PUCSXDIR
 10
1.0
 20
0.0
 30
0.0
  9
$PUCSYDIR
 10
0.0
 20
1.0
 30
0.0
  9
$PUCSORTHOREF
  2

  9
$PUCSORTHOVIEW
 70
     0
  9
$PUCSORGTOP
 10
0.0
 20
0.0
 30
0.0
  9
$PUCSORGBOTTOM
 10
0.0
 20
0.0
 30
0.0
  9
$PUCSORGLEFT
 10
0.0
 20
0.0
 30
0.0
  9
$PUCSORGRIGHT
 10
0.0
 20
0.0
 30
0.0
  9
$PUCSORGFRONT
 10
0.0
 20
0.0
 30
0.0
  9
$PUCSORGBACK
 10
0.0
 20
0.0
 30
0.0
  9
$USERI1
 70
     0
  9
$USERI2
 70
     0
  9
$USERI3
 70
     0
  9
$USERI4
 70
     0
  9
$USERI5
 70
     0
  9
$USERR1
 40
0.0
  9
$USERR2
 40
0.0
  9
$USERR3
 40
0.0
  9
$USERR4
 40
0.0
  9
$USERR5
 40
0.0
  9
$WORLDVIEW
 70
     1
  9
$SHADEDGE
 70
     3
  9
$SHADEDIF
 70
    70
  9
$TILEMODE
 70
     1
  9
$MAXACTVP
 70
    64
  9
$PINSBASE
 10
0.0
 20
0.0
 30
0.0
  9
$PLIMCHECK
 70
     0
  9
$PEXTMIN
 10
1.0000000000E+20
 20
1.0000000000E+20
 30
1.0000000000E+20
  9
$PEXTMAX
 10
-1.0000000000E+20
 20
-1.0000000000E+20
 30
-1.0000000000E+20
  9
$PLIMMIN
 10
0.0
 20
0.0
  9
$PLIMMAX
 10
420.0
 20
297.0
  9
$UNITMODE
 70
     0
  9
$VISRETAIN
 70
     1
  9
$PLINEGEN
 70
     0
  9
$PSLTSCALE
 70
     1
  9
$TREEDEPTH
 70
  3020
  9
$CMLSTYLE
  2
Standard
  9
$CMLJUST
 70
     0
  9
$CMLSCALE
 40
20.0
  9
$PROXYGRAPHICS
 70
     1
  9
$MEASUREMENT
 70
     1
  9
$CELWEIGHT
370
    -1
  9
$ENDCAPS
280
     0
  9
$JOINSTYLE
280
     0
  9
$LWDISPLAY
290
     1
  9
$INSUNITS
 70
     4
  9
$HYPERLINKBASE
  1

  9
$STYLESHEET
  1

  9
$XEDIT
290
     1
  9
$CEPSNTYPE
380
     0
  9
$PSTYLEMODE
290
     1
  9
$FINGERPRINTGUID
  2
{8a0024ef-5e92-4120-bbac-6db3440b2ad7}
  9
$VERSIONGUID
  2
{FAEB1C32-E019-11D5-929B-00C0DF256EC4}
  9
$EXTNAMES
290
     1
  9
$PSVPSCALE
 40
0.0
  9
$OLESTARTUP
290
     0
  0
ENDSEC
  0
SECTION
  2
CLASSES
  0
CLASS
  1
ACDBDICTIONARYWDFLT
  2
AcDbDictionaryWithDefault
  3
ObjectDBX Classes
 90
        0
280
     0
281
     0
  0
CLASS
  1
VISUALSTYLE
  2
AcDbVisualStyle
  3
ObjectDBX Classes
 90
     4095
280
     0
281
     0
  0
CLASS
  1
MATERIAL
  2
AcDbMaterial
  3
ObjectDBX Classes
 90
     1153
280
     0
281
     0
  0
CLASS
  1
SCALE
  2
AcDbScale
  3
ObjectDBX Classes
 90
     1153
280
     0
281
     0
  0
CLASS
  1
TABLESTYLE
  2
AcDbTableStyle
  3
ObjectDBX Classes
 90
     4095
280
     0
281
     0
  0
CLASS
  1
MLEADERSTYLE
  2
AcDbMLeaderStyle
  3
ACDB_MLEADERSTYLE_CLASS
 90
     4095
280
     0
281
     0
  0
CLASS
  1
SUN
  2
AcDbSun
  3
SCENEOE
 90
     1153
280
     0
281
     0
  0
CLASS
  1
ACDBPLACEHOLDER
  2
AcDbPlaceHolder
  3
ObjectDBX Classes
 90
        0
280
     0
281
     0
  0
CLASS
  1
LAYOUT
  2
AcDbLayout
  3
ObjectDBX Classes
 90
        0
280
     0
281
     0
  0
ENDSEC
  0
SECTION
  2
TABLES
  0
TABLE
  2
VPORT
  5
8
330
0
100
AcDbSymbolTable
 70
     1
  0
VPORT
  5
29
330
8
100
AcDbSymbolTableRecord
100
AcDbViewportTableRecord
  2
*Active
 70
     0
 10
0.0
 20
0.0
 11
1.0
 21
1.0
 12
594.5
 22
420.5
 13
0.0
 23
0.0
 14
10.0
 24
10.0
 15
10.0
 25
10.0
 16
0.0
 26
0.0
 36
1.0
 17
0.0
 27
0.0
 37
0.0
 40
841.0
 41
1.4137931034
 42
50.0
 43
0.0
 44
0.0
 50
0.0
 51
0.0
 71
     0
 72
  2000
 73
     1
 74
     3
 75
     0
 76
     0
 77
     0
 78
     0
281
     0
 65
     1
110
0.0
120
0.0
130
0.0
111
1.0
121
0.0
131
0.0
112
0.0
122
1.0
132
0.0
 79
     0
146
0.0
  0
ENDTAB
  0
TABLE
  2
LTYPE
  5
5
330
0
100
AcDbSymbolTable
 70
     6
  0
LTYPE
  5
14
330
5
100
AcDbSymbolTableRecord
100
AcDbLinetypeTableRecord
  2
ByBlock
 70
     0
  3

 72
    65
 73
     0
 40
0.0
  0
LTYPE
  5
15
330
5
100
AcDbSymbolTableRecord
100
AcDbLinetypeTableRecord
  2
ByLayer
 70
     0
  3

 72
    65
 73
     0
 40
0.0
  0
LTYPE
  5
16
330
5
100
AcDbSymbolTableRecord
100
AcDbLinetypeTableRecord
  2
Continuous
 70
     0
  3
Solid line
 72
    65
 73
     0
 40
0.0
  0
LTYPE
  5
6E
330
5
100
AcDbSymbolTableRecord
100
AcDbLinetypeTableRecord
  2
HIDDEN
 70
     0
  3
Hidden __ __ __ __ __ __ __ __ __ __ __ __ __ __
 72
    65
 73
     2
 40
1.905
 49
1.27
 74
     0
 49
-0.635
 74
     0
  0
LTYPE
  5
6F
330
5
100
AcDbSymbolTableRecord
100
AcDbLinetypeTableRecord
  2
PHANTOM
 70
     0
  3
Phantom ______  __  __  ______  __  __  ______
 72
    65
 73
     6
 40
12.7
 49
6.35
 74
     0
 49
-1.27
 74
     0
 49
1.27
 74
     0
 49
-1.27
 74
     0
 49
1.27
 74
     0
 49
-1.27
 74
     0
  0
LTYPE
  5
70
330
5
100
AcDbSymbolTableRecord
100
AcDbLinetypeTableRecord
  2
CENTER
 70
     0
  3
Center ____ _ ____ _ ____ _ ____ _ ____ _ ____
 72
    65
 73
     4
 40
10.16
 49
6.35
 74
     0
 49
-1.27
 74
     0
 49
1.27
 74
     0
 49
-1.27
 74
     0
  0
LTYPE
  5
71
330
5
100
AcDbSymbolTableRecord
100
AcDbLinetypeTableRecord
  2
CENTERX2
 70
     0
  3
Center (2x) ________  __  ________  __  _____
 72
    65
 73
     4
 40
20.32
 49
12.7
 74
     0
 49
-2.54
 74
     0
 49
2.54
 74
     0
 49
-2.54
 74
     0
  0
LTYPE
  5
72
330
5
100
AcDbSymbolTableRecord
100
AcDbLinetypeTableRecord
  2
DOT2
 70
     0
  3
Dot (.5x) ........................................
 72
    65
 73
     2
 40
0.635
 49
0.0
 74
     0
 49
-0.635
 74
     0
  0
ENDTAB
  0
TABLE
  2
LAYER
  5
2
330
0
100
AcDbSymbolTable
 70
     1
  0
LAYER
  5
10
330
2
100
AcDbSymbolTableRecord
100
AcDbLayerTableRecord
  2
0
 70
     0
 62
     7
  6
Continuous
370
    -3
390
F
  0
ENDTAB
  0
TABLE
  2
STYLE
  5
3
330
0
100
AcDbSymbolTable
 70
     1
  0
STYLE
  5
11
330
3
100
AcDbSymbolTableRecord
100
AcDbTextStyleTableRecord
  2
Standard
 70
     0
 40
0.0
 41
1.0
 50
0.0
 71
     0
 42
3.5
  3
txt
  4

  0
ENDTAB
  0
TABLE
  2
VIEW
  5
6
330
0
100
AcDbSymbolTable
 70
     0
  0
ENDTAB
  0
TABLE
  2
UCS
  5
7
330
0
100
AcDbSymbolTable
 70
     0
  0
ENDTAB
  0
TABLE
  2
APPID
  5
9
330
0
100
AcDbSymbolTable
 70
     1
  0
APPID
  5
12
330
9
100
AcDbSymbolTableRecord
100
AcDbRegAppTableRecord
  2
ACAD
 70
     0
  0
ENDTAB
  0
TABLE
  2
DIMSTYLE
  5
A
330
0
100
AcDbSymbolTable
 70
     1
100
AcDbDimStyleTable
  0
DIMSTYLE
105
27
330
A
100
AcDbSymbolTableRecord
100
AcDbDimStyleTableRecord
  2
ISO-25
 70
     0
 41
2.5
 42
0.625
 43
3.75
 44
1.25
 73
     0
 74
     0
 77
     1
 78
     8
140
2.5
141
2.5
143
0.0393700787
147
0.625
171
     3
172
     1
178
     0
271
     2
272
     2
274
     3
278
    44
283
     0
284
     8
340
11
  0
ENDTAB
  0
TABLE
  2
BLOCK_RECORD
  5
1
330
0
100
AcDbSymbolTable
 70
     1
  0
BLOCK_RECORD
  5
1F
330
1
100
AcDbSymbolTableRecord
100
AcDbBlockTableRecord
  2
*Model_Space
340
22
  0
BLOCK_RECORD
  5
1B
330
1
100
AcDbSymbolTableRecord
100
AcDbBlockTableRecord
  2
*Paper_Space
340
1E
  0
BLOCK_RECORD
  5
23
330
1
100
AcDbSymbolTableRecord
100
AcDbBlockTableRecord
  2
*Paper_Space0
340
26
  0
ENDTAB
  0
ENDSEC
  0
SECTION
  2
BLOCKS
  0
BLOCK
  5
20
330
1F
100
AcDbEntity
  8
0
100
AcDbBlockBegin
  2
*Model_Space
 70
     0
 10
0.0
 20
0.0
 30
0.0
  3
*Model_Space
  1

  0
ENDBLK
  5
21
330
1F
100
AcDbEntity
  8
0
100
AcDbBlockEnd
  0
BLOCK
  5
1C
330
1B
100
AcDbEntity
 67
     1
  8
0
100
AcDbBlockBegin
  2
*Paper_Space
 70
     0
 10
0.0
 20
0.0
 30
0.0
  3
*Paper_Space
  1

  0
ENDBLK
  5
1D
330
1B
100
AcDbEntity
 67
     1
  8
0
100
AcDbBlockEnd
  0
BLOCK
  5
24
330
23
100
AcDbEntity
  8
0
100
AcDbBlockBegin
  2
*Paper_Space0
 70
     0
 10
0.0
 20
0.0
 30
0.0
  3
*Paper_Space0
  1

  0
ENDBLK
  5
25
330
23
100
AcDbEntity
  8
0
100
AcDbBlockEnd
  0
ENDSEC
  0
SECTION
  2
ENTITIES
  0
LINE
  5
73
330
1F
100
AcDbEntity
  8
0
  6
Continuous
 62
     7
370
    25
100
AcDbLine
 10
595.0388443936
 20
378.0743895098
 30
0.0
 11
595.0388443936
 21
590.8958226929
 31
0.0
  0
LINE
  5
74
330
1F
100
AcDbEntity
  8
0
  6
Continuous
 62
     7
370
    25
100
AcDbLine
 10
579.2388443936
 20
590.8958226929
 30
0.0
 11
579.2388443936
 21
378.0743895098
 31
0.0
  0
LINE
  5
75
330
1F
100
AcDbEntity
  8
0
  6
Continuous
 62
     7
370
    25
100
AcDbLine
 10
579.2388443936
 20
378.0743895098
 30
0.0
 11
579.2388443936
 21
377.9275328282
 31
0.0
  0
LINE
  5
76
330
1F
100
AcDbEntity
  8
0
  6
Continuous
 62
     7
370
    25
100
AcDbLine
 10
595.0388443936
 20
377.9275328282
 30
0.0
 11
595.0388443936
 21
378.0743895098
 31
0.0
  0
SPLINE
  5
77
330
1F
100
AcDbEntity
  8
0
  6
Continuous
 62
     7
370
    25
100
AcDbSpline
210
0.0
220
0.0
230
1.0
 70
     8
 71
     3
 72
    13
 73
     9
 74
     0
 42
0.00000001
 43
0.00000001
 40
0.0
 40
0.0
 40
0.0
 40
0.0
 40
0.0841652697808864
 40
0.1931522504184889
 40
0.389721598124001
 40
0.5847071704246675
 40
0.9005282885255913
 40
1.0
 40
1.0
 40
1.0
 40
1.0
 10
496.8125284258139
 20
577.3632840938769
 30
0.0
 10
496.9258706440269
 20
577.4437009567869
 30
0.0
 10
497.1859815493003
 20
577.6282509271379
 30
0.0
 10
497.7497067942298
 20
577.9654604928425
 30
0.0
 10
498.5079573828689
 20
578.3315141638918
 30
0.0
 10
499.6366231102318
 20
578.7008636453664
 30
0.0
 10
500.6553165270356
 20
578.9070032477483
 30
0.0
 10
501.352530386183
 20
578.8763266310666
 30
0.0
 10
501.5195283473662
 20
578.8689789107444
 30
0.0
  0
SPLINE
  5
78
330
1F
100
AcDbEntity
  8
0
  6
Continuous
 62
     7
370
    25
100
AcDbSpline
210
0.0
220
0.0
230
1.0
 70
     8
 71
     3
 72
    14
 73
    10
 74
     0
 42
0.00000001
 43
0.00000001
 40
0.0
 40
0.0
 40
0.0
 40
0.0
 40
0.110392003749533
 40
0.3215458028786831
 40
0.5131485595554145
 40
0.6823365456853135
 40
0.8252270634682551
 40
0.9368059708259731
 40
1.0
 40
1.0
 40
1.0
 40
1.0
 10
672.7575134465767
 20
578.8762431857282
 30
0.0
 10
672.943064302577
 20
578.8805530566963
 30
0.0
 10
673.4835300694892
 20
578.8931066916851
 30
0.0
 10
674.3399395245319
 20
578.7561429348416
 30
0.0
 10
675.269509950815
 20
578.5112221565593
 30
0.0
 10
676.0580774727163
 20
578.1980675364475
 30
0.0
 10
676.6900295953234
 20
577.8724950882913
 30
0.0
 10
677.1472498156428
 20
577.5908954855707
 30
0.0
 10
677.3807908661837
 20
577.4238050127875
 30
0.0
 10
677.4652341458705
 20
577.3633887926262
 30
0.0
  0
SPLINE
  5
79
330
1F
100
AcDbEntity
  8
0
  6
Continuous
 62
     7
370
    25
100
AcDbSpline
210
0.0
220
0.0
230
1.0
 70
     8
 71
     3
 72
    13
 73
     9
 74
     0
 42
0.00000001
 43
0.00000001
 40
0.0
 40
0.0
 40
0.0
 40
0.0
 40
0.2245277801877857
 40
0.4326004429281387
 40
0.6194870271029321
 40
0.7818100676624089
 40
0.9152378004374497
 40
0.9999999999999999
 40
0.9999999999999999
 40
0.9999999999999999
 40
0.9999999999999999
 10
501.5582078730475
 20
602.8944794284619
 30
0.0
 10
501.1899188574193
 20
602.9071386034736
 30
0.0
 10
500.4803318693278
 20
602.9315291920797
 30
0.0
 10
499.4823809200413
 20
603.1395504548718
 30
0.0
 10
498.6131883256066
 20
603.4244858957632
 30
0.0
 10
497.892744389783
 20
603.7535835753741
 30
0.0
 10
497.3482497081009
 20
604.0594670961449
 30
0.0
 10
497.0533318559258
 20
604.261434429865
 30
0.0
 10
496.9387624733113
 20
604.3398944910716
 30
0.0
  0
SPLINE
  5
7A
330
1F
100
AcDbEntity
  8
0
  6
Continuous
 62
     7
370
    25
100
AcDbSpline
210
0.0
220
0.0
230
1.0
 70
     8
 71
     3
 72
    12
 73
     8
 74
     0
 42
0.00000001
 43
0.00000001
 40
0.0
 40
0.0
 40
0.0
 40
0.0
 40
0.010111213567807
 40
0.2471911270340457
 40
0.4435553485533592
 40
0.7066495735705471
 40
1.0
 40
1.0
 40
1.0
 40
1.0
 10
677.3395570503677
 20
604.3390054417675
 30
0.0
 10
677.3261956710982
 20
604.3293548422162
 30
0.0
 10
676.9995470073922
 20
604.0934244503148
 30
0.0
 10
676.3656028671328
 20
603.7305399893705
 30
0.0
 10
675.3164973210651
 20
603.2882044156383
 30
0.0
 10
674.1207254534476
 20
602.9598827211547
 30
0.0
 10
673.2095788568452
 20
602.9205545634705
 30
0.0
 10
672.729234150578
 20
602.8998212671808
 30
0.0
  0
LINE
  5
7B
330
1F
100
AcDbEntity
  8
0
  6
Continuous
 62
     7
370
    25
100
AcDbLine
 10
579.3599402441
 20
602.8958226929
 30
0.0
 11
501.5704321892
 21
602.8958226929
 31
0.0
  0
LINE
  5
7C
330
1F
100
AcDbEntity
  8
0
  6
Continuous
 62
     7
370
    25
100
AcDbLine
 10
672.7299944437
 20
602.8958226929
 30
0.0
 11
595.048989055
 21
602.8958226929
 31
0.0
  0
LINE
  5
7D
330
1F
100
AcDbEntity
  8
0
  6
Continuous
 62
     7
370
    25
100
AcDbLine
 10
595.0388443936
 20
578.8958226929
 30
0.0
 11
672.7588569092
 21
578.8958226929
 31
0.0
  0
LINE
  5
7E
330
1F
100
AcDbEntity
  8
0
  6
Continuous
 62
     7
370
    25
100
AcDbLine
 10
501.5188318779
 20
578.8958226929
 30
0.0
 11
579.2286997322
 21
578.8958226929
 31
0.0
  0
LINE
  5
7F
330
1F
100
AcDbEntity
  8
0
  6
Continuous
 62
     7
370
    25
100
AcDbLine
 10
598.6888443936
 20
375.5724588009
 30
0.0
 11
598.6888443936
 21
377.4898999167
 31
0.0
  0
LINE
  5
80
330
1F
100
AcDbEntity
  8
0
  6
Continuous
 62
     7
370
    25
100
AcDbLine
 10
575.5888443936
 20
377.4898999167
 30
0.0
 11
575.5888443936
 21
375.5724588009
 31
0.0
  0
LINE
  5
81
330
1F
100
AcDbEntity
  8
0
  6
Continuous
 62
     7
370
    25
100
AcDbLine
 10
583.4155879015
 20
364.7575728255
 30
0.0
 11
583.5928858297
 21
364.6978506232
 31
0.0
  0
LINE
  5
82
330
1F
100
AcDbEntity
  8
0
  6
Continuous
 62
     7
370
    25
100
AcDbLine
 10
590.6848029575
 20
364.6978506232
 30
0.0
 11
590.8621008857
 21
364.7575728255
 31
0.0
  0
SPLINE
  5
83
330
1F
100
AcDbEntity
  8
0
  6
Continuous
 62
     7
370
    25
100
AcDbSpline
210
0.0
220
0.0
230
1.0
 70
     8
 71
     3
 72
    17
 73
    13
 74
     0
 42
0.00000001
 43
0.00000001
 40
0.0
 40
0.0
 40
0.0
 40
0.0
 40
0.1727939157605296
 40
0.4670908646424595
 40
0.5836036464445749
 40
0.6237329378319906
 40
0.6617158152047107
 40
0.7176264960718011
 40
0.7837734229449181
 40
0.8640117675634507
 40
0.9541263261861291
 40
1.0
 40
1.0
 40
1.0
 40
1.0
 10
429.1213026749195
 20
594.2025597432545
 30
0.0
 10
429.0375090720497
 20
594.1965825731957
 30
0.0
 10
428.8110009438921
 20
594.1804252824795
 30
0.0
 10
428.6323965738638
 20
594.163651139575
 30
0.0
 10
428.5504285909103
 20
594.1537338493066
 30
0.0
 10
428.488597662055
 20
594.1412014593482
 30
0.0
 10
428.419970075965
 20
594.1205802985867
 30
0.0
 10
428.3268504208672
 20
594.0744838569154
 30
0.0
 10
428.2246101798466
 20
593.9883702167427
 30
0.0
 10
428.1399115514175
 20
593.8567333702296
 30
0.0
 10
428.0967195126674
 20
593.7149449042059
 30
0.0
 10
428.1117771519053
 20
593.6262070549373
 30
0.0
 10
428.116856629875
 20
593.5962726181161
 30
0.0
  0
SPLINE
  5
84
330
1F
100
AcDbEntity
  8
0
  6
Continuous
 62
     7
370
    25
100
AcDbSpline
210
0.0
220
0.0
230
1.0
 70
     8
 71
     3
 72
    10
 73
     6
 74
     0
 42
0.00000001
 43
0.00000001
 40
0.0
 40
0.0
 40
0.0
 40
0.0
 40
0.270519767274804
 40
0.6900585277324287
 40
1.0
 40
1.0
 40
1.0
 40
1.0
 10
428.1169065216096
 20
588.0932500567744
 30
0.0
 10
428.1180455319667
 20
588.0607438664332
 30
0.0
 10
428.1209509899231
 20
587.9778250687605
 30
0.0
 10
428.1773690832076
 20
587.8669689872305
 30
0.0
 10
428.2367365860339
 20
587.8038192008376
 30
0.0
 10
428.2619606433905
 20
587.7769881273006
 30
0.0
  0
LINE
  5
85
330
1F
100
AcDbEntity
  8
0
  6
Continuous
 62
     7
370
    25
100
AcDbLine
 10
429.1213026749
 20
587.5890856426
 30
0.0
 11
432.6046233658
 21
587.3469181142
 31
0.0
  0
LINE
  5
86
330
1F
100
AcDbEntity
  8
0
  6
Continuous
 62
     7
370
    25
100
AcDbLine
 10
432.6046233658
 20
594.4447272716
 30
0.0
 11
429.1213026749
 21
594.2025597433
 31
0.0
  0
ARC
  5
87
330
1F
100
AcDbEntity
  8
0
  6
Continuous
 62
     7
370
    25
100
AcDbCircle
 10
485.5388443936
 20
590.8958226929
 30
0.0
 40
9.14119630351394
100
AcDbArc
 50
295.4997205711
 51
0.0
  0
ARC
  5
88
330
1F
100
AcDbEntity
  8
0
  6
Continuous
 62
     7
370
    25
100
AcDbCircle
 10
485.5388443936
 20
590.8958226929
 30
0.0
 40
9.141196303513967
100
AcDbArc
 50
0.0
 51
64.520479159
  0
SPLINE
  5
89
330
1F
100
AcDbEntity
  8
0
  6
Continuous
 62
     7
370
    25
100
AcDbSpline
210
0.0
220
0.0
230
1.0
 70
     8
 71
     3
 72
    10
 73
     6
 74
     0
 42
0.00000001
 43
0.00000001
 40
0.0
 40
0.0
 40
0.0
 40
0.0
 40
0.2705197672748134
 40
0.6900585277324403
 40
1.0
 40
1.0
 40
1.0
 40
1.0
 10
746.160782265576
 20
593.9438166178717
 30
0.0
 10
746.1596432552187
 20
593.9763228082129
 30
0.0
 10
746.1567377972625
 20
594.0592416058855
 30
0.0
 10
746.1003197039779
 20
594.1700976874156
 30
0.0
 10
746.0409522011518
 20
594.2332474738084
 30
0.0
 10
746.0157281437951
 20
594.2600785473454
 30
0.0
  0
SPLINE
  5
8A
330
1F
100
AcDbEntity
  8
0
  6
Continuous
 62
     7
370
    25
100
AcDbSpline
210
0.0
220
0.0
230
1.0
 70
     8
 71
     3
 72
    17
 73
    13
 74
     0
 42
0.00000001
 43
0.00000001
 40
0.0
 40
0.0
 40
0.0
 40
0.0
 40
0.1727939157605292
 40
0.4670908646424644
 40
0.583603646444573
 40
0.6237329378319886
 40
0.6617158152047128
 40
0.7176264960718008
 40
0.7837734229449179
 40
0.864011767563451
 40
0.9541263261861292
 40
1.0
 40
1.0
 40
1.0
 40
1.0
 10
745.156386112266
 20
587.8345069313915
 30
0.0
 10
745.2401797151358
 20
587.8404841014504
 30
0.0
 10
745.4666878432934
 20
587.8566413921666
 30
0.0
 10
745.6452922133217
 20
587.873415535071
 30
0.0
 10
745.7272601962752
 20
587.8833328253395
 30
0.0
 10
745.7890911251305
 20
587.8958652152979
 30
0.0
 10
745.8577187112205
 20
587.9164863760592
 30
0.0
 10
745.9508383663185
 20
587.9625828177305
 30
0.0
 10
746.0530786073389
 20
588.0486964579032
 30
0.0
 10
746.137777235768
 20
588.1803333044164
 30
0.0
 10
746.1809692745182
 20
588.32212177044
 30
0.0
 10
746.1659116352803
 20
588.4108596197087
 30
0.0
 10
746.1608321573106
 20
588.44079405653
 30
0.0
  0
LINE
  5
8B
330
1F
100
AcDbEntity
  8
0
  6
Continuous
 62
     7
370
    25
100
AcDbLine
 10
741.6730654214
 20
587.592339403
 30
0.0
 11
745.1563861123
 21
587.8345069314
 31
0.0
  0
LINE
  5
8C
330
1F
100
AcDbEntity
  8
0
  6
Continuous
 62
     7
370
    25
100
AcDbLine
 10
745.1563861123
 20
594.4479810321
 30
0.0
 11
741.6730654214
 21
594.6901485605
 31
0.0
  0
ARC
  5
8D
330
1F
100
AcDbEntity
  8
0
  6
Continuous
 62
     7
370
    25
100
AcDbCircle
 10
696.8478595988
 20
588.1693495059
 30
0.0
 40
8.999995138923055
100
AcDbArc
 50
257.1419190681
 51
270.0
  0
ARC
  5
8E
330
1F
100
AcDbEntity
  8
0
  6
Continuous
 62
     7
370
    25
100
AcDbCircle
 10
696.8478595988
 20
588.1693495059
 30
0.0
 40
8.999995138923058
100
AcDbArc
 50
270.0
 51
305.1719294169
  0
ARC
  5
8F
330
1F
100
AcDbEntity
  8
0
  6
Continuous
 62
     7
370
    25
100
AcDbCircle
 10
587.1388443936
 20
590.8958226929
 30
0.0
 40
9.925000000000034
100
AcDbArc
 50
322.7469493593
 51
182.3675813795
  0
ARC
  5
90
330
1F
100
AcDbEntity
  8
0
  6
Continuous
 62
     7
370
    25
100
AcDbCircle
 10
587.1388443936
 20
590.8958226929
 30
0.0
 40
9.925000000000034
100
AcDbArc
 50
182.3675813795
 51
217.2530506407
  0
ARC
  5
91
330
1F
100
AcDbEntity
  8
0
  6
Continuous
 62
     7
370
    25
100
AcDbCircle
 10
587.1388443936
 20
590.8958226929
 30
0.0
 40
9.725000000000048
100
AcDbArc
 50
182.3675813795
 51
215.6748758017
  0
ARC
  5
92
330
1F
100
AcDbEntity
  8
0
  6
Continuous
 62
     7
370
    25
100
AcDbCircle
 10
587.1388443936
 20
590.8958226929
 30
0.0
 40
9.725000000000048
100
AcDbArc
 50
324.3251241983
 51
182.3675813795
  0
ARC
  5
93
330
1F
100
AcDbEntity
  8
0
  6
Continuous
 62
     7
370
    25
100
AcDbCircle
 10
587.1388443936
 20
590.8958226929
 30
0.0
 40
14.225
100
AcDbArc
 50
303.7355336397
 51
182.3675813795
  0
ARC
  5
94
330
1F
100
AcDbEntity
  8
0
  6
Continuous
 62
     7
370
    25
100
AcDbCircle
 10
587.1388443936
 20
590.8958226929
 30
0.0
 40
14.225
100
AcDbArc
 50
182.3675813795
 51
236.2644663603
  0
LINE
  5
95
330
1F
100
AcDbEntity
  8
0
  6
Continuous
 62
     7
370
    25
100
AcDbLine
 10
577.7257921447
 20
580.2306892029
 30
0.0
 11
577.5652773168
 21
580.0488234254
 31
0.0
  0
LINE
  5
96
330
1F
100
AcDbEntity
  8
0
  6
Continuous
 62
     7
370
    25
100
AcDbLine
 10
590.5979838426
 20
604.9437739298
 30
0.0
 11
590.53998632
 21
604.7082395197
 31
0.0
  0
SPLINE
  5
97
330
1F
100
AcDbEntity
  8
0
  6
Continuous
 62
     7
370
    25
100
AcDbSpline
210
0.0
220
0.0
230
1.0
 70
     8
 71
     3
 72
    11
 73
     7
 74
     0
 42
0.00000001
 43
0.00000001
 40
0.0
 40
0.0
 40
0.0
 40
0.0
 40
0.1446702591042558
 40
0.3907520209323659
 40
0.5962314811354595
 40
1.0
 40
1.0
 40
1.0
 40
1.0
 10
596.7124114703464
 20
601.7428219603726
 30
0.0
 10
596.4365810169079
 20
601.9302270197236
 30
0.0
 10
595.6915674406339
 20
602.4364050422676
 30
0.0
 10
594.5069120262083
 20
603.1364108729261
 30
0.0
 10
592.7639470120081
 20
604.0626876051881
 30
0.0
 10
591.4612943045668
 20
604.5925901919157
 30
0.0
 10
590.5979838425717
 20
604.9437739297967
 30
0.0
  0
LINE
  5
98
330
1F
100
AcDbEntity
  8
0
  6
Continuous
 62
     7
370
    25
100
AcDbLine
 10
596.7124114703
 20
601.7428219604
 30
0.0
 11
596.5518966425
 21
601.5609561829
 31
0.0
  0
LINE
  5
99
330
1F
100
AcDbEntity
  8
0
  6
Continuous
 62
     7
370
    25
100
AcDbLine
 10
601.0342967604
 20
594.9240956733
 30
0.0
 11
600.8013192164
 21
594.8565557962
 31
0.0
  0
SPLINE
  5
9A
330
1F
100
AcDbEntity
  8
0
  6
Continuous
 62
     7
370
    25
100
AcDbSpline
210
0.0
220
0.0
230
1.0
 70
     8
 71
     3
 72
    11
 73
     7
 74
     0
 42
0.00000001
 43
0.00000001
 40
0.0
 40
0.0
 40
0.0
 40
0.0
 40
0.1446702591042558
 40
0.3907520209323692
 40
0.596231481135486
 40
1.0
 40
1.0
 40
1.0
 40
1.0
 10
601.3194048524244
 20
588.0283700333378
 30
0.0
 10
601.3437871679008
 20
588.3609487428283
 30
0.0
 10
601.4096434061244
 20
589.2592384373179
 30
0.0
 10
601.423538531059
 20
590.6351830362705
 30
0.0
 10
601.3542352050323
 20
592.6077733826065
 30
0.0
 10
601.1618179529488
 20
594.000855012923
 30
0.0
 10
601.0342967603522
 20
594.9240956733041
 30
0.0
  0
LINE
  5
9B
330
1F
100
AcDbEntity
  8
0
  6
Continuous
 62
     7
370
    25
100
AcDbLine
 10
601.0816470551
 20
588.0764470632
 30
0.0
 11
601.3194048524
 21
588.0283700333
 31
0.0
  0
LINE
  5
9C
330
1F
100
AcDbEntity
  8
0
  6
Continuous
 62
     7
370
    25
100
AcDbLine
 10
576.7025314758
 20
600.9155009494
 30
0.0
 11
576.8775114971
 21
600.7475064164
 31
0.0
  0
SPLINE
  5
9D
330
1F
100
AcDbEntity
  8
0
  6
Continuous
 62
     7
370
    25
100
AcDbSpline
210
0.0
220
0.0
230
1.0
 70
     8
 71
     3
 72
    11
 73
     7
 74
     0
 42
0.00000001
 43
0.00000001
 40
0.0
 40
0.0
 40
0.0
 40
0.0
 40
0.1446702591042557
 40
0.3907520209323619
 40
0.5962314811354644
 40
1.0
 40
1.0
 40
1.0
 40
1.0
 10
582.5318510115147
 20
604.6102746199437
 30
0.0
 10
582.2316382426
 20
604.4651009698041
 30
0.0
 10
581.4207684281023
 20
604.0729892978585
 30
0.0
 10
580.2222178887421
 20
603.3970505295645
 30
0.0
 10
578.5485562005686
 20
602.3507369154905
 30
0.0
 10
577.4383207452107
 20
601.4875578719015
 30
0.0
 10
576.7025314758122
 20
600.9155009494013
 30
0.0
  0
LINE
  5
9E
330
1F
100
AcDbEntity
  8
0
  6
Continuous
 62
     7
370
    25
100
AcDbLine
 10
582.5318510115
 20
604.6102746199
 30
0.0
 11
582.609093981
 21
604.3803318126
 31
0.0
  0
LINE
  5
9F
330
1F
100
AcDbEntity
  8
0
  6
Continuous
 62
     7
370
    25
100
AcDbLine
 10
573.4763695708
 20
586.9350895896
 30
0.0
 11
573.2433920268
 21
586.8675497125
 31
0.0
  0
SPLINE
  5
A0
330
1F
100
AcDbEntity
  8
0
  6
Continuous
 62
     7
370
    25
100
AcDbSpline
210
0.0
220
0.0
230
1.0
 70
     8
 71
     3
 72
    11
 73
     7
 74
     0
 42
0.00000001
 43
0.00000001
 40
0.0
 40
0.0
 40
0.0
 40
0.0
 40
0.144670259104254
 40
0.3907520209323652
 40
0.5962314811354787
 40
1.0
 40
1.0
 40
1.0
 40
1.0
 10
572.9582839347611
 20
593.7632753524798
 30
0.0
 10
572.9339016192847
 20
593.4306966429893
 30
0.0
 10
572.8680453810612
 20
592.5324069484998
 30
0.0
 10
572.8541502561264
 20
591.1564623495472
 30
0.0
 10
572.9234535821532
 20
589.1838720032111
 30
0.0
 10
573.1158708342367
 20
587.7907903728945
 30
0.0
 10
573.2433920268334
 20
586.8675497125133
 30
0.0
  0
LINE
  5
A1
330
1F
100
AcDbEntity
  8
0
  6
Continuous
 62
     7
370
    25
100
AcDbLine
 10
572.9582839348
 20
593.7632753525
 30
0.0
 11
573.1960417321
 21
593.7151983226
 31
0.0
  0
LINE
  5
A2
330
1F
100
AcDbEntity
  8
0
  6
Continuous
 62
     7
370
    25
100
AcDbLine
 10
597.4001772901
 20
581.0441389694
 30
0.0
 11
597.5751573114
 21
580.8761444364
 31
0.0
  0
SPLINE
  5
A3
330
1F
100
AcDbEntity
  8
0
  6
Continuous
 62
     7
370
    25
100
AcDbSpline
210
0.0
220
0.0
230
1.0
 70
     8
 71
     3
 72
     9
 73
     5
 74
     0
 42
0.00000001
 43
0.00000001
 40
0.0
 40
0.0
 40
0.0
 40
0.0
 40
0.5862283062032695
 40
1.0
 40
1.0
 40
1.0
 40
1.0
 10
590.5979838425717
 20
604.9437739297967
 30
0.0
 10
590.2857517795634
 20
605.0588928011892
 30
0.0
 10
589.7531400654849
 20
605.2552648804192
 30
0.0
 10
589.2122457382455
 20
605.4313420899031
 30
0.0
 10
588.9884389762988
 20
605.5041978551102
 30
0.0
  0
SPLINE
  5
A4
330
1F
100
AcDbEntity
  8
0
  6
Continuous
 62
     7
370
    25
100
AcDbSpline
210
0.0
220
0.0
230
1.0
 70
     8
 71
     3
 72
     9
 73
     5
 74
     0
 42
0.00000001
 43
0.00000001
 40
0.0
 40
0.0
 40
0.0
 40
0.0
 40
0.586384789828365
 40
1.0
 40
1.0
 40
1.0
 40
1.0
 10
584.0896392901825
 20
605.3016539163175
 30
0.0
 10
583.7823347508348
 20
605.1719375906738
 30
0.0
 10
583.2582683959798
 20
604.9507239304736
 30
0.0
 10
582.7443963187425
 20
604.7098880169377
 30
0.0
 10
582.5318510115147
 20
604.6102746199437
 30
0.0
  0
ARC
  5
A5
330
1F
100
AcDbEntity
  8
0
  6
Continuous
 62
     7
370
    25
100
AcDbCircle
 10
587.1388443936
 20
590.8958226929
 30
0.0
 40
14.72500000000007
100
AcDbArc
 50
82.7840658168
 51
101.9510969422
  0
SPLINE
  5
A6
330
1F
100
AcDbEntity
  8
0
  6
Continuous
 62
     7
370
    25
100
AcDbSpline
210
0.0
220
0.0
230
1.0
 70
     8
 71
     3
 72
     9
 73
     5
 74
     0
 42
0.00000001
 43
0.00000001
 40
0.0
 40
0.0
 40
0.0
 40
0.0
 40
0.586228306203272
 40
1.0
 40
1.0
 40
1.0
 40
1.0
 10
601.0342967603522
 20
594.9240956733041
 30
0.0
 10
600.9778765959289
 20
595.2520560074415
 30
0.0
 10
600.8816339480968
 20
595.8114973218018
 30
0.0
 10
600.7636741209177
 20
596.3679641546959
 30
0.0
 10
600.7148656834258
 20
596.5982143786841
 30
0.0
  0
SPLINE
  5
A7
330
1F
100
AcDbEntity
  8
0
  6
Continuous
 62
     7
370
    25
100
AcDbSpline
210
0.0
220
0.0
230
1.0
 70
     8
 71
     3
 72
     9
 73
     5
 74
     0
 42
0.00000001
 43
0.00000001
 40
0.0
 40
0.0
 40
0.0
 40
0.0
 40
0.5863847898283632
 40
1.0
 40
1.0
 40
1.0
 40
1.0
 10
598.0900576439907
 20
600.7394273855156
 30
0.0
 10
597.8240677410238
 20
600.940702760467
 30
0.0
 10
597.3704579141987
 20
601.2839507069401
 30
0.0
 10
596.9049518563144
 20
601.608559023355
 30
0.0
 10
596.7124114703464
 20
601.7428219603726
 30
0.0
  0
ARC
  5
A8
330
1F
100
AcDbEntity
  8
0
  6
Continuous
 62
     7
370
    25
100
AcDbCircle
 10
587.1388443936
 20
590.8958226929
 30
0.0
 40
14.72500000000009
100
AcDbArc
 50
22.7840658168
 51
41.9510969422
  0
SPLINE
  5
A9
330
1F
100
AcDbEntity
  8
0
  6
Continuous
 62
     7
370
    25
100
AcDbSpline
210
0.0
220
0.0
230
1.0
 70
     8
 71
     3
 72
     9
 73
     5
 74
     0
 42
0.00000001
 43
0.00000001
 40
0.0
 40
0.0
 40
0.0
 40
0.0
 40
0.5862283062032879
 40
1.0
 40
1.0
 40
1.0
 40
1.0
 10
597.5751573113733
 20
580.8761444364162
 30
0.0
 10
597.8309692099584
 20
581.0889858991611
 30
0.0
 10
598.2673382762047
 20
581.4520551342913
 30
0.0
 10
598.6902727762648
 20
581.8324447577014
 30
0.0
 10
598.8652711007198
 20
581.9898392164827
 30
0.0
  0
SPLINE
  5
AA
330
1F
100
AcDbEntity
  8
0
  6
Continuous
 62
     7
370
    25
100
AcDbSpline
210
0.0
220
0.0
230
1.0
 70
     8
 71
     3
 72
     9
 73
     5
 74
     0
 42
0.00000001
 43
0.00000001
 40
0.0
 40
0.0
 40
0.0
 40
0.0
 40
0.5863847898283618
 40
0.9999999999999999
 40
0.9999999999999999
 40
0.9999999999999999
 40
0.9999999999999999
 10
601.1392627474008
 20
586.3335961621068
 30
0.0
 10
601.1805773837817
 20
586.6645878627021
 30
0.0
 10
601.2510339118116
 20
587.2290494693752
 30
0.0
 10
601.2993999311645
 20
587.7944936993263
 30
0.0
 10
601.3194048524244
 20
588.0283700333378
 30
0.0
  0
ARC
  5
AB
330
1F
100
AcDbEntity
  8
0
  6
Continuous
 62
     7
370
    25
100
AcDbCircle
 10
587.1388443936
 20
590.8958226929
 30
0.0
 40
14.72499999999996
100
AcDbArc
 50
322.7840658168
 51
341.9510969422
  0
SPLINE
  5
AC
330
1F
100
AcDbEntity
  8
0
  6
Continuous
 62
     7
370
    25
100
AcDbSpline
210
0.0
220
0.0
230
1.0
 70
     8
 71
     3
 72
     9
 73
     5
 74
     0
 42
0.00000001
 43
0.00000001
 40
0.0
 40
0.0
 40
0.0
 40
0.0
 40
0.5862283062032672
 40
1.0
 40
1.0
 40
1.0
 40
1.0
 10
576.7025314758122
 20
600.9155009494013
 30
0.0
 10
576.4467195772271
 20
600.7026594866564
 30
0.0
 10
576.0103505109809
 20
600.3395902515263
 30
0.0
 10
575.5874160109206
 20
599.959200628116
 30
0.0
 10
575.4124176864657
 20
599.801806169335
 30
0.0
  0
SPLINE
  5
AD
330
1F
100
AcDbEntity
  8
0
  6
Continuous
 62
     7
370
    25
100
AcDbSpline
210
0.0
220
0.0
230
1.0
 70
     8
 71
     3
 72
     9
 73
     5
 74
     0
 42
0.00000001
 43
0.00000001
 40
0.0
 40
0.0
 40
0.0
 40
0.0
 40
0.5863847898283641
 40
1.0
 40
1.0
 40
1.0
 40
1.0
 10
573.1384260397846
 20
595.4580492237109
 30
0.0
 10
573.0971114034038
 20
595.1270575231156
 30
0.0
 10
573.0266548753739
 20
594.5625959164422
 30
0.0
 10
572.978288856021
 20
593.9971516864914
 30
0.0
 10
572.9582839347611
 20
593.7632753524798
 30
0.0
  0
ARC
  5
AE
330
1F
100
AcDbEntity
  8
0
  6
Continuous
 62
     7
370
    25
100
AcDbCircle
 10
587.1388443936
 20
590.8958226929
 30
0.0
 40
14.72500000000014
100
AcDbArc
 50
142.7840658168
 51
161.9510969422
  0
SPLINE
  5
AF
330
1F
100
AcDbEntity
  8
0
  6
Continuous
 62
     7
370
    25
100
AcDbSpline
210
0.0
220
0.0
230
1.0
 70
     8
 71
     3
 72
     9
 73
     5
 74
     0
 42
0.00000001
 43
0.00000001
 40
0.0
 40
0.0
 40
0.0
 40
0.0
 40
0.5863847898283627
 40
0.9999999999999999
 40
0.9999999999999999
 40
0.9999999999999999
 40
0.9999999999999999
 10
576.1876311431948
 20
581.052218000302
 30
0.0
 10
576.4536210461617
 20
580.8509426253505
 30
0.0
 10
576.9072308729868
 20
580.5076946788776
 30
0.0
 10
577.3727369308712
 20
580.1830863624625
 30
0.0
 10
577.5652773168391
 20
580.0488234254451
 30
0.0
  0
ARC
  5
B0
330
1F
100
AcDbEntity
  8
0
  6
Continuous
 62
     7
370
    25
100
AcDbCircle
 10
587.1388443936
 20
590.8958226929
 30
0.0
 40
14.72500000000001
100
AcDbArc
 50
202.7840658168
 51
221.9510969422
  0
SPLINE
  5
B1
330
1F
100
AcDbEntity
  8
0
  6
Continuous
 62
     7
370
    25
100
AcDbSpline
210
0.0
220
0.0
230
1.0
 70
     8
 71
     3
 72
     9
 73
     5
 74
     0
 42
0.00000001
 43
0.00000001
 40
0.0
 40
0.0
 40
0.0
 40
0.0
 40
0.5862283062032903
 40
0.9999999999999999
 40
0.9999999999999999
 40
0.9999999999999999
 40
0.9999999999999999
 10
573.2433920268334
 20
586.8675497125133
 30
0.0
 10
573.2998121912565
 20
586.5395893783759
 30
0.0
 10
573.3960548390887
 20
585.9801480640158
 30
0.0
 10
573.5140146662678
 20
585.4236812311218
 30
0.0
 10
573.5628231037597
 20
585.1934310071335
 30
0.0
  0
LINE
  5
B2
330
1F
100
AcDbEntity
  8
0
  6
Continuous
 62
     7
370
    25
100
AcDbLine
 10
579.2286997322
 20
578.8958226929
 30
0.0
 11
577.5037267928
 21
579.7988598803
 31
0.0
  0
ARC
  5
B3
330
1F
100
AcDbEntity
  8
0
  6
Continuous
 62
     7
370
    25
100
AcDbCircle
 10
577.8911283662
 20
579.8360267024
 30
0.0
 40
0.3891803587959262
100
AcDbArc
 50
146.8534925694
 51
185.4801130186
  0
SPLINE
  5
B4
330
1F
100
AcDbEntity
  8
0
  6
Continuous
 62
     7
370
    25
100
AcDbSpline
210
0.0
220
0.0
230
1.0
 70
    24
 71
     3
 72
    10
 73
     6
 74
     0
 42
0.00000001
 43
0.00000001
 40
0.0
 40
0.0
 40
0.0
 40
0.0
 40
0.6588579034621721
 40
0.8981530991963121
 40
1.0
 40
1.0
 40
1.0
 40
1.0
 10
597.6571322825848
 20
580.6321150426968
 30
0.0
 10
597.083506297902
 20
580.2685360396991
 30
0.0
 10
596.3015410923316
 20
579.7729062436096
 30
0.0
 10
595.4267683254038
 20
579.2184526119023
 30
0.0
 10
595.1280313721398
 20
579.0291053952028
 30
0.0
 10
595.0388443935926
 20
578.9725763787244
 30
0.0
  0
ARC
  5
B5
330
1F
100
AcDbEntity
  8
0
  6
Continuous
 62
     7
370
    25
100
AcDbCircle
 10
597.2679848183
 20
580.6371749589
 30
0.0
 40
0.3891803587984559
100
AcDbArc
 50
359.2550497405
 51
37.8816701894
  0
ARC
  5
B6
330
1F
100
AcDbEntity
  8
0
  6
Continuous
 62
     7
370
    25
100
AcDbCircle
 10
573.1900246351
 20
587.2530536336
 30
0.0
 40
0.389180358838452
100
AcDbArc
 50
239.2550497425
 51
277.8816701874
  0
SPLINE
  5
B7
330
1F
100
AcDbEntity
  8
0
  6
Continuous
 62
     7
370
    25
100
AcDbSpline
210
0.0
220
0.0
230
1.0
 70
    24
 71
     3
 72
    12
 73
     8
 74
     0
 42
0.00000001
 43
0.00000001
 40
0.0
 40
0.0
 40
0.0
 40
0.0
 40
0.3013828945620948
 40
0.4108442493795588
 40
0.6247185195336508
 40
0.6986171054378638
 40
1.0
 40
1.0
 40
1.0
 40
1.0
 10
572.9910688869965
 20
586.9185720018295
 30
0.0
 10
572.9630135896252
 20
587.5971273946752
 30
0.0
 10
572.9247686931909
 20
588.5221320517617
 30
0.0
 10
572.8663352115713
 20
589.9354250049993
 30
0.0
 10
572.8291099021279
 20
590.8357695687711
 30
0.0
 10
572.7740221435272
 20
592.1681416760302
 30
0.0
 10
572.7390885414133
 20
593.0130581918797
 30
0.0
 10
572.7110338926478
 20
593.6915978973127
 30
0.0
  0
ARC
  5
B8
330
1F
100
AcDbEntity
  8
0
  6
Continuous
 62
     7
370
    25
100
AcDbCircle
 10
572.9369220914
 20
593.3746817044
 30
0.0
 40
0.3891803587953425
100
AcDbArc
 50
86.8534925694
 51
125.4801130187
  0
ARC
  5
B9
330
1F
100
AcDbEntity
  8
0
  6
Continuous
 62
     7
370
    25
100
AcDbCircle
 10
577.0097039689
 20
601.154470427
 30
0.0
 40
0.3891803588412396
100
AcDbArc
 50
179.2550497427
 51
217.8816701872
  0
SPLINE
  5
BA
330
1F
100
AcDbEntity
  8
0
  6
Continuous
 62
     7
370
    25
100
AcDbSpline
210
0.0
220
0.0
230
1.0
 70
    24
 71
     3
 72
    12
 73
     8
 74
     0
 42
0.00000001
 43
0.00000001
 40
0.0
 40
0.0
 40
0.0
 40
0.0
 40
0.3013828945621506
 40
0.4108442493795785
 40
0.6247185195336594
 40
0.6986171054378614
 40
1.0
 40
1.0
 40
1.0
 40
1.0
 10
576.6205565046007
 20
601.1595303431209
 30
0.0
 10
577.1941750639946
 20
601.523104639778
 30
0.0
 10
577.9761301474332
 20
602.0187280201984
 30
0.0
 10
579.1708610071167
 20
602.7759793763314
 30
0.0
 10
579.9319696167805
 20
603.258389721859
 30
0.0
 10
581.0582938296603
 20
603.9722831738742
 30
0.0
 10
581.7725461954061
 20
604.4249948186754
 30
0.0
 10
582.3461514934047
 20
604.788560709917
 30
0.0
  0
ARC
  5
BB
330
1F
100
AcDbEntity
  8
0
  6
Continuous
 62
     7
370
    25
100
AcDbCircle
 10
582.1846381189
 20
604.4344776949
 30
0.0
 40
0.3891803587965595
100
AcDbArc
 50
26.8534925694
 51
65.4801130186
  0
ARC
  5
BC
330
1F
100
AcDbEntity
  8
0
  6
Continuous
 62
     7
370
    25
100
AcDbCircle
 10
590.9585237274
 20
604.7972394862
 30
0.0
 40
0.389180358837284
100
AcDbArc
 50
119.2550497425
 51
157.8816701874
  0
SPLINE
  5
BD
330
1F
100
AcDbEntity
  8
0
  6
Continuous
 62
     7
370
    25
100
AcDbSpline
210
0.0
220
0.0
230
1.0
 70
    24
 71
     3
 72
    12
 73
     8
 74
     0
 42
0.00000001
 43
0.00000001
 40
0.0
 40
0.0
 40
0.0
 40
0.0
 40
0.3013828945621497
 40
0.4108442493795585
 40
0.6247185195336376
 40
0.6986171054378633
 40
0.9999999999999999
 40
0.9999999999999999
 40
0.9999999999999999
 40
0.9999999999999999
 10
590.7683320111971
 20
605.1367810342001
 30
0.0
 10
591.370005867962
 20
604.8217999380113
 30
0.0
 10
592.1902058478352
 20
604.3924186613453
 30
0.0
 10
593.443370189138
 20
603.7363770642406
 30
0.0
 10
594.2417041082452
 20
603.3184428459965
 30
0.0
 10
595.4231160797259
 20
602.6999641907528
 30
0.0
 10
596.1723020475856
 20
602.3077593197045
 30
0.0
 10
596.7739619943496
 20
601.992785505513
 30
0.0
  0
ARC
  5
BE
330
1F
100
AcDbEntity
  8
0
  6
Continuous
 62
     7
370
    25
100
AcDbCircle
 10
596.386560421
 20
601.9556186834
 30
0.0
 40
0.3891803587970448
100
AcDbArc
 50
326.8534925695
 51
5.4801130186
  0
SPLINE
  5
BF
330
1F
100
AcDbEntity
  8
0
  6
Continuous
 62
     7
370
    25
100
AcDbSpline
210
0.0
220
0.0
230
1.0
 70
    24
 71
     3
 72
    12
 73
     8
 74
     0
 42
0.00000001
 43
0.00000001
 40
0.0
 40
0.0
 40
0.0
 40
0.0
 40
0.3013828945621527
 40
0.4108442493795542
 40
0.624718519533646
 40
0.6986171054378584
 40
1.0
 40
1.0
 40
1.0
 40
1.0
 10
601.2866199001891
 20
594.873073383988
 30
0.0
 10
601.3146751975603
 20
594.1945179911422
 30
0.0
 10
601.3529200939945
 20
593.2695133340558
 30
0.0
 10
601.4113535756142
 20
591.8562203808182
 30
0.0
 10
601.4485788850575
 20
590.9558758170466
 30
0.0
 10
601.5036666436583
 20
589.6235037097873
 30
0.0
 10
601.5386002457723
 20
588.7785871939378
 30
0.0
 10
601.5666548945377
 20
588.1000474885049
 30
0.0
  0
ARC
  5
C0
330
1F
100
AcDbEntity
  8
0
  6
Continuous
 62
     7
370
    25
100
AcDbCircle
 10
601.3407666958
 20
588.4169636814
 30
0.0
 40
0.3891803587972462
100
AcDbArc
 50
266.8534925694
 51
305.4801130186
  0
ARC
  5
C1
330
1F
100
AcDbEntity
  8
0
  6
Continuous
 62
     7
370
    25
100
AcDbCircle
 10
601.0876641521
 20
594.5385917522
 30
0.0
 40
0.389180358797288
100
AcDbArc
 50
59.2550497404
 51
97.8816701895
  0
LINE
  5
C2
330
1F
100
AcDbEntity
  8
0
  6
Continuous
 62
     7
370
    25
100
AcDbLine
 10
596.7739619943
 20
601.9927855055
 30
0.0
 11
598.3219563366
 21
601.1823980351
 31
0.0
  0
LINE
  5
C3
330
1F
100
AcDbEntity
  8
0
  6
Continuous
 62
     7
370
    25
100
AcDbLine
 10
598.3219563366
 20
601.1823980351
 30
0.0
 11
598.090057644
 21
600.7394273855
 31
0.0
  0
LINE
  5
C4
330
1F
100
AcDbEntity
  8
0
  6
Continuous
 62
     7
370
    25
100
AcDbLine
 10
582.3461514934
 20
604.7885607099
 30
0.0
 11
583.8219648009
 21
605.7239694
 31
0.0
  0
LINE
  5
C5
330
1F
100
AcDbEntity
  8
0
  6
Continuous
 62
     7
370
    25
100
AcDbLine
 10
583.8219648009
 20
605.7239694
 30
0.0
 11
584.0896392902
 21
605.3016539163
 31
0.0
  0
LINE
  5
C6
330
1F
100
AcDbEntity
  8
0
  6
Continuous
 62
     7
370
    25
100
AcDbLine
 10
601.5666548945
 20
588.1000474885
 30
0.0
 11
601.6388359294
 21
586.354251328
 31
0.0
  0
LINE
  5
C7
330
1F
100
AcDbEntity
  8
0
  6
Continuous
 62
     7
370
    25
100
AcDbLine
 10
601.6388359294
 20
586.354251328
 30
0.0
 11
601.1392627474
 21
586.3335961621
 31
0.0
  0
LINE
  5
C8
330
1F
100
AcDbEntity
  8
0
  6
Continuous
 62
     7
370
    25
100
AcDbLine
 10
572.7110338926
 20
593.6915978973
 30
0.0
 11
572.6388528578
 21
595.4373940579
 31
0.0
  0
LINE
  5
C9
330
1F
100
AcDbEntity
  8
0
  6
Continuous
 62
     7
370
    25
100
AcDbLine
 10
573.1384260398
 20
595.4580492237
 30
0.0
 11
572.6388528578
 21
595.4373940579
 31
0.0
  0
LINE
  5
CA
330
1F
100
AcDbEntity
  8
0
  6
Continuous
 62
     7
370
    25
100
AcDbLine
 10
577.5037267928
 20
579.7988598803
 30
0.0
 11
575.9557324506
 21
580.6092473508
 31
0.0
  0
LINE
  5
CB
330
1F
100
AcDbEntity
  8
0
  6
Continuous
 62
     7
370
    25
100
AcDbLine
 10
575.9557324506
 20
580.6092473508
 30
0.0
 11
576.1876311432
 21
581.0522180003
 31
0.0
  0
LINE
  5
CC
330
1F
100
AcDbEntity
  8
0
  6
Continuous
 62
     7
370
    25
100
AcDbLine
 10
588.9884389763
 20
605.5041978551
 30
0.0
 11
589.2203376689
 21
605.9471685047
 31
0.0
  0
LINE
  5
CD
330
1F
100
AcDbEntity
  8
0
  6
Continuous
 62
     7
370
    25
100
AcDbLine
 10
589.2203376689
 20
605.9471685047
 30
0.0
 11
590.7683320112
 21
605.1367810342
 31
0.0
  0
LINE
  5
CE
330
1F
100
AcDbEntity
  8
0
  6
Continuous
 62
     7
370
    25
100
AcDbLine
 10
601.2144388654
 20
596.6188695445
 30
0.0
 11
601.2866199002
 21
594.873073384
 31
0.0
  0
LINE
  5
CF
330
1F
100
AcDbEntity
  8
0
  6
Continuous
 62
     7
370
    25
100
AcDbLine
 10
600.7148656834
 20
596.5982143787
 30
0.0
 11
601.2144388654
 21
596.6188695445
 31
0.0
  0
LINE
  5
D0
330
1F
100
AcDbEntity
  8
0
  6
Continuous
 62
     7
370
    25
100
AcDbLine
 10
575.4124176865
 20
599.8018061693
 30
0.0
 11
575.1447431971
 21
600.224121653
 31
0.0
  0
LINE
  5
D1
330
1F
100
AcDbEntity
  8
0
  6
Continuous
 62
     7
370
    25
100
AcDbLine
 10
575.1447431971
 20
600.224121653
 30
0.0
 11
576.6205565046
 21
601.1595303431
 31
0.0
  0
LINE
  5
D2
330
1F
100
AcDbEntity
  8
0
  6
Continuous
 62
     7
370
    25
100
AcDbLine
 10
599.13294559
 20
581.5675237328
 30
0.0
 11
597.6571322826
 21
580.6321150427
 31
0.0
  0
LINE
  5
D3
330
1F
100
AcDbEntity
  8
0
  6
Continuous
 62
     7
370
    25
100
AcDbLine
 10
598.8652711007
 20
581.9898392165
 30
0.0
 11
599.13294559
 21
581.5675237328
 31
0.0
  0
LINE
  5
D4
330
1F
100
AcDbEntity
  8
0
  6
Continuous
 62
     7
370
    25
100
AcDbLine
 10
573.5628231038
 20
585.1934310071
 30
0.0
 11
573.0632499218
 21
585.1727758413
 31
0.0
  0
LINE
  5
D5
330
1F
100
AcDbEntity
  8
0
  6
Continuous
 62
     7
370
    25
100
AcDbLine
 10
573.0632499218
 20
585.1727758413
 30
0.0
 11
572.991068887
 21
586.9185720018
 31
0.0
  0
LINE
  5
D6
330
1F
100
AcDbEntity
  8
0
  6
Continuous
 62
     7
370
    25
100
AcDbLine
 10
588.9884389763
 20
605.5041978551
 30
0.0
 11
587.2866112829
 21
606.3951183203
 31
0.0
  0
LINE
  5
D7
330
1F
100
AcDbEntity
  8
0
  6
Continuous
 62
     7
370
    25
100
AcDbLine
 10
585.7121128925
 20
606.330019699
 30
0.0
 11
584.0896392902
 21
605.3016539163
 31
0.0
  0
ARC
  5
D8
330
1F
100
AcDbEntity
  8
0
  6
Continuous
 62
     7
370
    25
100
AcDbCircle
 10
587.1388443936
 20
590.8958226929
 30
0.0
 40
15.50000000000017
100
AcDbArc
 50
89.453771138
 51
95.2813916209
  0
LINE
  5
D9
330
1F
100
AcDbEntity
  8
0
  6
Continuous
 62
     7
370
    25
100
AcDbLine
 10
600.7148656834
 20
596.5982143787
 30
0.0
 11
600.6355115924
 21
598.5175006266
 31
0.0
  0
LINE
  5
DA
330
1F
100
AcDbEntity
  8
0
  6
Continuous
 62
     7
370
    25
100
AcDbLine
 10
599.7918853374
 20
599.8485069203
 30
0.0
 11
598.090057644
 21
600.7394273855
 31
0.0
  0
ARC
  5
DB
330
1F
100
AcDbEntity
  8
0
  6
Continuous
 62
     7
370
    25
100
AcDbCircle
 10
587.1388443936
 20
590.8958226929
 30
0.0
 40
15.49999999999998
100
AcDbArc
 50
29.453771138
 51
35.2813916209
  0
ARC
  5
DC
330
1F
100
AcDbEntity
  8
0
  6
Continuous
 62
     7
370
    25
100
AcDbCircle
 10
599.7918853374
 20
599.8485069203
 30
0.0
 40
0.5000000000000672
100
AcDbArc
 50
35.2813916209
 51
62.3675813795
  0
LINE
  5
DD
330
1F
100
AcDbEntity
  8
0
  6
Continuous
 62
     7
370
    25
100
AcDbLine
 10
599.7918853374
 20
599.8485069203
 30
0.0
 11
600.2000479485
 21
600.1373031857
 31
0.0
  0
LINE
  5
DE
330
1F
100
AcDbEntity
  8
0
  6
Continuous
 62
     7
370
    25
100
AcDbLine
 10
600.02378403
 20
600.2914775698
 30
0.0
 11
599.7918853374
 21
599.8485069203
 31
0.0
  0
LINE
  5
DF
330
1F
100
AcDbEntity
  8
0
  6
Continuous
 62
     7
370
    25
100
AcDbLine
 10
598.3219563366
 20
601.1823980351
 30
0.0
 11
600.02378403
 21
600.2914775698
 31
0.0
  0
LINE
  5
E0
330
1F
100
AcDbEntity
  8
0
  6
Continuous
 62
     7
370
    25
100
AcDbLine
 10
585.7121128925
 20
606.330019699
 30
0.0
 11
585.6660892957
 21
606.8278970218
 31
0.0
  0
ARC
  5
E1
330
1F
100
AcDbEntity
  8
0
  6
Continuous
 62
     7
370
    25
100
AcDbCircle
 10
587.1388443936
 20
590.8958226929
 30
0.0
 40
16.0000000000001
100
AcDbArc
 50
89.453771138
 51
95.2813916209
  0
LINE
  5
E2
330
1F
100
AcDbEntity
  8
0
  6
Continuous
 62
     7
370
    25
100
AcDbLine
 10
587.2866112829
 20
606.3951183203
 30
0.0
 11
587.2913779568
 21
606.8950955986
 31
0.0
  0
ARC
  5
E3
330
1F
100
AcDbEntity
  8
0
  6
Continuous
 62
     7
370
    25
100
AcDbCircle
 10
587.1388443936
 20
590.8958226929
 30
0.0
 40
16.00000000000011
100
AcDbArc
 50
29.453771138
 51
35.2813916209
  0
LINE
  5
E4
330
1F
100
AcDbEntity
  8
0
  6
Continuous
 62
     7
370
    25
100
AcDbLine
 10
601.0708879536
 20
598.7633612051
 30
0.0
 11
600.6355115924
 21
598.5175006266
 31
0.0
  0
ARC
  5
E5
330
1F
100
AcDbEntity
  8
0
  6
Continuous
 62
     7
370
    25
100
AcDbCircle
 10
587.2866112829
 20
606.3951183203
 30
0.0
 40
0.4999999999999337
100
AcDbArc
 50
62.3675813795
 51
89.453771138
  0
LINE
  5
E6
330
1F
100
AcDbEntity
  8
0
  6
Continuous
 62
     7
370
    25
100
AcDbLine
 10
587.2866112829
 20
606.3951183203
 30
0.0
 11
587.5185099756
 21
606.8380889699
 31
0.0
  0
LINE
  5
E7
330
1F
100
AcDbEntity
  8
0
  6
Continuous
 62
     7
370
    25
100
AcDbLine
 10
587.5185099756
 20
606.8380889699
 30
0.0
 11
589.2203376689
 21
605.9471685047
 31
0.0
  0
ARC
  5
E8
330
1F
100
AcDbEntity
  8
0
  6
Continuous
 62
     7
370
    25
100
AcDbCircle
 10
600.6355115924
 20
598.5175006266
 30
0.0
 40
0.5000000000001641
100
AcDbArc
 50
2.3675813795
 51
29.453771138
  0
LINE
  5
E9
330
1F
100
AcDbEntity
  8
0
  6
Continuous
 62
     7
370
    25
100
AcDbLine
 10
600.6355115924
 20
598.5175006266
 30
0.0
 11
601.1350847743
 21
598.5381557925
 31
0.0
  0
LINE
  5
EA
330
1F
100
AcDbEntity
  8
0
  6
Continuous
 62
     7
370
    25
100
AcDbLine
 10
583.8219648009
 20
605.7239694
 30
0.0
 11
585.4444384032
 21
606.7523351827
 31
0.0
  0
LINE
  5
EB
330
1F
100
AcDbEntity
  8
0
  6
Continuous
 62
     7
370
    25
100
AcDbLine
 10
585.4444384032
 20
606.7523351827
 30
0.0
 11
585.7121128925
 21
606.330019699
 31
0.0
  0
LINE
  5
EC
330
1F
100
AcDbEntity
  8
0
  6
Continuous
 62
     7
370
    25
100
AcDbLine
 10
601.1350847743
 20
598.5381557925
 30
0.0
 11
601.2144388654
 21
596.6188695445
 31
0.0
  0
ARC
  5
ED
330
1F
100
AcDbEntity
  8
0
  6
Continuous
 62
     7
370
    25
100
AcDbCircle
 10
585.7121128925
 20
606.330019699
 30
0.0
 40
0.4999999999999955
100
AcDbArc
 50
95.2813916209
 51
122.3675813795
  0
ARC
  5
EE
330
1F
100
AcDbEntity
  8
0
  6
Continuous
 62
     7
370
    25
100
AcDbCircle
 10
573.7899440841
 20
598.7734403866
 30
0.0
 40
0.5000000000000306
100
AcDbArc
 50
122.3675813795
 51
149.453771138
  0
LINE
  5
EF
330
1F
100
AcDbEntity
  8
0
  6
Continuous
 62
     7
370
    25
100
AcDbLine
 10
573.7899440841
 20
598.7734403866
 30
0.0
 11
573.5222695948
 21
599.1957558703
 31
0.0
  0
LINE
  5
F0
330
1F
100
AcDbEntity
  8
0
  6
Continuous
 62
     7
370
    25
100
AcDbLine
 10
573.7899440841
 20
598.7734403866
 30
0.0
 11
573.3593343967
 21
599.0275570864
 31
0.0
  0
LINE
  5
F1
330
1F
100
AcDbEntity
  8
0
  6
Continuous
 62
     7
370
    25
100
AcDbLine
 10
575.4124176865
 20
599.8018061693
 30
0.0
 11
573.7899440841
 21
598.7734403866
 31
0.0
  0
LINE
  5
F2
330
1F
100
AcDbEntity
  8
0
  6
Continuous
 62
     7
370
    25
100
AcDbLine
 10
573.0590719487
 20
597.3773354717
 30
0.0
 11
573.1384260398
 21
595.4580492237
 31
0.0
  0
ARC
  5
F3
330
1F
100
AcDbEntity
  8
0
  6
Continuous
 62
     7
370
    25
100
AcDbCircle
 10
587.1388443936
 20
590.8958226929
 30
0.0
 40
15.50000000000007
100
AcDbArc
 50
149.453771138
 51
155.2813916209
  0
LINE
  5
F4
330
1F
100
AcDbEntity
  8
0
  6
Continuous
 62
     7
370
    25
100
AcDbLine
 10
573.5222695948
 20
599.1957558703
 30
0.0
 11
575.1447431971
 21
600.224121653
 31
0.0
  0
ARC
  5
F5
330
1F
100
AcDbEntity
  8
0
  6
Continuous
 62
     7
370
    25
100
AcDbCircle
 10
587.1388443936
 20
590.8958226929
 30
0.0
 40
16.0
100
AcDbArc
 50
329.453771138
 51
335.2813916209
  0
LINE
  5
F6
330
1F
100
AcDbEntity
  8
0
  6
Continuous
 62
     7
370
    25
100
AcDbLine
 10
600.9183543904
 20
582.7640882994
 30
0.0
 11
600.487744703
 21
583.0182049992
 31
0.0
  0
ARC
  5
F7
330
1F
100
AcDbEntity
  8
0
  6
Continuous
 62
     7
370
    25
100
AcDbCircle
 10
587.1388443936
 20
590.8958226929
 30
0.0
 40
15.49999999999992
100
AcDbArc
 50
329.453771138
 51
335.2813916209
  0
LINE
  5
F8
330
1F
100
AcDbEntity
  8
0
  6
Continuous
 62
     7
370
    25
100
AcDbLine
 10
601.6728030463
 20
584.2052288568
 30
0.0
 11
601.2186168385
 21
584.4143099142
 31
0.0
  0
LINE
  5
F9
330
1F
100
AcDbEntity
  8
0
  6
Continuous
 62
     7
370
    25
100
AcDbLine
 10
601.6388359294
 20
586.354251328
 30
0.0
 11
601.7181900204
 21
584.43496508
 31
0.0
  0
LINE
  5
FA
330
1F
100
AcDbEntity
  8
0
  6
Continuous
 62
     7
370
    25
100
AcDbLine
 10
601.7181900204
 20
584.43496508
 30
0.0
 11
601.2186168385
 21
584.4143099142
 31
0.0
  0
LINE
  5
FB
330
1F
100
AcDbEntity
  8
0
  6
Continuous
 62
     7
370
    25
100
AcDbLine
 10
601.2186168385
 20
584.4143099142
 30
0.0
 11
601.1392627474
 21
586.3335961621
 31
0.0
  0
LINE
  5
FC
330
1F
100
AcDbEntity
  8
0
  6
Continuous
 62
     7
370
    25
100
AcDbLine
 10
598.8652711007
 20
581.9898392165
 30
0.0
 11
600.487744703
 21
583.0182049992
 31
0.0
  0
ARC
  5
FD
330
1F
100
AcDbEntity
  8
0
  6
Continuous
 62
     7
370
    25
100
AcDbCircle
 10
601.2186168385
 20
584.4143099142
 30
0.0
 40
0.500000000000074
100
AcDbArc
 50
335.2813916209
 51
2.3675813795
  0
LINE
  5
FE
330
1F
100
AcDbEntity
  8
0
  6
Continuous
 62
     7
370
    25
100
AcDbLine
 10
572.6388528578
 20
595.4373940579
 30
0.0
 11
572.5594987668
 21
597.3566803058
 31
0.0
  0
LINE
  5
FF
330
1F
100
AcDbEntity
  8
0
  6
Continuous
 62
     7
370
    25
100
AcDbLine
 10
573.0590719487
 20
597.3773354717
 30
0.0
 11
572.5594987668
 21
597.3566803058
 31
0.0
  0
ARC
  5
100
330
1F
100
AcDbEntity
  8
0
  6
Continuous
 62
     7
370
    25
100
AcDbCircle
 10
573.0590719487
 20
597.3773354717
 30
0.0
 40
0.4999999999999708
100
AcDbArc
 50
155.2813916209
 51
182.3675813795
  0
LINE
  5
101
330
1F
100
AcDbEntity
  8
0
  6
Continuous
 62
     7
370
    25
100
AcDbLine
 10
573.0590719487
 20
597.3773354717
 30
0.0
 11
572.6048857408
 21
597.586416529
 31
0.0
  0
ARC
  5
102
330
1F
100
AcDbEntity
  8
0
  6
Continuous
 62
     7
370
    25
100
AcDbCircle
 10
600.487744703
 20
583.0182049992
 30
0.0
 40
0.5000000000000915
100
AcDbArc
 50
302.3675813795
 51
329.453771138
  0
LINE
  5
103
330
1F
100
AcDbEntity
  8
0
  6
Continuous
 62
     7
370
    25
100
AcDbLine
 10
600.487744703
 20
583.0182049992
 30
0.0
 11
600.7554191924
 21
582.5958895155
 31
0.0
  0
LINE
  5
104
330
1F
100
AcDbEntity
  8
0
  6
Continuous
 62
     7
370
    25
100
AcDbLine
 10
600.7554191924
 20
582.5958895155
 30
0.0
 11
599.13294559
 21
581.5675237328
 31
0.0
  0
ARC
  5
105
330
1F
100
AcDbEntity
  8
0
  6
Continuous
 62
     7
370
    25
100
AcDbCircle
 10
587.1388443936
 20
590.8958226929
 30
0.0
 40
16.00000000000006
100
AcDbArc
 50
149.453771138
 51
155.2813916209
  0
LINE
  5
106
330
1F
100
AcDbEntity
  8
0
  6
Continuous
 62
     7
370
    25
100
AcDbLine
 10
574.4858034498
 20
581.9431384655
 30
0.0
 11
576.1876311432
 21
581.0522180003
 31
0.0
  0
ARC
  5
107
330
1F
100
AcDbEntity
  8
0
  6
Continuous
 62
     7
370
    25
100
AcDbCircle
 10
587.1388443936
 20
590.8958226929
 30
0.0
 40
15.49999999999991
100
AcDbArc
 50
209.453771138
 51
215.2813916209
  0
LINE
  5
108
330
1F
100
AcDbEntity
  8
0
  6
Continuous
 62
     7
370
    25
100
AcDbLine
 10
573.5628231038
 20
585.1934310071
 30
0.0
 11
573.6421771948
 21
583.2741447592
 31
0.0
  0
LINE
  5
109
330
1F
100
AcDbEntity
  8
0
  6
Continuous
 62
     7
370
    25
100
AcDbLine
 10
575.9557324506
 20
580.6092473508
 30
0.0
 11
574.2539047572
 21
581.500167816
 31
0.0
  0
LINE
  5
10A
330
1F
100
AcDbEntity
  8
0
  6
Continuous
 62
     7
370
    25
100
AcDbLine
 10
574.2539047572
 20
581.500167816
 30
0.0
 11
574.4858034498
 21
581.9431384655
 31
0.0
  0
LINE
  5
10B
330
1F
100
AcDbEntity
  8
0
  6
Continuous
 62
     7
370
    25
100
AcDbLine
 10
573.6421771948
 20
583.2741447592
 30
0.0
 11
573.1426040129
 21
583.2534895933
 31
0.0
  0
LINE
  5
10C
330
1F
100
AcDbEntity
  8
0
  6
Continuous
 62
     7
370
    25
100
AcDbLine
 10
573.1426040129
 20
583.2534895933
 30
0.0
 11
573.0632499218
 21
585.1727758413
 31
0.0
  0
LINE
  5
10D
330
1F
100
AcDbEntity
  8
0
  6
Continuous
 62
     7
370
    25
100
AcDbLine
 10
574.0776408387
 20
581.6543422001
 30
0.0
 11
574.4858034498
 21
581.9431384655
 31
0.0
  0
ARC
  5
10E
330
1F
100
AcDbEntity
  8
0
  6
Continuous
 62
     7
370
    25
100
AcDbCircle
 10
574.4858034498
 20
581.9431384655
 30
0.0
 40
0.5000000000000672
100
AcDbArc
 50
215.2813916209
 51
242.3675813795
  0
LINE
  5
10F
330
1F
100
AcDbEntity
  8
0
  6
Continuous
 62
     7
370
    25
100
AcDbLine
 10
573.6421771948
 20
583.2741447592
 30
0.0
 11
573.2068008336
 21
583.0282841807
 31
0.0
  0
ARC
  5
110
330
1F
100
AcDbEntity
  8
0
  6
Continuous
 62
     7
370
    25
100
AcDbCircle
 10
573.6421771948
 20
583.2741447592
 30
0.0
 40
0.5000000000001641
100
AcDbArc
 50
182.3675813795
 51
209.453771138
  0
ARC
  5
111
330
1F
100
AcDbEntity
  8
0
  6
Continuous
 62
     7
370
    25
100
AcDbCircle
 10
587.1388443936
 20
590.8958226929
 30
0.0
 40
16.00000000000005
100
AcDbArc
 50
209.453771138
 51
215.2813916209
  0
ARC
  5
112
330
1F
100
AcDbEntity
  8
0
  6
Continuous
 62
     7
370
    25
100
AcDbCircle
 10
587.1388443936
 20
590.8958226929
 30
0.0
 40
9.575000000000044
100
AcDbArc
 50
325.5951096848
 51
119.4063269879
  0
ARC
  5
113
330
1F
100
AcDbEntity
  8
0
  6
Continuous
 62
     7
370
    25
100
AcDbCircle
 10
587.1388443936
 20
590.8958226929
 30
0.0
 40
9.575000000000044
100
AcDbArc
 50
119.4063269879
 51
214.4048903152
  0
ARC
  5
114
330
1F
100
AcDbEntity
  8
0
  6
Continuous
 62
     7
370
    25
100
AcDbCircle
 10
587.1388443936
 20
590.8958226929
 30
0.0
 40
8.050000000000058
100
AcDbArc
 50
29.4063269879
 51
191.0780164461
  0
ARC
  5
115
330
1F
100
AcDbEntity
  8
0
  6
Continuous
 62
     7
370
    25
100
AcDbCircle
 10
587.1388443936
 20
590.8958226929
 30
0.0
 40
8.050000000000058
100
AcDbArc
 50
348.9219835539
 51
29.4063269879
  0
ARC
  5
116
330
1F
100
AcDbEntity
  8
0
  6
Continuous
 62
     7
370
    25
100
AcDbCircle
 10
587.1388443936
 20
590.8958226929
 30
0.0
 40
8.25
100
AcDbArc
 50
343.2508741362
 51
119.4063269879
  0
ARC
  5
117
330
1F
100
AcDbEntity
  8
0
  6
Continuous
 62
     7
370
    25
100
AcDbCircle
 10
587.1388443936
 20
590.8958226929
 30
0.0
 40
8.25
100
AcDbArc
 50
119.4063269879
 51
196.7491258638
  0
ARC
  5
118
330
1F
100
AcDbEntity
  8
0
  6
Continuous
 62
     7
370
    25
100
AcDbCircle
 10
587.1388443936
 20
590.8958226929
 30
0.0
 40
7.900000000000091
100
AcDbArc
 50
0.0
 51
90.0
  0
ARC
  5
119
330
1F
100
AcDbEntity
  8
0
  6
Continuous
 62
     7
370
    25
100
AcDbCircle
 10
587.1388443936
 20
590.8958226929
 30
0.0
 40
7.900000000000091
100
AcDbArc
 50
90.0
 51
180.0
  0
ARC
  5
11A
330
1F
100
AcDbEntity
  8
0
  6
Continuous
 62
     7
370
    25
100
AcDbCircle
 10
587.1860265873
 20
377.9659564272
 30
0.0
 40
7.85291180852564
100
AcDbArc
 50
269.6557510264
 51
359.7196557283
  0
ARC
  5
11B
330
1F
100
AcDbEntity
  8
0
  6
Continuous
 62
     7
370
    25
100
AcDbCircle
 10
587.0916621999
 20
377.9659564272
 30
0.0
 40
7.85291180852564
100
AcDbArc
 50
180.2803442717
 51
270.3442489736
  0
SPLINE
  5
11C
330
1F
100
AcDbEntity
  8
0
  6
Continuous
 62
     7
370
    25
100
AcDbSpline
210
0.0
220
0.0
230
1.0
 70
     8
 71
     3
 72
     9
 73
     5
 74
     0
 42
0.00000001
 43
0.00000001
 40
0.0
 40
0.0
 40
0.0
 40
0.0
 40
0.3733283679056137
 40
1.0
 40
1.0
 40
1.0
 40
1.0
 10
597.8636623356035
 20
378.3800289077798
 30
0.0
 10
597.8551117085707
 20
378.3455269531819
 30
0.0
 10
597.8322079386782
 20
378.2531097741943
 30
0.0
 10
597.8047716539586
 20
378.1348155603845
 30
0.0
 10
597.7875781126348
 20
378.0606839323491
 30
0.0
  0
SPLINE
  5
11D
330
1F
100
AcDbEntity
  8
0
  6
Continuous
 62
     7
370
    25
100
AcDbSpline
210
0.0
220
0.0
230
1.0
 70
     8
 71
     3
 72
     9
 73
     5
 74
     0
 42
0.00000001
 43
0.00000001
 40
0.0
 40
0.0
 40
0.0
 40
0.0
 40
0.8169784353419379
 40
1.0
 40
1.0
 40
1.0
 40
1.0
 10
597.7875781126311
 20
378.0606839323496
 30
0.0
 10
597.73973211839
 20
377.3353430002429
 30
0.0
 10
597.6811675441353
 20
376.4475093675191
 30
0.0
 10
597.4975507605402
 20
375.564903424283
 30
0.0
 10
597.4639449295092
 20
375.4033675035756
 30
0.0
  0
SPLINE
  5
11E
330
1F
100
AcDbEntity
  8
0
  6
Continuous
 62
     7
370
    25
100
AcDbSpline
210
0.0
220
0.0
230
1.0
 70
     8
 71
     3
 72
    19
 73
    15
 74
     0
 42
0.00000001
 43
0.00000001
 40
0.0
 40
0.0
 40
0.0
 40
0.0
 40
0.0310843828558379
 40
0.1224161153581141
 40
0.2137441883083797
 40
0.3054070581590085
 40
0.3972523582185112
 40
0.4892308134472154
 40
0.5815186406135316
 40
0.6738017200681279
 40
0.7664441099658726
 40
0.8590895752066011
 40
0.9519261057206743
 40
1.0
 40
1.0
 40
1.0
 40
1.0
 10
597.4639464977612
 20
375.4033747604223
 30
0.0
 10
597.3692644591499
 20
375.0159196971261
 30
0.0
 10
596.9963888767486
 20
373.4900491677186
 30
0.0
 10
595.6531414814743
 20
371.0195815226792
 30
0.0
 10
593.0118044168587
 20
368.5812743250137
 30
0.0
 10
589.6891542942913
 20
367.1390193459697
 30
0.0
 10
586.0674605933524
 20
366.8647428451087
 30
0.0
 10
582.5503329876819
 20
367.7882433179295
 30
0.0
 10
579.5357036253064
 20
369.8141032052238
 30
0.0
 10
577.3671041816398
 20
372.7145504154202
 30
0.0
 10
576.2771436275137
 20
376.1762439028681
 30
0.0
 10
576.4525914915051
 20
379.7639378727442
 30
0.0
 10
577.4629854117486
 20
382.6929622319652
 30
0.0
 10
578.7280266309189
 20
384.0038677766215
 30
0.0
 10
579.1596161170661
 20
384.4511046269565
 30
0.0
  0
LINE
  5
11F
330
1F
100
AcDbEntity
  8
0
  6
Continuous
 62
     7
370
    25
100
AcDbLine
 10
595.0388443936
 20
384.5612571433
 30
0.0
 11
596.1555692929
 21
383.367388478
 31
0.0
  0
ARC
  5
120
330
1F
100
AcDbEntity
  8
0
  6
Continuous
 62
     7
370
    25
100
AcDbCircle
 10
587.3492633331
 20
377.4870248718
 30
0.0
 40
10.58913125798479
100
AcDbArc
 50
348.3951793204
 51
33.7328054928
  0
SPLINE
  5
121
330
1F
100
AcDbEntity
  8
0
  6
Continuous
 62
     7
370
    25
100
AcDbSpline
210
0.0
220
0.0
230
1.0
 70
     8
 71
     3
 72
     9
 73
     5
 74
     0
 42
0.00000001
 43
0.00000001
 40
0.0
 40
0.0
 40
0.0
 40
0.0
 40
0.6275173949570049
 40
1.0
 40
1.0
 40
1.0
 40
1.0
 10
597.7219350441394
 20
375.3569116414976
 30
0.0
 10
597.8244901870145
 20
375.9857009528868
 30
0.0
 10
597.9879201472023
 20
376.9877278551565
 30
0.0
 10
597.8973850751063
 20
378.0021677085352
 30
0.0
 10
597.8636623356041
 20
378.3800289077812
 30
0.0
  0
SPLINE
  5
122
330
1F
100
AcDbEntity
  8
0
  6
Continuous
 62
     7
370
    25
100
AcDbSpline
210
0.0
220
0.0
230
1.0
 70
     8
 71
     3
 72
    22
 73
    18
 74
     0
 42
0.00000001
 43
0.00000001
 40
0.0
 40
0.0
 40
0.0
 40
0.0
 40
0.0172288600718967
 40
0.0916021738916484
 40
0.1874543359314277
 40
0.3190223152977572
 40
0.3773296847370493
 40
0.4292792278565775
 40
0.4748698688063085
 40
0.5141006637016935
 40
0.5469708008150137
 40
0.6323817608812685
 40
0.698310834896791
 40
0.7447451790334652
 40
0.7606497849337475
 40
0.7716769565234215
 40
1.0
 40
1.0
 40
1.0
 40
1.0
 10
586.35762151005
 20
366.810200155055
 30
0.0
 10
586.4459462290586
 20
366.8015806622768
 30
0.0
 10
586.9155499193664
 20
366.7557526578097
 30
0.0
 10
587.8846742220867
 20
366.7819394441375
 30
0.0
 10
589.4303901126738
 20
366.9712487993287
 30
0.0
 10
590.8505916854152
 20
367.3968610845561
 30
0.0
 10
591.9857477063421
 20
367.9088986799341
 30
0.0
 10
592.689018196244
 20
368.2951946580125
 30
0.0
 10
593.2806981184002
 20
368.6757765938941
 30
0.0
 10
593.7688391000547
 20
369.0331798488147
 30
0.0
 10
594.3962250926462
 20
369.5439828785907
 30
0.0
 10
595.078235780724
 20
370.2023195542903
 30
0.0
 10
595.7280219848199
 20
370.9822127894205
 30
0.0
 10
596.1070718989014
 20
371.5195007859401
 30
0.0
 10
596.309457437663
 20
371.8359170079697
 30
0.0
 10
596.9946165457392
 20
372.949259715947
 30
0.0
 10
597.3561275989929
 20
374.1305035156757
 30
0.0
 10
597.7009833740609
 20
375.257325897545
 30
0.0
  0
LINE
  5
123
330
1F
100
AcDbEntity
  8
0
  6
Continuous
 62
     7
370
    25
100
AcDbLine
 10
597.7219350441
 20
375.3569116415
 30
0.0
 11
597.700946608
 21
375.257279678
 31
0.0
  0
SPLINE
  5
124
330
1F
100
AcDbEntity
  8
0
  6
Continuous
 62
     7
370
    25
100
AcDbSpline
210
0.0
220
0.0
230
1.0
 70
     8
 71
     3
 72
    29
 73
    25
 74
     0
 42
0.00000001
 43
0.00000001
 40
0.0
 40
0.0
 40
0.0
 40
0.0
 40
0.0331327682324607
 40
0.0743382013573129
 40
0.1155435935378732
 40
0.156748945011533
 40
0.167911562201758
 40
0.2113190989226641
 40
0.2796766115089931
 40
0.3324963034916104
 40
0.3653208062548547
 40
0.4397820694655062
 40
0.4670961979965943
 40
0.4978855208208062
 40
0.5321498078435315
 40
0.5698888029849736
 40
0.6563722779057779
 40
0.7769144649750116
 40
0.8293765074027152
 40
0.8763337009392407
 40
0.9177851645528298
 40
0.9537301207849379
 40
0.984167895922795
 40
0.9999999999999999
 40
0.9999999999999999
 40
0.9999999999999999
 40
0.9999999999999999
 10
586.6498073185961
 20
366.7721262946845
 30
0.0
 10
586.8373688641374
 20
366.7654559708924
 30
0.0
 10
587.2581905667346
 20
366.7504901259106
 30
0.0
 10
587.9126513402773
 20
366.7808560329424
 30
0.0
 10
588.6093604733308
 20
366.8531191431873
 30
0.0
 10
589.1321786302565
 20
366.942549735457
 30
0.0
 10
589.6626576369929
 20
367.0554906059118
 30
0.0
 10
590.33718652856
 20
367.2294128661
 30
0.0
 10
591.217430827982
 20
367.5402270566572
 30
0.0
 10
592.008789673422
 20
367.9070240432891
 30
0.0
 10
592.8031151796298
 20
368.3418487820026
 30
0.0
 10
593.4391282835082
 20
368.7628464615174
 30
0.0
 10
594.0285028076521
 20
369.2244918679373
 30
0.0
 10
594.4240354276254
 20
369.564450163327
 30
0.0
 10
594.8441498717981
 20
369.9645859677345
 30
0.0
 10
595.4556527225387
 20
370.6168050384516
 30
0.0
 10
596.2987043198059
 20
371.7131178236056
 30
0.0
 10
596.9925543627836
 20
373.0087464373942
 30
0.0
 10
597.4226545206348
 20
374.1688787969657
 30
0.0
 10
597.6378051789856
 20
374.9309574295618
 30
0.0
 10
597.7832343228641
 20
375.6149260538353
 30
0.0
 10
597.8630259858312
 20
376.2143945052132
 30
0.0
 10
597.9250959588479
 20
376.6739068366755
 30
0.0
 10
597.909978493316
 20
376.9335588174046
 30
0.0
 10
597.9048057698997
 20
377.0224035961783
 30
0.0
  0
LINE
  5
125
330
1F
100
AcDbEntity
  8
0
  6
Continuous
 62
     7
370
    25
100
AcDbLine
 10
597.8636623356
 20
378.3800289078
 30
0.0
 11
597.7808299895
 21
377.9961014213
 31
0.0
  0
LINE
  5
126
330
1F
100
AcDbEntity
  8
0
  6
Continuous
 62
     7
370
    25
100
AcDbLine
 10
580.1027573331
 20
594.3649370918
 30
0.0
 11
579.6752768789
 21
593.4852550542
 31
0.0
  0
ARC
  5
127
330
1F
100
AcDbEntity
  8
0
  6
Continuous
 62
     7
370
    25
100
AcDbCircle
 10
485.5388443936
 20
590.8958226929
 30
0.0
 40
17.60000000000009
100
AcDbArc
 50
7.8284686027
 51
27.9531868834
  0
ARC
  5
128
330
1F
100
AcDbEntity
  8
0
  6
Continuous
 62
     7
370
    25
100
AcDbCircle
 10
485.5388443936
 20
590.8958226929
 30
0.0
 40
17.60000000000014
100
AcDbArc
 50
332.0468131166
 51
352.9126000189
  0
ARC
  5
129
330
1F
100
AcDbEntity
  8
0
  6
Continuous
 62
     7
370
    25
100
AcDbCircle
 10
485.5388443936
 20
590.8958226929
 30
0.0
 40
17.60000000000014
100
AcDbArc
 50
308.3524775834
 51
332.0468131166
  0
ARC
  5
12A
330
1F
100
AcDbEntity
  8
0
  6
Continuous
 62
     7
370
    25
100
AcDbCircle
 10
485.5388443936
 20
590.8958226929
 30
0.0
 40
17.60000000000015
100
AcDbArc
 50
247.7053216207
 51
291.9394873066
  0
ARC
  5
12B
330
1F
100
AcDbEntity
  8
0
  6
Continuous
 62
     7
370
    25
100
AcDbCircle
 10
485.5388443936
 20
590.8958226929
 30
0.0
 40
17.60000000000011
100
AcDbArc
 50
211.5427743269
 51
233.2869514371
  0
ARC
  5
12C
330
1F
100
AcDbEntity
  8
0
  6
Continuous
 62
     7
370
    25
100
AcDbCircle
 10
485.5388443936
 20
590.8958226929
 30
0.0
 40
17.60000000000011
100
AcDbArc
 50
128.2989892036
 51
148.4572256731
  0
ARC
  5
12D
330
1F
100
AcDbEntity
  8
0
  6
Continuous
 62
     7
370
    25
100
AcDbCircle
 10
485.5388443936
 20
590.8958226929
 30
0.0
 40
17.60000000000018
100
AcDbArc
 50
68.0922381153
 51
112.0468846828
  0
ARC
  5
12E
330
1F
100
AcDbEntity
  8
0
  6
Continuous
 62
     7
370
    25
100
AcDbCircle
 10
485.5388443936
 20
590.8958226929
 30
0.0
 40
17.60000000000015
100
AcDbArc
 50
27.9531868834
 51
52.2965225843
  0
ARC
  5
12F
330
1F
100
AcDbEntity
  8
0
  6
Continuous
 62
     7
370
    25
100
AcDbCircle
 10
688.7388443936
 20
590.8958226929
 30
0.0
 40
17.60000000000018
100
AcDbArc
 50
152.0468131166
 51
172.4710217602
  0
ARC
  5
130
330
1F
100
AcDbEntity
  8
0
  6
Continuous
 62
     7
370
    25
100
AcDbCircle
 10
688.7388443936
 20
590.8958226929
 30
0.0
 40
17.60000000000016
100
AcDbArc
 50
187.7001886922
 51
207.9531868834
  0
ARC
  5
131
330
1F
100
AcDbEntity
  8
0
  6
Continuous
 62
     7
370
    25
100
AcDbCircle
 10
688.7388443936
 20
590.8958226929
 30
0.0
 40
17.60000000000012
100
AcDbArc
 50
207.9531868834
 51
231.9423049492
  0
ARC
  5
132
330
1F
100
AcDbEntity
  8
0
  6
Continuous
 62
     7
370
    25
100
AcDbCircle
 10
688.7388443936
 20
590.8958226929
 30
0.0
 40
17.60000000000013
100
AcDbArc
 50
248.3662117989
 51
292.6012741774
  0
ARC
  5
133
330
1F
100
AcDbEntity
  8
0
  6
Continuous
 62
     7
370
    25
100
AcDbCircle
 10
688.7388443936
 20
590.8958226929
 30
0.0
 40
17.60000000000021
100
AcDbArc
 50
307.4387102895
 51
329.914091969
  0
ARC
  5
134
330
1F
100
AcDbEntity
  8
0
  6
Continuous
 62
     7
370
    25
100
AcDbCircle
 10
688.7388443936
 20
590.8958226929
 30
0.0
 40
17.60000000000019
100
AcDbArc
 50
33.0957362986
 51
52.0595698702
  0
ARC
  5
135
330
1F
100
AcDbEntity
  8
0
  6
Continuous
 62
     7
370
    25
100
AcDbCircle
 10
688.7388443936
 20
590.8958226929
 30
0.0
 40
17.60000000000008
100
AcDbArc
 50
68.2372110924
 51
112.1945424058
  0
ARC
  5
136
330
1F
100
AcDbEntity
  8
0
  6
Continuous
 62
     7
370
    25
100
AcDbCircle
 10
688.7388443936
 20
590.8958226929
 30
0.0
 40
17.60000000000007
100
AcDbArc
 50
128.1352663927
 51
152.0468131166
  0
LWPOLYLINE
  5
137
330
1F
100
AcDbEntity
  8
0
  6
Continuous
 62
     7
370
    25
100
AcDbPolyline
 90
        9
 70
   128
 43
0.0
 10
501.0854678212
 20
582.6458226929
 10
501.5079518874
 20
583.2220389858
 10
502.1016756881
 20
583.6867558865
 10
502.8513372048
 20
584.0279962658
 10
503.7376154422
 20
584.2369653495
 10
504.7376683884
 20
584.3082773862
 10
505.8257217205
 20
584.2400944538
 10
506.9737330853
 20
584.0341738282
 10
508.1521148338
 20
583.6958226929
  0
LWPOLYLINE
  5
138
330
1F
100
AcDbEntity
  8
0
  6
Continuous
 62
     7
370
    25
100
AcDbPolyline
 90
        9
 70
   128
 43
0.0
 10
673.192220966
 20
582.6458226929
 10
672.7697368998
 20
583.2220389858
 10
672.176013099
 20
583.6867558865
 10
671.4263515824
 20
584.0279962658
 10
670.540073345
 20
584.2369653495
 10
669.5400203988
 20
584.3082773862
 10
668.4519670667
 20
584.2400944538
 10
667.3039557019
 20
584.0341738282
 10
666.1255739534
 20
583.6958226929
  0
SPLINE
  5
139
330
1F
100
AcDbEntity
  8
0
  6
Continuous
 62
     7
370
    25
100
AcDbSpline
210
0.0
220
0.0
230
1.0
 70
     8
 71
     3
 72
    26
 73
    22
 74
     0
 42
0.00000001
 43
0.00000001
 40
0.0
 40
0.0
 40
0.0
 40
0.0
 40
0.1250000000000003
 40
0.1250000000000003
 40
0.1875
 40
0.1875
 40
0.2499999999999997
 40
0.2499999999999997
 40
0.3749999999999996
 40
0.3749999999999996
 40
0.4374999999999996
 40
0.4374999999999996
 40
0.4999999999999997
 40
0.4999999999999997
 40
0.6249999999999998
 40
0.6249999999999998
 40
0.7499999999999998
 40
0.7499999999999998
 40
0.8749999999999999
 40
0.8749999999999999
 40
1.0
 40
1.0
 40
1.0
 40
1.0
 10
508.1521148337483
 20
598.0958226929185
 30
0.0
 10
508.5448899913496
 20
597.6517261498697
 30
0.0
 10
508.8688267489474
 20
597.158705463547
 30
0.0
 10
509.2596994414421
 20
596.3377413667911
 30
0.0
 10
509.3743755884199
 20
596.0495111330567
 30
0.0
 10
509.5713233494366
 20
595.4546999415742
 30
0.0
 10
509.6536643316474
 20
595.1483515758866
 30
0.0
 10
509.8588664423414
 20
594.2157976227023
 30
0.0
 10
509.9420958938383
 20
593.5716206674605
 30
0.0
 10
510.020210428351
 20
592.5752082478439
 30
0.0
 10
510.0382237656091
 20
592.2384268141702
 30
0.0
 10
510.0615451817548
 20
591.5685581772027
 30
0.0
 10
510.0670113116602
 20
591.2337582835895
 30
0.0
 10
510.0671197193249
 20
590.2297493516628
 30
0.0
 10
510.0467793404097
 20
589.5590382359586
 30
0.0
 10
509.9428975797895
 20
588.226604126516
 30
0.0
 10
509.8597400403087
 20
587.5812871083983
 30
0.0
 10
509.5866166377953
 20
586.3371340248877
 30
0.0
 10
509.3928990401281
 20
585.7345820500007
 30
0.0
 10
508.8697057776828
 20
584.6338786868107
 30
0.0
 10
508.5448178247025
 20
584.1398376397544
 30
0.0
 10
508.152114833757
 20
583.6958226929088
 30
0.0
  0
LWPOLYLINE
  5
13A
330
1F
100
AcDbEntity
  8
0
  6
Continuous
 62
     7
370
    25
100
AcDbPolyline
 90
        9
 70
   128
 43
0.0
 10
508.1521148337
 20
598.0958226929
 10
506.9737330853
 20
597.7574715577
 10
505.8257217205
 20
597.551550932
 10
504.7376683884
 20
597.4833679996
 10
503.7376154422
 20
597.5546800363
 10
502.8513372048
 20
597.7636491201
 10
502.1016756881
 20
598.1048894993
 10
501.5079518874
 20
598.5696064001
 10
501.0854678212
 20
599.1458226929
  0
LWPOLYLINE
  5
13B
330
1F
100
AcDbEntity
  8
0
  6
Continuous
 62
     7
370
    25
100
AcDbPolyline
 90
        9
 70
   128
 43
0.0
 10
666.1255739534
 20
598.0958226929
 10
667.3039557019
 20
597.7574715577
 10
668.4519670667
 20
597.551550932
 10
669.5400203988
 20
597.4833679996
 10
670.540073345
 20
597.5546800363
 10
671.4263515824
 20
597.7636491201
 10
672.176013099
 20
598.1048894993
 10
672.7697368998
 20
598.5696064
 10
673.192220966
 20
599.1458226929
  0
LINE
  5
13C
330
1F
100
AcDbEntity
  8
0
  6
Continuous
 62
     7
370
    25
100
AcDbLine
 10
677.1493489866
 20
604.1413349975
 30
0.0
 11
677.3382055711
 21
604.3005591255
 31
0.0
  0
SPLINE
  5
13D
330
1F
100
AcDbEntity
  8
0
  6
Continuous
 62
     7
370
    25
100
AcDbSpline
210
0.0
220
0.0
230
1.0
 70
     8
 71
     3
 72
    30
 73
    26
 74
     0
 42
0.00000001
 43
0.00000001
 40
0.0
 40
0.0
 40
0.0
 40
0.0
 40
0.1250000000000007
 40
0.1250000000000007
 40
0.1875000000000002
 40
0.1875000000000002
 40
0.2499999999999997
 40
0.2499999999999997
 40
0.3749999999999995
 40
0.3749999999999995
 40
0.4999999999999993
 40
0.4999999999999993
 40
0.5624999999999992
 40
0.5624999999999992
 40
0.6249999999999991
 40
0.6249999999999991
 40
0.7499999999999992
 40
0.7499999999999992
 40
0.8124999999999994
 40
0.8124999999999994
 40
0.8749999999999997
 40
0.8749999999999997
 40
0.9374999999999999
 40
0.9374999999999999
 40
1.0
 40
1.0
 40
1.0
 40
1.0
 10
666.1255739534286
 20
583.6958226929088
 30
0.0
 10
665.7324613253475
 20
584.1403008015209
 30
0.0
 10
665.4073057662661
 20
584.6349093331661
 30
0.0
 10
665.0146990456366
 20
585.4614745397906
 30
0.0
 10
664.9010181881831
 20
585.7486843443785
 30
0.0
 10
664.7066609310356
 20
586.3364381287349
 30
0.0
 10
664.6253023990139
 20
586.6383764394634
 30
0.0
 10
664.4203113575759
 20
587.5673263235524
 30
0.0
 10
664.3352594847638
 20
588.2220853504537
 30
0.0
 10
664.2309755656462
 20
589.5567102162541
 30
0.0
 10
664.2106128552782
 20
590.2272977253862
 30
0.0
 10
664.2106553579343
 20
591.2320045296046
 30
0.0
 10
664.2161068807582
 20
591.5670372273305
 30
0.0
 10
664.2394121273984
 20
592.2373718248322
 30
0.0
 10
664.2574238870201
 20
592.5743878445176
 30
0.0
 10
664.335564728585
 20
593.5715122184245
 30
0.0
 10
664.4188489659418
 20
594.2161364045846
 30
0.0
 10
664.6242599173572
 20
595.1493125487061
 30
0.0
 10
664.7069230474365
 20
595.4565162448872
 30
0.0
 10
664.9034405946638
 20
596.0497631854846
 30
0.0
 10
665.0165259573639
 20
596.3340987536394
 30
0.0
 10
665.2752955370606
 20
596.8787295821381
 30
0.0
 10
665.4209722801107
 20
597.1390262099179
 30
0.0
 10
665.7474672194178
 20
597.6361582958774
 30
0.0
 10
665.9289310127576
 20
597.8734856930328
 30
0.0
 10
666.125573953428
 20
598.0958226929092
 30
0.0
  0
ARC
  5
13E
330
1F
100
AcDbEntity
  8
0
  6
Continuous
 62
     7
370
    25
100
AcDbCircle
 10
587.1766695437
 20
377.4871677993
 30
0.0
 40
11.51156068271006
100
AcDbArc
 50
133.5946937535
 51
356.3477284925
  0
ARC
  5
13F
330
1F
100
AcDbEntity
  8
0
  6
Continuous
 62
     7
370
    25
100
AcDbCircle
 10
587.3181390497
 20
377.4778332339
 30
0.0
 40
11.36978388017757
100
AcDbArc
 50
356.3492597238
 51
47.2301808293
  0
LINE
  5
140
330
1F
100
AcDbEntity
  8
0
  6
Continuous
 62
     7
370
    25
100
AcDbLine
 10
598.664850577
 20
374.8364287225
 30
0.0
 11
598.6888443936
 21
375.5724588009
 31
0.0
  0
ARC
  5
141
330
1F
100
AcDbEntity
  8
0
  6
Continuous
 62
     7
370
    25
100
AcDbCircle
 10
587.1417588776
 20
375.6719455552
 30
0.0
 40
11.55334283614281
100
AcDbArc
 50
180.4933846131
 51
355.852852733
  0
ARC
  5
142
330
1F
100
AcDbEntity
  8
0
  6
Continuous
 62
     7
370
    25
100
AcDbCircle
 10
587.1388443936
 20
375.2280420286
 30
0.0
 40
11.11119944789827
100
AcDbArc
 50
251.3894551427
 51
288.6105448573
  0
CIRCLE
  5
143
330
1F
100
AcDbEntity
  8
0
  6
Continuous
 62
     7
370
    25
100
AcDbCircle
 10
688.7388443936
 20
590.8958226929
 30
0.0
 40
4.452105871057256
  0
CIRCLE
  5
144
330
1F
100
AcDbEntity
  8
0
  6
Continuous
 62
     7
370
    25
100
AcDbCircle
 10
688.7388443936
 20
590.8958226929
 30
0.0
 40
5.074569253689219
  0
CIRCLE
  5
145
330
1F
100
AcDbEntity
  8
0
  6
Continuous
 62
     7
370
    25
100
AcDbCircle
 10
688.7388443936
 20
590.8958226929
 30
0.0
 40
5.328914336627577
  0
CIRCLE
  5
146
330
1F
100
AcDbEntity
  8
0
  6
Continuous
 62
     7
370
    25
100
AcDbCircle
 10
688.7388443936
 20
590.8958226929
 30
0.0
 40
5.925127771161442
  0
CIRCLE
  5
147
330
1F
100
AcDbEntity
  8
0
  6
Continuous
 62
     7
370
    25
100
AcDbCircle
 10
688.7388443936
 20
590.8958226929
 30
0.0
 40
7.149999999999977
  0
LINE
  5
148
330
1F
100
AcDbEntity
  8
0
  6
Continuous
 62
     7
370
    25
100
AcDbLine
 10
688.7322714344
 20
593.5641474101
 30
0.0
 11
689.902202003
 21
593.2971971062
 31
0.0
  0
LINE
  5
149
330
1F
100
AcDbEntity
  8
0
  6
Continuous
 62
     7
370
    25
100
AcDbLine
 10
688.4541982012
 20
592.3454697345
 30
0.0
 11
688.7322714344
 21
593.5641474101
 31
0.0
  0
LINE
  5
14A
330
1F
100
AcDbEntity
  8
0
  6
Continuous
 62
     7
370
    25
100
AcDbLine
 10
686.3374699803
 20
592.0591803023
 30
0.0
 11
687.5561476559
 21
591.7811070691
 31
0.0
  0
LINE
  5
14B
330
1F
100
AcDbEntity
  8
0
  6
Continuous
 62
     7
370
    25
100
AcDbLine
 10
686.0705196764
 20
590.8892497337
 30
0.0
 11
686.3374699803
 21
592.0591803023
 31
0.0
  0
LINE
  5
14C
330
1F
100
AcDbEntity
  8
0
  6
Continuous
 62
     7
370
    25
100
AcDbLine
 10
687.289197352
 20
590.6111765005
 30
0.0
 11
686.0705196764
 21
590.8892497337
 31
0.0
  0
LINE
  5
14D
330
1F
100
AcDbEntity
  8
0
  6
Continuous
 62
     7
370
    25
100
AcDbLine
 10
687.5754867842
 20
588.4944482796
 30
0.0
 11
687.8535600174
 21
589.7131259552
 31
0.0
  0
LINE
  5
14E
330
1F
100
AcDbEntity
  8
0
  6
Continuous
 62
     7
370
    25
100
AcDbLine
 10
688.7454173528
 20
588.2274979757
 30
0.0
 11
687.5754867842
 21
588.4944482796
 31
0.0
  0
LINE
  5
14F
330
1F
100
AcDbEntity
  8
0
  6
Continuous
 62
     7
370
    25
100
AcDbLine
 10
689.023490586
 20
589.4461756513
 30
0.0
 11
688.7454173528
 21
588.2274979757
 31
0.0
  0
SPLINE
  5
150
330
1F
100
AcDbEntity
  8
0
  6
Continuous
 62
     7
370
    25
100
AcDbSpline
210
0.0
220
0.0
230
1.0
 70
     8
 71
     3
 72
    12
 73
     8
 74
     0
 42
0.00000001
 43
0.00000001
 40
0.0
 40
0.0
 40
0.0
 40
0.0
 40
0.2133534395476136
 40
0.4267919313634463
 40
0.6383539739091494
 40
0.8490950351927551
 40
1.0
 40
1.0
 40
1.0
 40
1.0
 10
689.9215411312724
 20
590.0105383167439
 30
0.0
 10
689.8383372571185
 20
590.0212136744851
 30
0.0
 10
689.6718963400074
 20
590.0425686456448
 30
0.0
 10
689.4253269743406
 20
589.968154329734
 30
0.0
 10
689.218790771794
 20
589.8230705772339
 30
0.0
 10
689.0815176582065
 20
589.6379945250482
 30
0.0
 10
689.04057488286
 20
589.5026508526313
 30
0.0
 10
689.0234905859868
 20
589.4461756513309
 30
0.0
  0
LINE
  5
151
330
1F
100
AcDbEntity
  8
0
  6
Continuous
 62
     7
370
    25
100
AcDbLine
 10
691.1402188069
 20
589.7324650835
 30
0.0
 11
689.9215411313
 21
590.0105383167
 31
0.0
  0
LINE
  5
152
330
1F
100
AcDbEntity
  8
0
  6
Continuous
 62
     7
370
    25
100
AcDbLine
 10
691.4071691108
 20
590.9023956521
 30
0.0
 11
691.1402188069
 21
589.7324650835
 31
0.0
  0
LINE
  5
153
330
1F
100
AcDbEntity
  8
0
  6
Continuous
 62
     7
370
    25
100
AcDbLine
 10
690.1884914352
 20
591.1804688853
 30
0.0
 11
691.4071691108
 21
590.9023956521
 31
0.0
  0
LINE
  5
154
330
1F
100
AcDbEntity
  8
0
  6
Continuous
 62
     7
370
    25
100
AcDbLine
 10
689.902202003
 20
593.2971971062
 30
0.0
 11
689.6241287698
 21
592.0785194306
 31
0.0
  0
CIRCLE
  5
155
330
1F
100
AcDbEntity
  8
0
  6
Continuous
 62
     7
370
    25
100
AcDbCircle
 10
688.7388443936
 20
590.8958226929
 30
0.0
 40
4.197433366238919
  0
SPLINE
  5
156
330
1F
100
AcDbEntity
  8
0
  6
Continuous
 62
     7
370
    25
100
AcDbSpline
210
0.0
220
0.0
230
1.0
 70
     8
 71
     3
 72
    12
 73
     8
 74
     0
 42
0.00000001
 43
0.00000001
 40
0.0
 40
0.0
 40
0.0
 40
0.0
 40
0.2133534395476131
 40
0.4267919313634476
 40
0.6383539739091537
 40
0.8490950351927532
 40
1.0
 40
1.0
 40
1.0
 40
1.0
 10
689.6241287697578
 20
592.0785194305886
 30
0.0
 10
689.6134534120165
 20
591.9953155564345
 30
0.0
 10
689.592098440857
 20
591.8288746393234
 30
0.0
 10
689.6665127567676
 20
591.5823052736565
 30
0.0
 10
689.8115965092676
 20
591.37576907111
 30
0.0
 10
689.9966725614535
 20
591.2384959575226
 30
0.0
 10
690.1320162338703
 20
591.1975531821762
 30
0.0
 10
690.1884914351707
 20
591.1804688853028
 30
0.0
  0
SPLINE
  5
157
330
1F
100
AcDbEntity
  8
0
  6
Continuous
 62
     7
370
    25
100
AcDbSpline
210
0.0
220
0.0
230
1.0
 70
     8
 71
     3
 72
    12
 73
     8
 74
     0
 42
0.00000001
 43
0.00000001
 40
0.0
 40
0.0
 40
0.0
 40
0.0
 40
0.2133534395476135
 40
0.4267919313634461
 40
0.638353973909149
 40
0.8490950351927548
 40
0.9999999999999999
 40
0.9999999999999999
 40
0.9999999999999999
 40
0.9999999999999999
 10
687.5561476559132
 20
591.7811070690738
 30
0.0
 10
687.6393515300671
 20
591.7704317113325
 30
0.0
 10
687.8057924471782
 20
591.749076740173
 30
0.0
 10
688.0523618128451
 20
591.8234910560836
 30
0.0
 10
688.2588980153917
 20
591.9685748085836
 30
0.0
 10
688.3961711289791
 20
592.1536508607695
 30
0.0
 10
688.4371139043255
 20
592.2889945331864
 30
0.0
 10
688.4541982011988
 20
592.3454697344868
 30
0.0
  0
SPLINE
  5
158
330
1F
100
AcDbEntity
  8
0
  6
Continuous
 62
     7
370
    25
100
AcDbSpline
210
0.0
220
0.0
230
1.0
 70
     8
 71
     3
 72
    12
 73
     8
 74
     0
 42
0.00000001
 43
0.00000001
 40
0.0
 40
0.0
 40
0.0
 40
0.0
 40
0.2133534395476132
 40
0.4267919313634478
 40
0.638353973909154
 40
0.8490950351927532
 40
1.0
 40
1.0
 40
1.0
 40
1.0
 10
687.8535600174279
 20
589.7131259552291
 30
0.0
 10
687.8642353751691
 20
589.7963298293831
 30
0.0
 10
687.8855903463287
 20
589.9627707464942
 30
0.0
 10
687.811176030418
 20
590.209340112161
 30
0.0
 10
687.6660922779179
 20
590.4158763147076
 30
0.0
 10
687.4810162257321
 20
590.5531494282952
 30
0.0
 10
687.3456725533152
 20
590.5940922036416
 30
0.0
 10
687.2891973520149
 20
590.6111765005147
 30
0.0
  0
LINE
  5
159
330
1F
100
AcDbEntity
  8
0
  6
Continuous
 62
     7
370
    25
100
AcDbLine
 10
486.702202003
 20
588.4944482796
 30
0.0
 11
485.5322714344
 21
588.2274979757
 31
0.0
  0
LINE
  5
15A
330
1F
100
AcDbEntity
  8
0
  6
Continuous
 62
     7
370
    25
100
AcDbLine
 10
486.4241287698
 20
589.7131259552
 30
0.0
 11
486.702202003
 21
588.4944482796
 31
0.0
  0
SPLINE
  5
15B
330
1F
100
AcDbEntity
  8
0
  6
Continuous
 62
     7
370
    25
100
AcDbSpline
210
0.0
220
0.0
230
1.0
 70
     8
 71
     3
 72
    12
 73
     8
 74
     0
 42
0.00000001
 43
0.00000001
 40
0.0
 40
0.0
 40
0.0
 40
0.0
 40
0.2133534395476119
 40
0.4267919313634478
 40
0.6383539739091497
 40
0.849095035192757
 40
0.9999999999999999
 40
0.9999999999999999
 40
0.9999999999999999
 40
0.9999999999999999
 10
486.9884914351707
 20
590.6111765005147
 30
0.0
 10
486.9088920842416
 20
590.5847040380525
 30
0.0
 10
486.7496616505055
 20
590.5317485600144
 30
0.0
 10
486.5597752332386
 20
590.3577454248837
 30
0.0
 10
486.4366138465166
 20
590.1374325314285
 30
0.0
 10
486.393207589707
 20
589.9111297482453
 30
0.0
 10
486.4150249739009
 20
589.7714221168743
 30
0.0
 10
486.4241287697577
 20
589.7131259552291
 30
0.0
  0
LINE
  5
15C
330
1F
100
AcDbEntity
  8
0
  6
Continuous
 62
     7
370
    25
100
AcDbLine
 10
488.2071691108
 20
590.8892497337
 30
0.0
 11
486.9884914352
 21
590.6111765005
 31
0.0
  0
LINE
  5
15D
330
1F
100
AcDbEntity
  8
0
  6
Continuous
 62
     7
370
    25
100
AcDbLine
 10
487.9402188069
 20
592.0591803023
 30
0.0
 11
488.2071691108
 21
590.8892497337
 31
0.0
  0
LINE
  5
15E
330
1F
100
AcDbEntity
  8
0
  6
Continuous
 62
     7
370
    25
100
AcDbLine
 10
486.7215411313
 20
591.7811070691
 30
0.0
 11
487.9402188069
 21
592.0591803023
 31
0.0
  0
SPLINE
  5
15F
330
1F
100
AcDbEntity
  8
0
  6
Continuous
 62
     7
370
    25
100
AcDbSpline
210
0.0
220
0.0
230
1.0
 70
     8
 71
     3
 72
    12
 73
     8
 74
     0
 42
0.00000001
 43
0.00000001
 40
0.0
 40
0.0
 40
0.0
 40
0.0
 40
0.2133534395476159
 40
0.4267919313634425
 40
0.6383539739091564
 40
0.849095035192758
 40
1.0
 40
1.0
 40
1.0
 40
1.0
 10
485.8234905859868
 20
592.3454697344868
 30
0.0
 10
485.8499630484492
 20
592.2658703835577
 30
0.0
 10
485.9029185264871
 20
592.1066399498216
 30
0.0
 10
486.076921661618
 20
591.9167535325547
 30
0.0
 10
486.297234555073
 20
591.7935921458327
 30
0.0
 10
486.5235373382563
 20
591.7501858890232
 30
0.0
 10
486.6632449696273
 20
591.772003273217
 30
0.0
 10
486.7215411312725
 20
591.7811070690738
 30
0.0
  0
LINE
  5
160
330
1F
100
AcDbEntity
  8
0
  6
Continuous
 62
     7
370
    25
100
AcDbLine
 10
485.5454173528
 20
593.5641474101
 30
0.0
 11
485.823490586
 21
592.3454697345
 31
0.0
  0
LINE
  5
161
330
1F
100
AcDbEntity
  8
0
  6
Continuous
 62
     7
370
    25
100
AcDbLine
 10
484.3754867842
 20
593.2971971062
 30
0.0
 11
485.5454173528
 21
593.5641474101
 31
0.0
  0
LINE
  5
162
330
1F
100
AcDbEntity
  8
0
  6
Continuous
 62
     7
370
    25
100
AcDbLine
 10
484.6535600174
 20
592.0785194306
 30
0.0
 11
484.3754867842
 21
593.2971971062
 31
0.0
  0
SPLINE
  5
163
330
1F
100
AcDbEntity
  8
0
  6
Continuous
 62
     7
370
    25
100
AcDbSpline
210
0.0
220
0.0
230
1.0
 70
     8
 71
     3
 72
    12
 73
     8
 74
     0
 42
0.00000001
 43
0.00000001
 40
0.0
 40
0.0
 40
0.0
 40
0.0
 40
0.213353439547612
 40
0.426791931363448
 40
0.63835397390915
 40
0.8490950351927569
 40
1.0
 40
1.0
 40
1.0
 40
1.0
 10
484.0891973520148
 20
591.1804688853028
 30
0.0
 10
484.1687967029438
 20
591.2069413477653
 30
0.0
 10
484.32802713668
 20
591.2598968258031
 30
0.0
 10
484.5179135539469
 20
591.4338999609341
 30
0.0
 10
484.6410749406689
 20
591.6542128543891
 30
0.0
 10
484.6844811974784
 20
591.8805156375723
 30
0.0
 10
484.6626638132847
 20
592.0202232689434
 30
0.0
 10
484.6535600174278
 20
592.0785194305886
 30
0.0
  0
LINE
  5
164
330
1F
100
AcDbEntity
  8
0
  6
Continuous
 62
     7
370
    25
100
AcDbLine
 10
482.8705196764
 20
590.9023956521
 30
0.0
 11
484.089197352
 21
591.1804688853
 31
0.0
  0
LINE
  5
165
330
1F
100
AcDbEntity
  8
0
  6
Continuous
 62
     7
370
    25
100
AcDbLine
 10
483.1374699803
 20
589.7324650835
 30
0.0
 11
482.8705196764
 21
590.9023956521
 31
0.0
  0
LINE
  5
166
330
1F
100
AcDbEntity
  8
0
  6
Continuous
 62
     7
370
    25
100
AcDbLine
 10
484.3561476559
 20
590.0105383167
 30
0.0
 11
483.1374699803
 21
589.7324650835
 31
0.0
  0
LINE
  5
167
330
1F
100
AcDbEntity
  8
0
  6
Continuous
 62
     7
370
    25
100
AcDbLine
 10
485.5322714344
 20
588.2274979757
 30
0.0
 11
485.2541982012
 21
589.4461756513
 31
0.0
  0
CIRCLE
  5
168
330
1F
100
AcDbEntity
  8
0
  6
Continuous
 62
     7
370
    25
100
AcDbCircle
 10
485.5388443936
 20
590.8958226929
 30
0.0
 40
4.197433366238863
  0
SPLINE
  5
169
330
1F
100
AcDbEntity
  8
0
  6
Continuous
 62
     7
370
    25
100
AcDbSpline
210
0.0
220
0.0
230
1.0
 70
     8
 71
     3
 72
    12
 73
     8
 74
     0
 42
0.00000001
 43
0.00000001
 40
0.0
 40
0.0
 40
0.0
 40
0.0
 40
0.2133534395476155
 40
0.4267919313634422
 40
0.6383539739091563
 40
0.8490950351927579
 40
0.9999999999999999
 40
0.9999999999999999
 40
0.9999999999999999
 40
0.9999999999999999
 10
485.2541982011987
 20
589.4461756513309
 30
0.0
 10
485.2277257387363
 20
589.5257750022599
 30
0.0
 10
485.1747702606983
 20
589.6850054359961
 30
0.0
 10
485.0007671255676
 20
589.8748918532631
 30
0.0
 10
484.7804542321124
 20
589.998053239985
 30
0.0
 10
484.5541514489292
 20
590.0414594967946
 30
0.0
 10
484.4144438175582
 20
590.0196421126008
 30
0.0
 10
484.356147655913
 20
590.0105383167439
 30
0.0
  0
CIRCLE
  5
16A
330
1F
100
AcDbEntity
  8
0
  6
Continuous
 62
     7
370
    25
100
AcDbCircle
 10
485.5388443936
 20
590.8958226929
 30
0.0
 40
4.452105871057256
  0
CIRCLE
  5
16B
330
1F
100
AcDbEntity
  8
0
  6
Continuous
 62
     7
370
    25
100
AcDbCircle
 10
485.5388443936
 20
590.8958226929
 30
0.0
 40
5.074569253689106
  0
CIRCLE
  5
16C
330
1F
100
AcDbEntity
  8
0
  6
Continuous
 62
     7
370
    25
100
AcDbCircle
 10
485.5388443936
 20
590.8958226929
 30
0.0
 40
5.328914336627577
  0
CIRCLE
  5
16D
330
1F
100
AcDbEntity
  8
0
  6
Continuous
 62
     7
370
    25
100
AcDbCircle
 10
485.5388443936
 20
590.8958226929
 30
0.0
 40
5.925127771161328
  0
CIRCLE
  5
16E
330
1F
100
AcDbEntity
  8
0
  6
Continuous
 62
     7
370
    25
100
AcDbCircle
 10
485.5388443936
 20
590.8958226929
 30
0.0
 40
7.149999999999977
  0
SPLINE
  5
16F
330
1F
100
AcDbEntity
  8
0
  6
Continuous
 62
     7
370
    25
100
AcDbSpline
210
0.0
220
0.0
230
1.0
 70
     8
 71
     3
 72
    11
 73
     7
 74
     0
 42
0.00000001
 43
0.00000001
 40
0.0
 40
0.0
 40
0.0
 40
0.0
 40
0.2200386424382255
 40
0.6637869905998169
 40
0.8890365590789576
 40
1.0
 40
1.0
 40
1.0
 40
1.0
 10
478.8612542490008
 20
585.1209256747862
 30
0.0
 10
478.6570327859993
 20
585.385944286045
 30
0.0
 10
478.0409612231158
 20
586.1854216163498
 30
0.0
 10
477.5174118720986
 20
587.4485908868776
 30
0.0
 10
477.2657826723375
 20
588.6151607002017
 30
0.0
 10
477.2864898670598
 20
589.1264404988611
 30
0.0
 10
477.2933240510859
 20
589.2951828263334
 30
0.0
  0
SPLINE
  5
170
330
1F
100
AcDbEntity
  8
0
  6
Continuous
 62
     7
370
    25
100
AcDbSpline
210
0.0
220
0.0
230
1.0
 70
     8
 71
     3
 72
     9
 73
     5
 74
     0
 42
0.00000001
 43
0.00000001
 40
0.0
 40
0.0
 40
0.0
 40
0.0
 40
0.9209630919903056
 40
1.0
 40
1.0
 40
1.0
 40
1.0
 10
477.2212118857535
 20
585.4412489504197
 30
0.0
 10
477.7356334236264
 20
585.3844218915012
 30
0.0
 10
478.2942025371412
 20
585.3227179433052
 30
0.0
 10
478.8197190488105
 20
585.1357064824172
 30
0.0
 10
478.8612542490009
 20
585.1209256747862
 30
0.0
  0
SPLINE
  5
171
330
1F
100
AcDbEntity
  8
0
  6
Continuous
 62
     7
370
    25
100
AcDbSpline
210
0.0
220
0.0
230
1.0
 70
     8
 71
     3
 72
    10
 73
     6
 74
     0
 42
0.00000001
 43
0.00000001
 40
0.0
 40
0.0
 40
0.0
 40
0.0
 40
0.2596150688488836
 40
0.629760644481066
 40
0.9999999999999999
 40
0.9999999999999999
 40
0.9999999999999999
 40
0.9999999999999999
 10
430.0460509318163
 20
588.0328065194088
 30
0.0
 10
434.1238711505393
 20
587.7330523823103
 30
0.0
 10
444.0156339839046
 20
587.0059244871463
 30
0.0
 10
459.7452066665778
 20
586.1800776172561
 30
0.0
 10
471.3953849278425
 20
585.6875459679904
 30
0.0
 10
477.2212118857535
 20
585.4412489504197
 30
0.0
  0
SPLINE
  5
172
330
1F
100
AcDbEntity
  8
0
  6
Continuous
 62
     7
370
    25
100
AcDbSpline
210
0.0
220
0.0
230
1.0
 70
     8
 71
     3
 72
    11
 73
     7
 74
     0
 42
0.00000001
 43
0.00000001
 40
0.0
 40
0.0
 40
0.0
 40
0.0
 40
0.061464119541392
 40
0.4999988937835378
 40
0.9375097801832794
 40
1.0
 40
1.0
 40
1.0
 40
1.0
 10
430.0460509318165
 20
593.7588388664108
 30
0.0
 10
430.0343817356141
 20
593.6423818939587
 30
0.0
 10
429.9394550493447
 20
592.6950266266274
 30
0.0
 10
429.8557522220786
 20
590.8977824281792
 30
0.0
 10
429.9393221455987
 20
589.0985844039384
 30
0.0
 10
430.034193850644
 20
588.1512095795052
 30
0.0
 10
430.0460509318163
 20
588.0328065194088
 30
0.0
  0
SPLINE
  5
173
330
1F
100
AcDbEntity
  8
0
  6
Continuous
 62
     7
370
    25
100
AcDbSpline
210
0.0
220
0.0
230
1.0
 70
     8
 71
     3
 72
    10
 73
     6
 74
     0
 42
0.00000001
 43
0.00000001
 40
0.0
 40
0.0
 40
0.0
 40
0.0
 40
0.2594618540778875
 40
0.6296073956705976
 40
1.0
 40
1.0
 40
1.0
 40
1.0
 10
477.2212118857535
 20
596.3503964353979
 30
0.0
 10
473.138343647658
 20
596.1830121258723
 30
0.0
 10
463.2308986885935
 20
595.7768391276445
 30
0.0
 10
447.4996021271241
 20
594.9900557699142
 30
0.0
 10
435.8651951769127
 20
594.1693357720727
 30
0.0
 10
430.0460509318165
 20
593.7588388664108
 30
0.0
  0
SPLINE
  5
174
330
1F
100
AcDbEntity
  8
0
  6
Continuous
 62
     7
370
    25
100
AcDbSpline
210
0.0
220
0.0
230
1.0
 70
     8
 71
     3
 72
     9
 73
     5
 74
     0
 42
0.00000001
 43
0.00000001
 40
0.0
 40
0.0
 40
0.0
 40
0.0
 40
0.0790369080192139
 40
1.0
 40
1.0
 40
1.0
 40
1.0
 10
478.8612542490001
 20
596.6707197110312
 30
0.0
 10
478.8197190488047
 20
596.6559389033985
 30
0.0
 10
478.2942025371355
 20
596.4689274425107
 30
0.0
 10
477.7356334236209
 20
596.4072234943153
 30
0.0
 10
477.2212118857535
 20
596.3503964353979
 30
0.0
  0
SPLINE
  5
175
330
1F
100
AcDbEntity
  8
0
  6
Continuous
 62
     7
370
    25
100
AcDbSpline
210
0.0
220
0.0
230
1.0
 70
     8
 71
     3
 72
    11
 73
     7
 74
     0
 42
0.00000001
 43
0.00000001
 40
0.0
 40
0.0
 40
0.0
 40
0.0
 40
0.0728838064943292
 40
0.4140719411596029
 40
0.9209668754550567
 40
1.0
 40
1.0
 40
1.0
 40
1.0
 10
477.2933240510896
 20
592.4964625594694
 30
0.0
 10
477.285608901952
 20
592.6069089937084
 30
0.0
 10
477.2417771245874
 20
593.2343840340394
 30
0.0
 10
477.5862688360254
 20
594.6173760645044
 30
0.0
 10
478.225958185512
 20
595.887307582282
 30
0.0
 10
478.7857469349446
 20
596.5776082484549
 30
0.0
 10
478.8612542490001
 20
596.6707197110312
 30
0.0
  0
SPLINE
  5
176
330
1F
100
AcDbEntity
  8
0
  6
Continuous
 62
     7
370
    25
100
AcDbSpline
210
0.0
220
0.0
230
1.0
 70
     8
 71
     3
 72
    10
 73
     6
 74
     0
 42
0.00000001
 43
0.00000001
 40
0.0
 40
0.0
 40
0.0
 40
0.0
 40
0.3880207377811389
 40
0.979063776650686
 40
1.0
 40
1.0
 40
1.0
 40
1.0
 10
477.2933240510859
 20
589.2951828263334
 30
0.0
 10
477.3666385818452
 20
589.7060226881891
 30
0.0
 10
477.5516276671685
 20
590.7426642580376
 30
0.0
 10
477.4559207413376
 20
591.8364335796088
 30
0.0
 10
477.2987025900896
 20
592.4746294483283
 30
0.0
 10
477.2933240510896
 20
592.4964625594694
 30
0.0
  0
ARC
  5
177
330
1F
100
AcDbEntity
  8
0
  6
Continuous
 62
     7
370
    25
100
AcDbCircle
 10
485.5388443936
 20
590.8958226929
 30
0.0
 40
8.399443654264527
100
AcDbArc
 50
190.985757993
 51
169.0142420071
  0
SPLINE
  5
178
330
1F
100
AcDbEntity
  8
0
  6
Continuous
 62
     7
370
    25
100
AcDbSpline
210
0.0
220
0.0
230
1.0
 70
     8
 71
     3
 72
     9
 73
     5
 74
     0
 42
0.00000001
 43
0.00000001
 40
0.0
 40
0.0
 40
0.0
 40
0.0
 40
0.6817923421274312
 40
1.0
 40
1.0
 40
1.0
 40
1.0
 10
478.8612542490001
 20
596.6707197110312
 30
0.0
 10
479.0035178096431
 20
596.8606300661364
 30
0.0
 10
479.2121789398035
 20
597.13917581001
 30
0.0
 10
479.4416047736839
 20
597.3720801829529
 30
0.0
 10
479.5146098309385
 20
597.4461921379755
 30
0.0
  0
ARC
  5
179
330
1F
100
AcDbEntity
  8
0
  6
Continuous
 62
     7
370
    25
100
AcDbCircle
 10
485.5388443936
 20
590.8958226929
 30
0.0
 40
8.899367501836336
100
AcDbArc
 50
227.3959191961
 51
132.6040808039
  0
LINE
  5
17A
330
1F
100
AcDbEntity
  8
0
  6
Continuous
 62
     7
370
    25
100
AcDbLine
 10
479.5146098309
 20
584.3454532478
 30
0.0
 11
478.861254249
 21
585.1209256748
 31
0.0
  0
SPLINE
  5
17B
330
1F
100
AcDbEntity
  8
0
  6
Continuous
 62
     7
370
    25
100
AcDbSpline
210
0.0
220
0.0
230
1.0
 70
     8
 71
     3
 72
    10
 73
     6
 74
     0
 42
0.00000001
 43
0.00000001
 40
0.0
 40
0.0
 40
0.0
 40
0.0
 40
0.3702896688583046
 40
0.7405318123903298
 40
0.9999999999999999
 40
0.9999999999999999
 40
0.9999999999999999
 40
0.9999999999999999
 10
430.0345314686381
 20
594.201698447244
 30
0.0
 10
435.8545953148565
 20
594.5218894617703
 30
0.0
 10
447.4939760233601
 20
595.1622303954758
 30
0.0
 10
463.2128444301348
 20
596.0314647273392
 30
0.0
 10
473.1100182461446
 20
596.5802057289482
 30
0.0
 10
477.1880865666088
 20
596.8063110127802
 30
0.0
  0
ARC
  5
17C
330
1F
100
AcDbEntity
  8
0
  6
Continuous
 62
     7
370
    25
100
AcDbCircle
 10
469.9729973592
 20
596.0529246461
 30
0.0
 40
7.254316183359808
100
AcDbArc
 50
2.3501399448
 51
5.9611177313
  0
ARC
  5
17D
330
1F
100
AcDbEntity
  8
0
  6
Continuous
 62
     7
370
    25
100
AcDbCircle
 10
434.2950540098
 20
594.0909416232
 30
0.0
 40
4.261961918872747
100
AcDbArc
 50
178.5108705386
 51
184.4691613065
  0
SPLINE
  5
17E
330
1F
100
AcDbEntity
  8
0
  6
Continuous
 62
     7
370
    25
100
AcDbSpline
210
0.0
220
0.0
230
1.0
 70
     8
 71
     3
 72
    10
 73
     6
 74
     0
 42
0.00000001
 43
0.00000001
 40
0.0
 40
0.0
 40
0.0
 40
0.0
 40
0.3702717503651152
 40
0.7405122151371749
 40
1.0
 40
1.0
 40
1.0
 40
1.0
 10
477.1880865666088
 20
584.9853343730375
 30
0.0
 10
471.3684145049396
 20
585.3078628587056
 30
0.0
 10
459.7295621066427
 20
585.9528925784487
 30
0.0
 10
444.0104225226881
 20
586.8217070659276
 30
0.0
 10
434.1129250989894
 20
587.3657619766943
 30
0.0
 10
430.0345314686414
 20
587.5899469385735
 30
0.0
  0
ARC
  5
17F
330
1F
100
AcDbEntity
  8
0
  6
Continuous
 62
     7
370
    25
100
AcDbCircle
 10
434.2950540127
 20
587.7007037625
 30
0.0
 40
4.261961921795481
100
AcDbArc
 50
175.530838696
 51
181.4891294598
  0
ARC
  5
180
330
1F
100
AcDbEntity
  8
0
  6
Continuous
 62
     7
370
    25
100
AcDbCircle
 10
469.9729973591
 20
585.7387207397
 30
0.0
 40
7.254316183455341
100
AcDbArc
 50
354.0388822687
 51
357.6498600551
  0
SPLINE
  5
181
330
1F
100
AcDbEntity
  8
0
  6
Continuous
 62
     7
370
    25
100
AcDbSpline
210
0.0
220
0.0
230
1.0
 70
     8
 71
     3
 72
    12
 73
     8
 74
     0
 42
0.00000001
 43
0.00000001
 40
0.0
 40
0.0
 40
0.0
 40
0.0
 40
0.1224290494151349
 40
0.3423522449770471
 40
0.5614228816909413
 40
0.7807229538533572
 40
1.0
 40
1.0
 40
1.0
 40
1.0
 10
428.1103234989689
 20
588.1434808890651
 30
0.0
 10
428.1193275748328
 20
588.1411222046241
 30
0.0
 10
428.1445059585639
 20
588.1345265402992
 30
0.0
 10
428.3604936422086
 20
588.1175185725601
 30
0.0
 10
428.7963917719377
 20
588.0920075984058
 30
0.0
 10
429.3803173853678
 20
588.0624554158464
 30
0.0
 10
429.824147516936
 20
588.0426891389674
 30
0.0
 10
430.0460509318163
 20
588.0328065194088
 30
0.0
  0
SPLINE
  5
182
330
1F
100
AcDbEntity
  8
0
  6
Continuous
 62
     7
370
    25
100
AcDbSpline
210
0.0
220
0.0
230
1.0
 70
     8
 71
     3
 72
    11
 73
     7
 74
     0
 42
0.00000001
 43
0.00000001
 40
0.0
 40
0.0
 40
0.0
 40
0.0
 40
0.0800485240044433
 40
0.5000005853538798
 40
0.9209248322279645
 40
1.0
 40
1.0
 40
1.0
 40
1.0
 10
428.1103234989689
 20
588.1434808890651
 30
0.0
 10
428.110609743383
 20
588.2897253141657
 30
0.0
 10
428.1123976885876
 20
589.2031999729987
 30
0.0
 10
428.1136333854175
 20
590.8976095607574
 30
0.0
 10
428.1123956873226
 20
592.590236412612
 30
0.0
 10
428.1106064653546
 20
593.5036997882559
 30
0.0
 10
428.1103234989688
 20
593.6481644967471
 30
0.0
  0
SPLINE
  5
183
330
1F
100
AcDbEntity
  8
0
  6
Continuous
 62
     7
370
    25
100
AcDbSpline
210
0.0
220
0.0
230
1.0
 70
     8
 71
     3
 72
    12
 73
     8
 74
     0
 42
0.00000001
 43
0.00000001
 40
0.0
 40
0.0
 40
0.0
 40
0.0
 40
0.1130367476169362
 40
0.3328594693548023
 40
0.5544127937945006
 40
0.7774207483513244
 40
1.0
 40
1.0
 40
1.0
 40
1.0
 10
430.0460509318165
 20
593.7588388664108
 30
0.0
 10
429.9319800918296
 20
593.7538236207093
 30
0.0
 10
429.5960755292217
 20
593.7390552196536
 30
0.0
 10
429.062007672827
 20
593.7134630155443
 30
0.0
 10
428.5454820349398
 20
593.6855877526732
 30
0.0
 10
428.1885873177853
 20
593.6621458790827
 30
0.0
 10
428.1363947002669
 20
593.652821967323
 30
0.0
 10
428.1103234989688
 20
593.6481644967471
 30
0.0
  0
SPLINE
  5
184
330
1F
100
AcDbEntity
  8
0
  6
Continuous
 62
     7
370
    25
100
AcDbSpline
210
0.0
220
0.0
230
1.0
 70
     8
 71
     3
 72
     9
 73
     5
 74
     0
 42
0.00000001
 43
0.00000001
 40
0.0
 40
0.0
 40
0.0
 40
0.0
 40
0.500010612381544
 40
1.0
 40
1.0
 40
1.0
 40
1.0
 10
480.0142176797814
 20
583.913621558596
 30
0.0
 10
479.5844963129605
 20
584.2014620966892
 30
0.0
 10
478.7250718203999
 20
584.7771309544406
 30
0.0
 10
477.7004077351217
 20
584.9159342155275
 30
0.0
 10
477.1880865666088
 20
584.9853343730375
 30
0.0
  0
SPLINE
  5
185
330
1F
100
AcDbEntity
  8
0
  6
Continuous
 62
     7
370
    25
100
AcDbSpline
210
0.0
220
0.0
230
1.0
 70
     8
 71
     3
 72
     9
 73
     5
 74
     0
 42
0.00000001
 43
0.00000001
 40
0.0
 40
0.0
 40
0.0
 40
0.0
 40
0.9838702326459385
 40
1.0
 40
1.0
 40
1.0
 40
1.0
 10
479.5146098309385
 20
584.3454532478422
 30
0.0
 10
479.6759506458731
 20
584.2006208348233
 30
0.0
 10
479.8399365147216
 20
584.0534140099664
 30
0.0
 10
480.0114511880035
 20
583.9158405859199
 30
0.0
 10
480.0142176797814
 20
583.913621558596
 30
0.0
  0
SPLINE
  5
186
330
1F
100
AcDbEntity
  8
0
  6
Continuous
 62
     7
370
    25
100
AcDbSpline
210
0.0
220
0.0
230
1.0
 70
     8
 71
     3
 72
     9
 73
     5
 74
     0
 42
0.00000001
 43
0.00000001
 40
0.0
 40
0.0
 40
0.0
 40
0.0
 40
0.5055561057107305
 40
1.0
 40
1.0
 40
1.0
 40
1.0
 10
477.1880865666088
 20
596.8063110127802
 30
0.0
 10
477.7061460839418
 20
596.87696704705
 30
0.0
 10
478.7308780800171
 20
597.0167260836275
 30
0.0
 10
479.5896186487788
 20
597.5930593584233
 30
0.0
 10
480.0142176797814
 20
597.8780238272218
 30
0.0
  0
SPLINE
  5
187
330
1F
100
AcDbEntity
  8
0
  6
Continuous
 62
     7
370
    25
100
AcDbSpline
210
0.0
220
0.0
230
1.0
 70
     8
 71
     3
 72
     9
 73
     5
 74
     0
 42
0.00000001
 43
0.00000001
 40
0.0
 40
0.0
 40
0.0
 40
0.0
 40
0.0161297673533178
 40
0.9999999999999999
 40
0.9999999999999999
 40
0.9999999999999999
 40
0.9999999999999999
 10
480.0142176797814
 20
597.8780238272218
 30
0.0
 10
480.0114511880036
 20
597.8758047998978
 30
0.0
 10
479.8399365147175
 20
597.7382313758482
 30
0.0
 10
479.6759506458711
 20
597.591024550993
 30
0.0
 10
479.5146098309384
 20
597.4461921379755
 30
0.0
  0
SPLINE
  5
188
330
1F
100
AcDbEntity
  8
0
  6
Continuous
 62
     7
370
    25
100
AcDbSpline
210
0.0
220
0.0
230
1.0
 70
     8
 71
     3
 72
    12
 73
     8
 74
     0
 42
0.00000001
 43
0.00000001
 40
0.0
 40
0.0
 40
0.0
 40
0.0
 40
0.2230315344150378
 40
0.4461337558340359
 40
0.6675099896777023
 40
0.8870667292265011
 40
1.0
 40
1.0
 40
1.0
 40
1.0
 10
428.5826777640533
 20
594.1473275677955
 30
0.0
 10
428.6022115501792
 20
594.1454373205007
 30
0.0
 10
428.6412853134157
 20
594.1416562268214
 30
0.0
 10
428.9088744954719
 20
594.148599063092
 30
0.0
 10
429.296403579297
 20
594.1641878855819
 30
0.0
 10
429.69712569176
 20
594.1835251656461
 30
0.0
 10
429.9489851140179
 20
594.1970907668226
 30
0.0
 10
430.0345314686381
 20
594.201698447244
 30
0.0
  0
ARC
  5
189
330
1F
100
AcDbEntity
  8
0
  6
Continuous
 62
     7
370
    25
100
AcDbCircle
 10
428.6104233866
 20
593.6479979114
 30
0.0
 40
0.5000999153468566
100
AcDbArc
 50
93.1804119247
 51
179.9809145383
  0
SPLINE
  5
18A
330
1F
100
AcDbEntity
  8
0
  6
Continuous
 62
     7
370
    25
100
AcDbSpline
210
0.0
220
0.0
230
1.0
 70
     8
 71
     3
 72
    12
 73
     8
 74
     0
 42
0.00000001
 43
0.00000001
 40
0.0
 40
0.0
 40
0.0
 40
0.0
 40
0.2190444340109334
 40
0.4380981679380241
 40
0.6571027493691853
 40
0.8772791087290019
 40
1.0
 40
1.0
 40
1.0
 40
1.0
 10
430.0345314686414
 20
587.5899469385735
 30
0.0
 10
429.8681137278706
 20
587.5987757515234
 30
0.0
 10
429.5352711807715
 20
587.6164337522656
 30
0.0
 10
429.0971127381284
 20
587.6359522416745
 30
0.0
 10
428.7701469113687
 20
587.6472580253069
 30
0.0
 10
428.6083030343547
 20
587.6490818933835
 30
0.0
 10
428.5894317019424
 20
587.6455734640588
 30
0.0
 10
428.5826777640534
 20
587.6443178180222
 30
0.0
  0
ARC
  5
18B
330
1F
100
AcDbEntity
  8
0
  6
Continuous
 62
     7
370
    25
100
AcDbCircle
 10
428.6104233866
 20
588.1436474744
 30
0.0
 40
0.500099915347029
100
AcDbArc
 50
180.0190854623
 51
266.8195880753
  0
LINE
  5
18C
330
1F
100
AcDbEntity
  8
0
  6
Continuous
 62
     7
370
    25
100
AcDbLine
 10
477.1880865666
 20
596.8063110128
 30
0.0
 11
477.1611003849
 21
596.8776012881
 31
0.0
  0
LINE
  5
18D
330
1F
100
AcDbEntity
  8
0
  6
Continuous
 62
     7
370
    25
100
AcDbLine
 10
428.5779874034
 20
594.1517660209
 30
0.0
 11
428.5826777641
 21
594.1473275678
 31
0.0
  0
ELLIPSE
  5
18E
330
1F
100
AcDbEntity
  8
0
  6
Continuous
 62
     7
370
    25
100
AcDbEllipse
 10
430.0777589461
 20
594.2350584709
 30
0.0
 11
1.499999304622804
 21
0.0828726334387966
 31
0.0
210
0.0
220
0.0
230
1.0
 40
0.0174284859
 41
2.255125316694035
 42
3.15808304960648
  0
LINE
  5
18F
330
1F
100
AcDbEntity
  8
0
  6
Continuous
 62
     7
370
    25
100
AcDbLine
 10
432.5933736151
 20
594.4438180589
 30
0.0
 11
429.1284104057
 21
594.2029267799
 31
0.0
  0
LINE
  5
190
330
1F
100
AcDbEntity
  8
0
  6
Continuous
 62
     7
370
    25
100
AcDbLine
 10
432.5933736151
 20
594.4437196677
 30
0.0
 11
432.5933736151
 21
594.4438180589
 31
0.0
  0
ELLIPSE
  5
191
330
1F
100
AcDbEntity
  8
0
  6
Continuous
 62
     7
370
    25
100
AcDbEllipse
 10
442.0428600361
 20
594.7733657191
 30
0.0
 11
14.49999327802038
 21
0.8011021232406392
 31
0.0
210
0.0
220
0.0
230
1.0
 40
0.0174284859
 41
1.543516838852435
 42
2.279642175408257
  0
ELLIPSE
  5
192
330
1F
100
AcDbEntity
  8
0
  6
Continuous
 62
     7
370
    25
100
AcDbEllipse
 10
443.3638699516
 20
595.7236492684
 30
0.0
 11
35.70262504606012
 21
1.972514619921981
 31
0.0
210
0.0
220
0.0
230
1.0
 40
0.0174284859
 41
4.685109492442209
 42
5.167309992307954
  0
ELLIPSE
  5
193
330
1F
100
AcDbEntity
  8
0
  6
Continuous
 62
     7
370
    25
100
AcDbEllipse
 10
462.3840974237
 20
596.0960453281
 30
0.0
 11
7.499996523113964
 21
0.4143631671935282
 31
0.0
210
0.0
220
0.0
230
1.0
 40
0.0174284859
 41
1.834826681007688
 42
2.025717338717592
  0
LINE
  5
194
330
1F
100
AcDbEntity
  8
0
  6
Continuous
 62
     7
370
    25
100
AcDbLine
 10
460.4394450226
 20
595.9637008769
 30
0.0
 11
460.4198267653
 21
596.1140914215
 31
0.0
  0
SPLINE
  5
195
330
1F
100
AcDbEntity
  8
0
  6
Continuous
 62
     7
370
    25
100
AcDbSpline
210
0.0
220
0.0
230
1.0
 70
     8
 71
     3
 72
    10
 73
     6
 74
     0
 42
0.00000001
 43
0.00000001
 40
0.0
 40
0.0
 40
0.0
 40
0.0
 40
0.0186368637457253
 40
0.3939469944633057
 40
1.0
 40
1.0
 40
1.0
 40
1.0
 10
460.623216308339
 20
595.964187244184
 30
0.0
 10
460.6207601010903
 20
595.9640994937047
 30
0.0
 10
460.5688406646133
 20
595.9622446195117
 30
0.0
 10
460.4648418161354
 20
595.9595646381335
 30
0.0
 10
460.4491411587861
 20
595.9621217195311
 30
0.0
 10
460.4394450226425
 20
595.963700876939
 30
0.0
  0
LINE
  5
196
330
1F
100
AcDbEntity
  8
0
  6
Continuous
 62
     7
370
    25
100
AcDbLine
 10
477.1611003849
 20
596.8776012881
 30
0.0
 11
460.6232163083
 21
595.9641872442
 31
0.0
  0
LINE
  5
197
330
1F
100
AcDbEntity
  8
0
  6
Continuous
 62
     7
370
    25
100
AcDbLine
 10
460.6211505764
 20
585.8112544928
 30
0.0
 11
477.1550589999
 21
584.8980600306
 31
0.0
  0
SPLINE
  5
198
330
1F
100
AcDbEntity
  8
0
  6
Continuous
 62
     7
370
    25
100
AcDbSpline
210
0.0
220
0.0
230
1.0
 70
     8
 71
     3
 72
    11
 73
     7
 74
     0
 42
0.00000001
 43
0.00000001
 40
0.0
 40
0.0
 40
0.0
 40
0.0
 40
0.4177469294495291
 40
0.8392770662410922
 40
0.9817832068819584
 40
1.0
 40
1.0
 40
1.0
 40
1.0
 10
460.4374451357706
 20
585.8126039380921
 30
0.0
 10
460.4420821638026
 20
585.8136871292759
 30
0.0
 10
460.4513982138039
 20
585.8158633212589
 30
0.0
 10
460.5268946795542
 20
585.8146611443674
 30
0.0
 10
460.597154880126
 20
585.8121906170275
 30
0.0
 10
460.6187077167837
 20
585.8113497940705
 30
0.0
 10
460.6211505764138
 20
585.811254492812
 30
0.0
  0
LINE
  5
199
330
1F
100
AcDbEntity
  8
0
  6
Continuous
 62
     7
370
    25
100
AcDbLine
 10
460.4198267653
 20
585.6775539643
 30
0.0
 11
460.4374451358
 21
585.8126039381
 31
0.0
  0
ELLIPSE
  5
19A
330
1F
100
AcDbEntity
  8
0
  6
Continuous
 62
     7
370
    25
100
AcDbEllipse
 10
462.3840974237
 20
585.6956000577
 30
0.0
 11
7.499996523113964
 21
-0.4143631671934145
 31
0.0
210
0.0
220
0.0
230
1.0
 40
0.0174284859
 41
4.257467968461606
 42
4.448358626171673
  0
ELLIPSE
  5
19B
330
1F
100
AcDbEntity
  8
0
  6
Continuous
 62
     7
370
    25
100
AcDbEllipse
 10
443.3638699516
 20
586.0679961174
 30
0.0
 11
35.70262504606006
 21
-1.972514619921981
 31
0.0
210
0.0
220
0.0
230
1.0
 40
0.0174284859
 41
1.11587531487179
 42
1.598075814737374
  0
ELLIPSE
  5
19C
330
1F
100
AcDbEntity
  8
0
  6
Continuous
 62
     7
370
    25
100
AcDbEllipse
 10
442.0428600361
 20
587.0182796667
 30
0.0
 11
14.49999327802038
 21
-0.8011021232406392
 31
0.0
210
0.0
220
0.0
230
1.0
 40
0.0174284859
 41
4.003543131771453
 42
4.739668468327176
  0
LINE
  5
19D
330
1F
100
AcDbEntity
  8
0
  6
Continuous
 62
     7
370
    25
100
AcDbLine
 10
432.5933736151
 20
587.3478273269
 30
0.0
 11
432.5933736151
 21
587.3479257182
 31
0.0
  0
LINE
  5
19E
330
1F
100
AcDbEntity
  8
0
  6
Continuous
 62
     7
370
    25
100
AcDbLine
 10
429.1284104057
 20
587.5887186059
 30
0.0
 11
432.5933736151
 21
587.3478273269
 31
0.0
  0
ELLIPSE
  5
19F
330
1F
100
AcDbEntity
  8
0
  6
Continuous
 62
     7
370
    25
100
AcDbEllipse
 10
430.0777589461
 20
587.556586915
 30
0.0
 11
1.499999304622804
 21
-0.0828726334387966
 31
0.0
210
0.0
220
0.0
230
1.0
 40
0.0174284859
 41
3.125102257573765
 42
4.028059990487369
  0
LINE
  5
1A0
330
1F
100
AcDbEntity
  8
0
  6
Continuous
 62
     7
370
    25
100
AcDbLine
 10
428.5826777641
 20
587.644317818
 30
0.0
 11
428.5779874034
 21
587.639879365
 31
0.0
  0
LINE
  5
1A1
330
1F
100
AcDbEntity
  8
0
  6
Continuous
 62
     7
370
    25
100
AcDbLine
 10
477.1550589999
 20
584.8980600306
 30
0.0
 11
477.1880865666
 21
584.985334373
 31
0.0
  0
SPLINE
  5
1A2
330
1F
100
AcDbEntity
  8
0
  6
Continuous
 62
     7
370
    25
100
AcDbSpline
210
0.0
220
0.0
230
1.0
 70
     8
 71
     3
 72
     9
 73
     5
 74
     0
 42
0.00000001
 43
0.00000001
 40
0.0
 40
0.0
 40
0.0
 40
0.0
 40
0.5001021276704695
 40
1.0
 40
1.0
 40
1.0
 40
1.0
 10
479.9809988137259
 20
597.9437152741818
 30
0.0
 10
479.5520510380186
 20
597.6571896400934
 30
0.0
 10
478.694330680568
 20
597.0842553967956
 30
0.0
 10
477.6721075519529
 20
596.9464766103414
 30
0.0
 10
477.1611003849122
 20
596.8776012881408
 30
0.0
  0
LINE
  5
1A3
330
1F
100
AcDbEntity
  8
0
  6
Continuous
 62
     7
370
    25
100
AcDbLine
 10
479.9809988137
 20
597.9437152742
 30
0.0
 11
480.0142176798
 21
597.8780238272
 31
0.0
  0
SPLINE
  5
1A4
330
1F
100
AcDbEntity
  8
0
  6
Continuous
 62
     7
370
    25
100
AcDbSpline
210
0.0
220
0.0
230
1.0
 70
     8
 71
     3
 72
     9
 73
     5
 74
     0
 42
0.00000001
 43
0.00000001
 40
0.0
 40
0.0
 40
0.0
 40
0.0
 40
0.400722737156528
 40
1.0
 40
1.0
 40
1.0
 40
1.0
 10
477.1550589998606
 20
584.8980600305974
 30
0.0
 10
477.5637451232698
 20
584.8496527685319
 30
0.0
 10
478.5836176823096
 20
584.7288528797881
 30
0.0
 10
479.4526937261355
 20
584.1687456064344
 30
0.0
 10
479.9735112388824
 20
583.8330860527603
 30
0.0
  0
LINE
  5
1A5
330
1F
100
AcDbEntity
  8
0
  6
Continuous
 62
     7
370
    25
100
AcDbLine
 10
480.0142176798
 20
583.9136215586
 30
0.0
 11
479.9735112389
 21
583.8330860528
 31
0.0
  0
ARC
  5
1A6
330
1F
100
AcDbEntity
  8
0
  6
Continuous
 62
     7
370
    25
100
AcDbCircle
 10
485.5388443936
 20
590.8958226929
 30
0.0
 40
8.975658044222099
100
AcDbArc
 50
65.1648853947
 51
128.2586979829
  0
LWPOLYLINE
  5
1A7
330
1F
100
AcDbEntity
  8
0
  6
Continuous
 62
     7
370
    25
100
AcDbPolyline
 90
        3
 70
   128
 43
0.0
 10
489.4741578178
 20
599.1464824162
 10
489.3695762537
 20
599.080230005
 10
489.308695711
 20
599.0414140386
  0
ARC
  5
1A8
330
1F
100
AcDbEntity
  8
0
  6
Continuous
 62
     7
370
    25
100
AcDbCircle
 10
485.5388443936
 20
590.8958226929
 30
0.0
 40
9.141120151092185
100
AcDbArc
 50
295.4997164176
 51
64.5002794289
  0
LWPOLYLINE
  5
1A9
330
1F
100
AcDbEntity
  8
0
  6
Continuous
 62
     7
370
    25
100
AcDbPolyline
 90
        3
 70
   128
 43
0.0
 10
489.3249886214
 20
582.7398252765
 10
489.3695762537
 20
582.7114153809
 10
489.4741578181
 20
582.6451629694
  0
ARC
  5
1AA
330
1F
100
AcDbEntity
  8
0
  6
Continuous
 62
     7
370
    25
100
AcDbCircle
 10
485.5388443936
 20
590.8958226929
 30
0.0
 40
8.991950954660766
100
AcDbArc
 50
231.762407147
 51
294.9014811666
  0
LINE
  5
1AB
330
1F
100
AcDbEntity
  8
0
  6
Continuous
 62
     7
370
    25
100
AcDbLine
 10
428.1056331383
 20
588.139042436
 30
0.0
 11
428.110323499
 21
588.1434808891
 31
0.0
  0
LINE
  5
1AC
330
1F
100
AcDbEntity
  8
0
  6
Continuous
 62
     7
370
    25
100
AcDbLine
 10
428.1056331383
 20
593.6526029498
 30
0.0
 11
428.1056331383
 21
588.139042436
 31
0.0
  0
LINE
  5
1AD
330
1F
100
AcDbEntity
  8
0
  6
Continuous
 62
     7
370
    25
100
AcDbLine
 10
428.110323499
 20
593.6481644967
 30
0.0
 11
428.1056331383
 21
593.6526029498
 31
0.0
  0
ARC
  5
1AE
330
1F
100
AcDbEntity
  8
0
  6
Continuous
 62
     7
370
    25
100
AcDbCircle
 10
428.6057330259
 20
588.1392090214
 30
0.0
 40
0.5000999153468565
100
AcDbArc
 50
180.0190854617
 51
266.8195880753
  0
ARC
  5
1AF
330
1F
100
AcDbEntity
  8
0
  6
Continuous
 62
     7
370
    25
100
AcDbCircle
 10
428.6057330259
 20
593.6524363645
 30
0.0
 40
0.5000999153468566
100
AcDbArc
 50
93.1804119247
 51
179.9809145383
  0
LINE
  5
1B0
330
1F
100
AcDbEntity
  8
0
  6
Continuous
 62
     7
370
    25
100
AcDbLine
 10
429.1284104057
 20
594.2029267799
 30
0.0
 11
429.1213026749
 21
594.2025597433
 31
0.0
  0
LINE
  5
1B1
330
1F
100
AcDbEntity
  8
0
  6
Continuous
 62
     7
370
    25
100
AcDbLine
 10
429.1284104057
 20
587.5887186059
 30
0.0
 11
429.1213026749
 21
587.5890856426
 31
0.0
  0
SPLINE
  5
1B2
330
1F
100
AcDbEntity
  8
0
  6
Continuous
 62
     7
370
    25
100
AcDbSpline
210
0.0
220
0.0
230
1.0
 70
     8
 71
     3
 72
    12
 73
     8
 74
     0
 42
0.00000001
 43
0.00000001
 40
0.0
 40
0.0
 40
0.0
 40
0.0
 40
0.1662426524176545
 40
0.3368059756191297
 40
0.6054181071254586
 40
0.8801435087136193
 40
1.0
 40
1.0
 40
1.0
 40
1.0
 10
479.4167851462822
 20
602.5724830745797
 30
0.0
 10
480.0544666668183
 20
602.4169978990967
 30
0.0
 10
481.3464031436189
 20
602.1019864657416
 30
0.0
 10
483.5305895259683
 20
601.439021360743
 30
0.0
 10
485.892563869528
 20
600.5868264439376
 30
0.0
 10
487.8581014314206
 20
599.7441977653255
 30
0.0
 10
488.9718764162163
 20
599.2063396726304
 30
0.0
 10
489.3101918943738
 20
599.0429622218031
 30
0.0
  0
LINE
  5
1B3
330
1F
100
AcDbEntity
  8
0
  6
Continuous
 62
     7
370
    25
100
AcDbLine
 10
479.4167851463
 20
602.5724830746
 30
0.0
 11
479.4326432232
 21
602.6419566061
 31
0.0
  0
ARC
  5
1B4
330
1F
100
AcDbEntity
  8
0
  6
Continuous
 62
     7
370
    25
100
AcDbCircle
 10
468.7108649867
 20
555.6703217939
 30
0.0
 40
48.17977797259056
100
AcDbArc
 50
64.4718479123
 51
77.1419190681
  0
LWPOLYLINE
  5
1B5
330
1F
100
AcDbEntity
  8
0
  6
Continuous
 62
     7
370
    25
100
AcDbPolyline
 90
        3
 70
   128
 43
0.0
 10
489.3101918944
 20
599.0429622218
 10
489.3695797447
 20
599.0804859254
 10
489.4741578175
 20
599.1464839553
  0
SPLINE
  5
1B6
330
1F
100
AcDbEntity
  8
0
  6
Continuous
 62
     7
370
    25
100
AcDbSpline
210
0.0
220
0.0
230
1.0
 70
     8
 71
     3
 72
    11
 73
     7
 74
     0
 42
0.00000001
 43
0.00000001
 40
0.0
 40
0.0
 40
0.0
 40
0.0
 40
0.1345990676765959
 40
0.4126978815969493
 40
0.6969472592954598
 40
1.0
 40
1.0
 40
1.0
 40
1.0
 10
489.3094743174167
 20
599.0422206557292
 30
0.0
 10
488.8801682971683
 20
599.2331045408903
 30
0.0
 10
487.5638613704442
 20
599.8183788403101
 30
0.0
 10
485.1880513195609
 20
600.4408467243337
 30
0.0
 10
482.1343619346799
 20
600.8173494068341
 30
0.0
 10
479.9433320263191
 20
600.8444907351669
 30
0.0
 10
478.8127425087811
 20
600.8584958846119
 30
0.0
  0
ARC
  5
1B7
330
1F
100
AcDbEntity
  8
0
  6
Continuous
 62
     7
370
    25
100
AcDbCircle
 10
483.3052735018
 20
600.23867184
 30
0.0
 40
4.535087272516824
100
AcDbArc
 50
149.0284626407
 51
172.1446266983
  0
LINE
  5
1B8
330
1F
100
AcDbEntity
  8
0
  6
Continuous
 62
     7
370
    25
100
AcDbLine
 10
489.3101918944
 20
599.0429622218
 30
0.0
 11
489.3094743174
 21
599.0422206557
 31
0.0
  0
LINE
  5
1B9
330
1F
100
AcDbEntity
  8
0
  6
Continuous
 62
     7
370
    25
100
AcDbLine
 10
479.9809988137
 20
597.9437152742
 30
0.0
 11
477.7831268936
 21
600.7308321485
 31
0.0
  0
ARC
  5
1BA
330
1F
100
AcDbEntity
  8
0
  6
Continuous
 62
     7
370
    25
100
AcDbCircle
 10
485.5388443936
 20
590.8958226929
 30
0.0
 40
12.52511736202725
100
AcDbArc
 50
127.8583068702
 51
128.2586979829
  0
LINE
  5
1BB
330
1F
100
AcDbEntity
  8
0
  6
Continuous
 62
     7
370
    25
100
AcDbLine
 10
478.8127425088
 20
600.8584958846
 30
0.0
 11
477.8520441599
 21
600.7847896309
 31
0.0
  0
LINE
  5
1BC
330
1F
100
AcDbEntity
  8
0
  6
Continuous
 62
     7
370
    25
100
AcDbLine
 10
489.308695711
 20
599.0414140386
 30
0.0
 11
489.3094743174
 21
599.0422206557
 31
0.0
  0
LINE
  5
1BD
330
1F
100
AcDbEntity
  8
0
  6
Continuous
 62
     7
370
    25
100
AcDbLine
 10
474.8652738331
 20
600.3056681439
 30
0.0
 11
476.9653563492
 21
600.4216590926
 31
0.0
  0
LINE
  5
1BE
330
1F
100
AcDbEntity
  8
0
  6
Continuous
 62
     7
370
    25
100
AcDbLine
 10
477.1611003849
 20
596.8776012881
 30
0.0
 11
476.9653563492
 21
600.4216590926
 31
0.0
  0
SPLINE
  5
1BF
330
1F
100
AcDbEntity
  8
0
  6
Continuous
 62
     7
370
    25
100
AcDbSpline
210
0.0
220
0.0
230
1.0
 70
     8
 71
     3
 72
    16
 73
    12
 74
     0
 42
0.00000001
 43
0.00000001
 40
0.0
 40
0.0
 40
0.0
 40
0.0
 40
0.2861254310575669
 40
0.7591203623085425
 40
0.8520758313858449
 40
0.9266344548631255
 40
0.9604862301433736
 40
0.9835335436569232
 40
0.9930756629548352
 40
0.9972242292023619
 40
1.0
 40
1.0
 40
1.0
 40
1.0
 10
473.4246054710332
 20
599.781524461894
 30
0.0
 10
472.1964586339095
 20
599.251457152542
 30
0.0
 10
468.9380580488253
 20
597.8451337564148
 30
0.0
 10
465.1404765942179
 20
596.8273217535303
 30
0.0
 10
462.3428149443134
 20
596.2654015357588
 30
0.0
 10
461.477682005419
 20
596.1108990198659
 30
0.0
 10
460.9520958366849
 20
596.0223783540355
 30
0.0
 10
460.7184335779709
 20
595.9832689703869
 30
0.0
 10
460.6407834308101
 20
595.9689490014173
 30
0.0
 10
460.6247017757749
 20
595.9652152627943
 30
0.0
 10
460.6236413878532
 20
595.9644814207111
 30
0.0
 10
460.623216308339
 20
595.964187244184
 30
0.0
  0
LINE
  5
1C0
330
1F
100
AcDbEntity
  8
0
  6
Continuous
 62
     7
370
    25
100
AcDbLine
 10
474.8652738331
 20
600.3056681439
 30
0.0
 11
473.424605471
 21
599.7815244619
 31
0.0
  0
ARC
  5
1C1
330
1F
100
AcDbEntity
  8
0
  6
Continuous
 62
     7
370
    25
100
AcDbCircle
 10
467.6211726799
 20
596.1724220811
 30
0.0
 40
6.834138728216845
100
AcDbArc
 50
31.8771071303
 51
46.9488007428
  0
SPLINE
  5
1C2
330
1F
100
AcDbEntity
  8
0
  6
Continuous
 62
     7
370
    25
100
AcDbSpline
210
0.0
220
0.0
230
1.0
 70
     8
 71
     3
 72
    10
 73
     6
 74
     0
 42
0.00000001
 43
0.00000001
 40
0.0
 40
0.0
 40
0.0
 40
0.0
 40
0.5975855365574454
 40
0.9790563563181981
 40
1.0
 40
1.0
 40
1.0
 40
1.0
 10
460.5131909886513
 20
595.9733141415234
 30
0.0
 10
460.5106718492979
 20
595.969574843797
 30
0.0
 10
460.5065446085172
 20
595.9634485522735
 30
0.0
 10
460.5809157350728
 20
595.9630719934169
 30
0.0
 10
460.6211236871771
 20
595.9641320724174
 30
0.0
 10
460.623216308339
 20
595.964187244184
 30
0.0
  0
SPLINE
  5
1C3
330
1F
100
AcDbEntity
  8
0
  6
Continuous
 62
     7
370
    25
100
AcDbSpline
210
0.0
220
0.0
230
1.0
 70
     8
 71
     3
 72
    14
 73
    10
 74
     0
 42
0.00000001
 43
0.00000001
 40
0.0
 40
0.0
 40
0.0
 40
0.0
 40
0.0129036569231464
 40
0.0519665716781148
 40
0.131889182426121
 40
0.2280032005552168
 40
0.4679440229400842
 40
0.7079115564493631
 40
0.9999999999999999
 40
0.9999999999999999
 40
0.9999999999999999
 40
0.9999999999999999
 10
460.5131909886513
 20
595.9733141415234
 30
0.0
 10
460.5466595651156
 20
595.9811591155847
 30
0.0
 10
460.6814467179483
 20
596.0127529815172
 30
0.0
 10
461.1207201629409
 20
596.115135028811
 30
0.0
 10
461.9321475811668
 20
596.3175365376281
 30
0.0
 10
463.5856247629873
 20
596.7845872183941
 30
0.0
 10
465.929914835231
 20
597.6220442777845
 30
0.0
 10
469.0750090117282
 20
599.0669845181349
 30
0.0
 10
471.1483076859208
 20
600.4223554009296
 30
0.0
 10
472.2865085686679
 20
601.1664278080792
 30
0.0
  0
LWPOLYLINE
  5
1C4
330
1F
100
AcDbEntity
  8
0
  6
Continuous
 62
     7
370
    25
100
AcDbPolyline
 90
        4
 70
   128
 43
0.0
 10
460.4936641746
 20
596.1244097178
 10
460.4959088102
 20
596.1070515709
 10
460.5048838442
 20
596.0376188248
 10
460.5131909887
 20
595.9733141415
  0
LINE
  5
1C5
330
1F
100
AcDbEntity
  8
0
  6
Continuous
 62
     7
370
    25
100
AcDbLine
 10
462.2817884584
 20
596.5539372211
 30
0.0
 11
460.4936641746
 21
596.1244097178
 31
0.0
  0
ARC
  5
1C6
330
1F
100
AcDbEntity
  8
0
  6
Continuous
 62
     7
370
    25
100
AcDbCircle
 10
454.0962300598
 20
626.9796308149
 30
0.0
 40
31.50755777528337
100
AcDbArc
 50
285.0579972479
 51
305.1719294169
  0
LINE
  5
1C7
330
1F
100
AcDbEntity
  8
0
  6
Continuous
 62
     7
370
    25
100
AcDbLine
 10
472.2865085687
 20
601.1664278081
 30
0.0
 11
472.2455886825
 21
601.2244958211
 31
0.0
  0
SPLINE
  5
1C8
330
1F
100
AcDbEntity
  8
0
  6
Continuous
 62
     7
370
    25
100
AcDbSpline
210
0.0
220
0.0
230
1.0
 70
     8
 71
     3
 72
     9
 73
     5
 74
     0
 42
0.00000001
 43
0.00000001
 40
0.0
 40
0.0
 40
0.0
 40
0.0
 40
0.4998978730609624
 40
1.0
 40
1.0
 40
1.0
 40
1.0
 10
476.965356349207
 20
600.4216590925848
 30
0.0
 10
477.1135512651027
 20
600.441625430587
 30
0.0
 10
477.4100016480347
 20
600.4815662646616
 30
0.0
 10
477.6587348768113
 20
600.6477322072324
 30
0.0
 10
477.783126893563
 20
600.7308321485366
 30
0.0
  0
ARC
  5
1C9
330
1F
100
AcDbEntity
  8
0
  6
Continuous
 62
     7
370
    25
100
AcDbCircle
 10
460.4118556738
 20
596.4630155813
 30
0.0
 40
0.5000763403842499
100
AcDbArc
 50
273.16262964
 51
281.6913635617
  0
ARC
  5
1CA
330
1F
100
AcDbEntity
  8
0
  6
Continuous
 62
     7
370
    25
100
AcDbCircle
 10
468.7108649867
 20
626.1213235919
 30
0.0
 40
48.10950076354644
100
AcDbArc
 50
282.8580809319
 51
283.1066633214
  0
SPLINE
  5
1CB
330
1F
100
AcDbEntity
  8
0
  6
Continuous
 62
     7
370
    25
100
AcDbSpline
210
0.0
220
0.0
230
1.0
 70
     8
 71
     3
 72
    12
 73
     8
 74
     0
 42
0.00000001
 43
0.00000001
 40
0.0
 40
0.0
 40
0.0
 40
0.0
 40
0.0460732444350178
 40
0.2494607408078301
 40
0.4779405209378883
 40
0.7057893369168747
 40
1.0
 40
1.0
 40
1.0
 40
1.0
 10
489.326222868064
 20
582.7385509328063
 30
0.0
 10
489.1978856403422
 20
582.6760455353906
 30
0.0
 10
488.5030116349782
 20
582.3376139155854
 30
0.0
 10
487.1437556840235
 20
581.7190718187603
 30
0.0
 10
485.1338011693333
 20
580.9113472671917
 30
0.0
 10
482.6385987602195
 20
580.039269353652
 30
0.0
 10
480.7082554607889
 20
579.5441326196776
 30
0.0
 10
479.6203955427508
 20
579.2650944781212
 30
0.0
  0
LWPOLYLINE
  5
1CC
330
1F
100
AcDbEntity
  8
0
  6
Continuous
 62
     7
370
    25
100
AcDbPolyline
 90
        3
 70
   128
 43
0.0
 10
489.3262228681
 20
582.7385509328
 10
489.3695797447
 20
582.7111594604
 10
489.4741578178
 20
582.6451614304
  0
ARC
  5
1CD
330
1F
100
AcDbEntity
  8
0
  6
Continuous
 62
     7
370
    25
100
AcDbCircle
 10
468.7108649867
 20
626.1213235919
 30
0.0
 40
48.17977797259062
100
AcDbArc
 50
282.8580809319
 51
295.5281512988
  0
LINE
  5
1CE
330
1F
100
AcDbEntity
  8
0
  6
Continuous
 62
     7
370
    25
100
AcDbLine
 10
479.4170039513
 20
579.2182037363
 30
0.0
 11
479.4326432232
 21
579.1496887797
 31
0.0
  0
LINE
  5
1CF
330
1F
100
AcDbEntity
  8
0
  6
Continuous
 62
     7
370
    25
100
AcDbLine
 10
479.1669354649
 20
581.2126970073
 30
0.0
 11
479.6203955428
 21
579.2650944781
 31
0.0
  0
SPLINE
  5
1D0
330
1F
100
AcDbEntity
  8
0
  6
Continuous
 62
     7
370
    25
100
AcDbSpline
210
0.0
220
0.0
230
1.0
 70
     8
 71
     3
 72
    13
 73
     9
 74
     0
 42
0.00000001
 43
0.00000001
 40
0.0
 40
0.0
 40
0.0
 40
0.0
 40
0.2574896950994368
 40
0.4890886589321025
 40
0.7206004760683485
 40
0.9447506334961274
 40
0.9460032291293288
 40
1.0
 40
1.0
 40
1.0
 40
1.0
 10
479.1669354648639
 20
581.2126970073354
 30
0.0
 10
480.0856610408517
 20
581.1846340432205
 30
0.0
 10
481.8307338279898
 20
581.1313298615552
 30
0.0
 10
484.3252990739032
 20
581.2958939803932
 30
0.0
 10
486.6409488799041
 20
581.7092679754033
 30
0.0
 10
488.1180574815082
 20
582.2088251619666
 30
0.0
 10
488.9893189260488
 20
582.5830680168966
 30
0.0
 10
489.1593653348717
 20
582.6620484353817
 30
0.0
 10
489.325556506927
 20
582.7392382355564
 30
0.0
  0
LINE
  5
1D1
330
1F
100
AcDbEntity
  8
0
  6
Continuous
 62
     7
370
    25
100
AcDbLine
 10
489.3255565069
 20
582.7392382356
 30
0.0
 11
489.3262228681
 21
582.7385509328
 31
0.0
  0
LINE
  5
1D2
330
1F
100
AcDbEntity
  8
0
  6
Continuous
 62
     7
370
    25
100
AcDbLine
 10
473.0616161491
 20
582.5205814148
 30
0.0
 11
471.9321407316
 21
580.8704096252
 31
0.0
  0
SPLINE
  5
1D3
330
1F
100
AcDbEntity
  8
0
  6
Continuous
 62
     7
370
    25
100
AcDbSpline
210
0.0
220
0.0
230
1.0
 70
     8
 71
     3
 72
    14
 73
    10
 74
     0
 42
0.00000001
 43
0.00000001
 40
0.0
 40
0.0
 40
0.0
 40
0.0
 40
0.2256458607195977
 40
0.4518169308148961
 40
0.8157761447763431
 40
0.8946140573305374
 40
0.9637846180221655
 40
0.994079914312567
 40
1.0
 40
1.0
 40
1.0
 40
1.0
 10
471.932140731595
 20
580.8704096251787
 30
0.0
 10
471.086393184524
 20
581.4154333476798
 30
0.0
 10
469.3929295431201
 20
582.506749380407
 30
0.0
 10
466.2127074430678
 20
584.0721904652091
 30
0.0
 10
463.5414293799013
 20
585.025569299445
 30
0.0
 10
461.5909008926502
 20
585.5470174455742
 30
0.0
 10
460.9468243822084
 20
585.7023981202162
 30
0.0
 10
460.6188734859816
 20
585.7779481810607
 30
0.0
 10
460.5263361533829
 20
585.7994689552058
 30
0.0
 10
460.5112091849967
 20
585.8029869307189
 30
0.0
  0
SPLINE
  5
1D4
330
1F
100
AcDbEntity
  8
0
  6
Continuous
 62
     7
370
    25
100
AcDbSpline
210
0.0
220
0.0
230
1.0
 70
     8
 71
     3
 72
    11
 73
     7
 74
     0
 42
0.00000001
 43
0.00000001
 40
0.0
 40
0.0
 40
0.0
 40
0.0
 40
0.0195561212295927
 40
0.1681891996744411
 40
0.5898876540792777
 40
1.0
 40
1.0
 40
1.0
 40
1.0
 10
460.6211505764138
 20
585.811254492812
 30
0.0
 10
460.6191918632657
 20
585.8113126065277
 30
0.0
 10
460.6023462734429
 20
585.8118124039684
 30
0.0
 10
460.5504457096839
 20
585.812658821382
 30
0.0
 10
460.5011610776182
 20
585.81056952286
 30
0.0
 10
460.5078910626946
 20
585.8054908816764
 30
0.0
 10
460.5112091849967
 20
585.8029869307189
 30
0.0
  0
SPLINE
  5
1D5
330
1F
100
AcDbEntity
  8
0
  6
Continuous
 62
     7
370
    25
100
AcDbSpline
210
0.0
220
0.0
230
1.0
 70
     8
 71
     3
 72
    17
 73
    13
 74
     0
 42
0.00000001
 43
0.00000001
 40
0.0
 40
0.0
 40
0.0
 40
0.0
 40
0.0068263121770685
 40
0.0088448507297254
 40
0.0223990310416126
 40
0.0309593028397538
 40
0.0563218912149143
 40
0.1198824177066684
 40
0.1957460556357056
 40
0.5558621944880031
 40
0.77803360979772
 40
1.0
 40
1.0
 40
1.0
 40
1.0
 10
460.6211505764138
 20
585.811254492812
 30
0.0
 10
460.6247707215754
 20
585.8102163097669
 30
0.0
 10
460.6294613426229
 20
585.8088711362932
 30
0.0
 10
460.6729940553261
 20
585.8012811482183
 30
0.0
 10
460.7475259777586
 20
585.7895296414117
 30
0.0
 10
460.9143582232605
 20
585.7638107461885
 30
0.0
 10
461.2959343403279
 20
585.7052961671662
 30
0.0
 10
461.9788353070622
 20
585.596099182579
 30
0.0
 10
464.08383462398
 20
585.2289269501549
 30
0.0
 10
466.8967692057661
 20
584.5947492661898
 30
0.0
 10
470.2955534203327
 20
583.5818089743312
 30
0.0
 10
472.1398790350964
 20
582.8742150536445
 30
0.0
 10
473.0616161490871
 20
582.5205814148173
 30
0.0
  0
LINE
  5
1D6
330
1F
100
AcDbEntity
  8
0
  6
Continuous
 62
     7
370
    25
100
AcDbLine
 10
477.1550589999
 20
584.8980600306
 30
0.0
 11
477.0116971709
 21
582.3024120611
 31
0.0
  0
LINE
  5
1D7
330
1F
100
AcDbEntity
  8
0
  6
Continuous
 62
     7
370
    25
100
AcDbLine
 10
477.0116971709
 20
582.3024120611
 30
0.0
 11
473.0616161491
 21
582.5205814148
 31
0.0
  0
LINE
  5
1D8
330
1F
100
AcDbEntity
  8
0
  6
Continuous
 62
     7
370
    25
100
AcDbLine
 10
479.9735112389
 20
583.8330860528
 30
0.0
 11
478.3645542456
 21
581.7912245518
 31
0.0
  0
LINE
  5
1D9
330
1F
100
AcDbEntity
  8
0
  6
Continuous
 62
     7
370
    25
100
AcDbLine
 10
489.3255565069
 20
582.7392382356
 30
0.0
 11
489.3249886214
 21
582.7398252765
 31
0.0
  0
ARC
  5
1DA
330
1F
100
AcDbEntity
  8
0
  6
Continuous
 62
     7
370
    25
100
AcDbCircle
 10
485.5388443936
 20
590.8958226929
 30
0.0
 40
11.59155496206734
100
AcDbArc
 50
231.762407147
 51
236.6533814372
  0
LWPOLYLINE
  5
1DB
330
1F
100
AcDbEntity
  8
0
  6
Continuous
 62
     7
370
    25
100
AcDbPolyline
 90
        4
 70
   128
 43
0.0
 10
460.511209185
 20
585.8029869307
 10
460.5089669387
 20
585.7856286757
 10
460.4999944558
 20
585.7161958141
 10
460.4936641746
 20
585.667235668
  0
ARC
  5
1DC
330
1F
100
AcDbEntity
  8
0
  6
Continuous
 62
     7
370
    25
100
AcDbCircle
 10
454.0962300598
 20
554.8120145709
 30
0.0
 40
31.57783498432751
100
AcDbArc
 50
54.8280705831
 51
55.6099480104
  0
LINE
  5
1DD
330
1F
100
AcDbEntity
  8
0
  6
Continuous
 62
     7
370
    25
100
AcDbLine
 10
472.2860705973
 20
580.6245960675
 30
0.0
 11
472.2455886825
 21
580.5671495647
 31
0.0
  0
ARC
  5
1DE
330
1F
100
AcDbEntity
  8
0
  6
Continuous
 62
     7
370
    25
100
AcDbCircle
 10
454.0962300598
 20
554.8120145709
 30
0.0
 40
31.50755777528335
100
AcDbArc
 50
54.8280705831
 51
74.9420027521
  0
LINE
  5
1DF
330
1F
100
AcDbEntity
  8
0
  6
Continuous
 62
     7
370
    25
100
AcDbLine
 10
460.4936641746
 20
585.667235668
 30
0.0
 11
462.2817884584
 21
585.2377081647
 31
0.0
  0
LINE
  5
1E0
330
1F
100
AcDbEntity
  8
0
  6
Continuous
 62
     7
370
    25
100
AcDbLine
 10
460.4198267653
 20
596.1140914215
 30
0.0
 11
460.4936641746
 21
596.1244097178
 31
0.0
  0
SPLINE
  5
1E1
330
1F
100
AcDbEntity
  8
0
  6
Continuous
 62
     7
370
    25
100
AcDbSpline
210
0.0
220
0.0
230
1.0
 70
     8
 71
     3
 72
    10
 73
     6
 74
     0
 42
0.00000001
 43
0.00000001
 40
0.0
 40
0.0
 40
0.0
 40
0.0
 40
0.0490769085761659
 40
0.599580584366531
 40
1.0
 40
1.0
 40
1.0
 40
1.0
 10
478.3645542456239
 20
581.791224551784
 30
0.0
 10
478.3456067072548
 20
581.8058472873853
 30
0.0
 10
478.1141215453483
 20
581.9844956295744
 30
0.0
 10
477.668247770531
 20
582.2185476229957
 30
0.0
 10
477.2062411936465
 20
582.2775619960133
 30
0.0
 10
477.0116971708929
 20
582.3024120611456
 30
0.0
  0
ARC
  5
1E2
330
1F
100
AcDbEntity
  8
0
  6
Continuous
 62
     7
370
    25
100
AcDbCircle
 10
460.409855784
 20
585.3132892337
 30
0.0
 40
0.5000763405042037
100
AcDbArc
 50
78.3065203377
 51
86.8373700345
  0
SPLINE
  5
1E3
330
1F
100
AcDbEntity
  8
0
  6
Continuous
 62
     7
370
    25
100
AcDbSpline
210
0.0
220
0.0
230
1.0
 70
     8
 71
     3
 72
     9
 73
     5
 74
     0
 42
0.00000001
 43
0.00000001
 40
0.0
 40
0.0
 40
0.0
 40
0.0
 40
0.8458911907785839
 40
1.0
 40
1.0
 40
1.0
 40
1.0
 10
460.4936641745862
 20
585.6672356680328
 30
0.0
 10
460.4728235784751
 20
585.6710504750251
 30
0.0
 10
460.4481861353403
 20
585.6755602831823
 30
0.0
 10
460.423613608164
 20
585.6772877469334
 30
0.0
 10
460.4198267652613
 20
585.677553964315
 30
0.0
  0
LINE
  5
1E4
330
1F
100
AcDbEntity
  8
0
  6
Continuous
 62
     7
370
    25
100
AcDbLine
 10
442.4244065676
 20
586.7438098176
 30
0.0
 11
442.4248645874
 21
586.7437847311
 31
0.0
  0
LINE
  5
1E5
330
1F
100
AcDbEntity
  8
0
  6
Continuous
 62
     7
370
    25
100
AcDbLine
 10
472.2865085687
 20
601.1664278081
 30
0.0
 11
474.125249418
 21
602.1633940437
 31
0.0
  0
LINE
  5
1E6
330
1F
100
AcDbEntity
  8
0
  6
Continuous
 62
     7
370
    25
100
AcDbLine
 10
474.8652738331
 20
600.3056681439
 30
0.0
 11
474.125249418
 21
602.1633940437
 31
0.0
  0
LINE
  5
1E7
330
1F
100
AcDbEntity
  8
0
  6
Continuous
 62
     7
370
    25
100
AcDbLine
 10
477.8520441599
 20
600.7847896309
 30
0.0
 11
477.9738779065
 21
602.7807701398
 31
0.0
  0
LINE
  5
1E8
330
1F
100
AcDbEntity
  8
0
  6
Continuous
 62
     7
370
    25
100
AcDbLine
 10
477.9738779065
 20
602.7807701398
 30
0.0
 11
479.4167851463
 21
602.5724830746
 31
0.0
  0
ARC
  5
1E9
330
1F
100
AcDbEntity
  8
0
  6
Continuous
 62
     7
370
    25
100
AcDbCircle
 10
454.0962300598
 20
554.8120145709
 30
0.0
 40
33.57753037464025
100
AcDbArc
 50
54.8280705831
 51
55.6099480104
  0
ARC
  5
1EA
330
1F
100
AcDbEntity
  8
0
  6
Continuous
 62
     7
370
    25
100
AcDbCircle
 10
468.7108649867
 20
626.1213235919
 30
0.0
 40
46.10980537323358
100
AcDbArc
 50
282.8580809319
 51
283.1066633214
  0
ARC
  5
1EB
330
1F
100
AcDbEntity
  8
0
  6
Continuous
 62
     7
370
    25
100
AcDbCircle
 10
477.4298291884
 20
587.9239282171
 30
0.0
 40
6.929946387144392
100
AcDbArc
 50
234.8280705831
 51
282.8580809319
  0
ARC
  5
1EC
330
1F
100
AcDbEntity
  8
0
  6
Continuous
 62
     7
370
    25
100
AcDbCircle
 10
477.4298291884
 20
593.8677171687
 30
0.0
 40
6.929946387144299
100
AcDbArc
 50
86.5070253286
 51
111.7198462835
  0
LINE
  5
1ED
330
1F
100
AcDbEntity
  8
0
  6
Continuous
 62
     7
370
    25
100
AcDbLine
 10
478.9719979463
 20
581.1677553026
 30
0.0
 11
479.4170039513
 21
579.2182037363
 31
0.0
  0
ARC
  5
1EE
330
1F
100
AcDbEntity
  8
0
  6
Continuous
 62
     7
370
    25
100
AcDbCircle
 10
477.4298291884
 20
587.9239282171
 30
0.0
 40
8.929641777457151
100
AcDbArc
 50
234.8280705831
 51
282.8580809319
  0
LINE
  5
1EF
330
1F
100
AcDbEntity
  8
0
  6
Continuous
 62
     7
370
    25
100
AcDbLine
 10
473.4379589484
 20
582.2592014879
 30
0.0
 11
472.2860705973
 21
580.6245960675
 31
0.0
  0
ARC
  5
1F0
330
1F
100
AcDbEntity
  8
0
  6
Continuous
 62
     7
370
    25
100
AcDbCircle
 10
477.4298291884
 20
593.8677171687
 30
0.0
 40
8.92964177745708
100
AcDbArc
 50
86.5070253286
 51
111.7198462835
  0
ARC
  5
1F1
330
1F
100
AcDbEntity
  8
0
  6
Continuous
 62
     7
370
    25
100
AcDbCircle
 10
477.4298291884
 20
593.8677171687
 30
0.0
 40
8.99991898650121
100
AcDbArc
 50
77.1419190681
 51
125.1719294169
  0
ARC
  5
1F2
330
1F
100
AcDbEntity
  8
0
  6
Continuous
 62
     7
370
    25
100
AcDbCircle
 10
477.4298291884
 20
587.9239282171
 30
0.0
 40
8.999918986501342
100
AcDbArc
 50
234.8280705831
 51
282.8580809319
  0
SPLINE
  5
1F3
330
1F
100
AcDbEntity
  8
0
  6
Continuous
 62
     7
370
    25
100
AcDbSpline
210
0.0
220
0.0
230
1.0
 70
     8
 71
     3
 72
    11
 73
     7
 74
     0
 42
0.00000001
 43
0.00000001
 40
0.0
 40
0.0
 40
0.0
 40
0.0
 40
0.2200386424382255
 40
0.6637869905998169
 40
0.8890365590789576
 40
1.0
 40
1.0
 40
1.0
 40
1.0
 10
695.4164345381847
 20
596.9161409998597
 30
0.0
 10
695.6206560011861
 20
596.651122388601
 30
0.0
 10
696.2367275640697
 20
595.8516450582963
 30
0.0
 10
696.7602769150869
 20
594.5884757877684
 30
0.0
 10
697.0119061148481
 20
593.4219059744444
 30
0.0
 10
696.9911989201257
 20
592.910626175785
 30
0.0
 10
696.9843647360997
 20
592.7418838483126
 30
0.0
  0
SPLINE
  5
1F4
330
1F
100
AcDbEntity
  8
0
  6
Continuous
 62
     7
370
    25
100
AcDbSpline
210
0.0
220
0.0
230
1.0
 70
     8
 71
     3
 72
     9
 73
     5
 74
     0
 42
0.00000001
 43
0.00000001
 40
0.0
 40
0.0
 40
0.0
 40
0.0
 40
0.9209630919903056
 40
1.0
 40
1.0
 40
1.0
 40
1.0
 10
697.056476901432
 20
596.5958177242263
 30
0.0
 10
696.5420553635591
 20
596.6526447831449
 30
0.0
 10
695.9834862500444
 20
596.7143487313409
 30
0.0
 10
695.457969738375
 20
596.9013601922288
 30
0.0
 10
695.4164345381847
 20
596.9161409998597
 30
0.0
  0
SPLINE
  5
1F5
330
1F
100
AcDbEntity
  8
0
  6
Continuous
 62
     7
370
    25
100
AcDbSpline
210
0.0
220
0.0
230
1.0
 70
     8
 71
     3
 72
    10
 73
     6
 74
     0
 42
0.00000001
 43
0.00000001
 40
0.0
 40
0.0
 40
0.0
 40
0.0
 40
0.2596150688488836
 40
0.629760644481066
 40
0.9999999999999999
 40
0.9999999999999999
 40
0.9999999999999999
 40
0.9999999999999999
 10
744.2316378553693
 20
594.0042601552373
 30
0.0
 10
740.1538176366462
 20
594.3040142923356
 30
0.0
 10
730.2620548032809
 20
595.0311421874998
 30
0.0
 10
714.5324821206077
 20
595.8569890573899
 30
0.0
 10
702.882303859343
 20
596.3495207066555
 30
0.0
 10
697.056476901432
 20
596.5958177242263
 30
0.0
  0
SPLINE
  5
1F6
330
1F
100
AcDbEntity
  8
0
  6
Continuous
 62
     7
370
    25
100
AcDbSpline
210
0.0
220
0.0
230
1.0
 70
     8
 71
     3
 72
    11
 73
     7
 74
     0
 42
0.00000001
 43
0.00000001
 40
0.0
 40
0.0
 40
0.0
 40
0.0
 40
0.061464119541392
 40
0.4999988937835377
 40
0.9375097801832794
 40
1.0
 40
1.0
 40
1.0
 40
1.0
 10
744.2316378553691
 20
588.2782278082352
 30
0.0
 10
744.2433070515714
 20
588.3946847806874
 30
0.0
 10
744.3382337378408
 20
589.3420400480186
 30
0.0
 10
744.4219365651071
 20
591.1392842464668
 30
0.0
 10
744.3383666415867
 20
592.9384822707077
 30
0.0
 10
744.2434949365415
 20
593.8858570951408
 30
0.0
 10
744.2316378553693
 20
594.0042601552373
 30
0.0
  0
SPLINE
  5
1F7
330
1F
100
AcDbEntity
  8
0
  6
Continuous
 62
     7
370
    25
100
AcDbSpline
210
0.0
220
0.0
230
1.0
 70
     8
 71
     3
 72
    10
 73
     6
 74
     0
 42
0.00000001
 43
0.00000001
 40
0.0
 40
0.0
 40
0.0
 40
0.0
 40
0.2594618540778875
 40
0.6296073956705976
 40
1.0
 40
1.0
 40
1.0
 40
1.0
 10
697.056476901432
 20
585.6866702392481
 30
0.0
 10
701.1393451395274
 20
585.8540545487737
 30
0.0
 10
711.046790098592
 20
586.2602275470014
 30
0.0
 10
726.7780866600615
 20
587.0470109047319
 30
0.0
 10
738.4124936102728
 20
587.8677309025733
 30
0.0
 10
744.2316378553691
 20
588.2782278082352
 30
0.0
  0
SPLINE
  5
1F8
330
1F
100
AcDbEntity
  8
0
  6
Continuous
 62
     7
370
    25
100
AcDbSpline
210
0.0
220
0.0
230
1.0
 70
     8
 71
     3
 72
     9
 73
     5
 74
     0
 42
0.00000001
 43
0.00000001
 40
0.0
 40
0.0
 40
0.0
 40
0.0
 40
0.0790369080192139
 40
1.0
 40
1.0
 40
1.0
 40
1.0
 10
695.4164345381855
 20
585.3663469636148
 30
0.0
 10
695.4579697383808
 20
585.3811277712475
 30
0.0
 10
695.98348625005
 20
585.5681392321353
 30
0.0
 10
696.5420553635646
 20
585.6298431803307
 30
0.0
 10
697.056476901432
 20
585.6866702392481
 30
0.0
  0
SPLINE
  5
1F9
330
1F
100
AcDbEntity
  8
0
  6
Continuous
 62
     7
370
    25
100
AcDbSpline
210
0.0
220
0.0
230
1.0
 70
     8
 71
     3
 72
    11
 73
     7
 74
     0
 42
0.00000001
 43
0.00000001
 40
0.0
 40
0.0
 40
0.0
 40
0.0
 40
0.0728838064943292
 40
0.4140719411596028
 40
0.9209668754550567
 40
1.0
 40
1.0
 40
1.0
 40
1.0
 10
696.9843647360959
 20
589.5406041151766
 30
0.0
 10
696.9920798852336
 20
589.4301576809376
 30
0.0
 10
697.0359116625981
 20
588.8026826406067
 30
0.0
 10
696.6914199511601
 20
587.4196906101415
 30
0.0
 10
696.051730601674
 20
586.149759092364
 30
0.0
 10
695.491941852241
 20
585.4594584261911
 30
0.0
 10
695.4164345381855
 20
585.3663469636148
 30
0.0
  0
SPLINE
  5
1FA
330
1F
100
AcDbEntity
  8
0
  6
Continuous
 62
     7
370
    25
100
AcDbSpline
210
0.0
220
0.0
230
1.0
 70
     8
 71
     3
 72
    10
 73
     6
 74
     0
 42
0.00000001
 43
0.00000001
 40
0.0
 40
0.0
 40
0.0
 40
0.0
 40
0.3880207377811385
 40
0.9790637766506849
 40
1.0
 40
1.0
 40
1.0
 40
1.0
 10
696.9843647360996
 20
592.7418838483126
 30
0.0
 10
696.9110502053403
 20
592.3310439864568
 30
0.0
 10
696.7260611200169
 20
591.2944024166085
 30
0.0
 10
696.8217680458481
 20
590.2006330950372
 30
0.0
 10
696.9789861970959
 20
589.5624372263177
 30
0.0
 10
696.9843647360959
 20
589.5406041151766
 30
0.0
  0
ARC
  5
1FB
330
1F
100
AcDbEntity
  8
0
  6
Continuous
 62
     7
370
    25
100
AcDbCircle
 10
688.7388443936
 20
591.1412439817
 30
0.0
 40
8.399443654264472
100
AcDbArc
 50
10.985757993
 51
349.0142420071
  0
SPLINE
  5
1FC
330
1F
100
AcDbEntity
  8
0
  6
Continuous
 62
     7
370
    25
100
AcDbSpline
210
0.0
220
0.0
230
1.0
 70
     8
 71
     3
 72
     9
 73
     5
 74
     0
 42
0.00000001
 43
0.00000001
 40
0.0
 40
0.0
 40
0.0
 40
0.0
 40
0.681792342127431
 40
1.0
 40
1.0
 40
1.0
 40
1.0
 10
695.4164345381855
 20
585.3663469636148
 30
0.0
 10
695.2741709775424
 20
585.1764366085096
 30
0.0
 10
695.065509847382
 20
584.8978908646361
 30
0.0
 10
694.8360840135016
 20
584.6649864916931
 30
0.0
 10
694.7630789562471
 20
584.5908745366705
 30
0.0
  0
ARC
  5
1FD
330
1F
100
AcDbEntity
  8
0
  6
Continuous
 62
     7
370
    25
100
AcDbCircle
 10
688.7388443936
 20
591.1412439817
 30
0.0
 40
8.899367501836373
100
AcDbArc
 50
47.3959191961
 51
312.6040808039
  0
LINE
  5
1FE
330
1F
100
AcDbEntity
  8
0
  6
Continuous
 62
     7
370
    25
100
AcDbLine
 10
694.7630789562
 20
597.6916134268
 30
0.0
 11
695.4164345382
 21
596.9161409999
 31
0.0
  0
SPLINE
  5
1FF
330
1F
100
AcDbEntity
  8
0
  6
Continuous
 62
     7
370
    25
100
AcDbSpline
210
0.0
220
0.0
230
1.0
 70
     8
 71
     3
 72
    10
 73
     6
 74
     0
 42
0.00000001
 43
0.00000001
 40
0.0
 40
0.0
 40
0.0
 40
0.0
 40
0.3702896688583046
 40
0.7405318123903298
 40
0.9999999999999999
 40
0.9999999999999999
 40
0.9999999999999999
 40
0.9999999999999999
 10
744.2431573185476
 20
587.835368227402
 30
0.0
 10
738.423093472329
 20
587.5151772128758
 30
0.0
 10
726.7837127638255
 20
586.8748362791702
 30
0.0
 10
711.0648443570508
 20
586.0056019473069
 30
0.0
 10
701.1676705410409
 20
585.4568609456978
 30
0.0
 10
697.0896022205768
 20
585.2307556618659
 30
0.0
  0
ARC
  5
200
330
1F
100
AcDbEntity
  8
0
  6
Continuous
 62
     7
370
    25
100
AcDbCircle
 10
704.3046914279
 20
585.9841420285
 30
0.0
 40
7.254316183260108
100
AcDbArc
 50
182.3501399448
 51
185.9611177314
  0
ARC
  5
201
330
1F
100
AcDbEntity
  8
0
  6
Continuous
 62
     7
370
    25
100
AcDbCircle
 10
739.9826347773
 20
587.9461250514
 30
0.0
 40
4.261961918960808
100
AcDbArc
 50
358.5108705387
 51
4.4691613064
  0
SPLINE
  5
202
330
1F
100
AcDbEntity
  8
0
  6
Continuous
 62
     7
370
    25
100
AcDbSpline
210
0.0
220
0.0
230
1.0
 70
     8
 71
     3
 72
    10
 73
     6
 74
     0
 42
0.00000001
 43
0.00000001
 40
0.0
 40
0.0
 40
0.0
 40
0.0
 40
0.3702717503651152
 40
0.7405122151371749
 40
1.0
 40
1.0
 40
1.0
 40
1.0
 10
697.0896022205767
 20
597.0517323016085
 30
0.0
 10
702.909274282246
 20
596.7292038159405
 30
0.0
 10
714.5481266805429
 20
596.0841740961974
 30
0.0
 10
730.2672662644975
 20
595.2153596087184
 30
0.0
 10
740.1647636881961
 20
594.6713046979515
 30
0.0
 10
744.243157318544
 20
594.4471197360724
 30
0.0
  0
ARC
  5
203
330
1F
100
AcDbEntity
  8
0
  6
Continuous
 62
     7
370
    25
100
AcDbCircle
 10
739.9826347744
 20
594.3363629121
 30
0.0
 40
4.261961921794596
100
AcDbArc
 50
355.530838696
 51
1.4891294598
  0
ARC
  5
204
330
1F
100
AcDbEntity
  8
0
  6
Continuous
 62
     7
370
    25
100
AcDbCircle
 10
704.3046914282
 20
596.2983459349
 30
0.0
 40
7.254316183617895
100
AcDbArc
 50
174.0388822687
 51
177.6498600551
  0
SPLINE
  5
205
330
1F
100
AcDbEntity
  8
0
  6
Continuous
 62
     7
370
    25
100
AcDbSpline
210
0.0
220
0.0
230
1.0
 70
     8
 71
     3
 72
    12
 73
     8
 74
     0
 42
0.00000001
 43
0.00000001
 40
0.0
 40
0.0
 40
0.0
 40
0.0
 40
0.1224290494151348
 40
0.3423522449770467
 40
0.5614228816909441
 40
0.7807229538533574
 40
1.0
 40
1.0
 40
1.0
 40
1.0
 10
746.1673652882167
 20
593.893585785581
 30
0.0
 10
746.1583612123527
 20
593.895944470022
 30
0.0
 10
746.1331828286217
 20
593.9025401343466
 30
0.0
 10
745.9171951449769
 20
593.919548102086
 30
0.0
 10
745.4812970152478
 20
593.9450590762403
 30
0.0
 10
744.8973714018176
 20
593.9746112587995
 30
0.0
 10
744.4535412702495
 20
593.9943775356786
 30
0.0
 10
744.2316378553693
 20
594.0042601552373
 30
0.0
  0
SPLINE
  5
206
330
1F
100
AcDbEntity
  8
0
  6
Continuous
 62
     7
370
    25
100
AcDbSpline
210
0.0
220
0.0
230
1.0
 70
     8
 71
     3
 72
    11
 73
     7
 74
     0
 42
0.00000001
 43
0.00000001
 40
0.0
 40
0.0
 40
0.0
 40
0.0
 40
0.0800485240044433
 40
0.5000005853538798
 40
0.9209248322279645
 40
1.0
 40
1.0
 40
1.0
 40
1.0
 10
746.1673652882167
 20
593.893585785581
 30
0.0
 10
746.1670790438026
 20
593.7473413604804
 30
0.0
 10
746.1652910985979
 20
592.8338667016473
 30
0.0
 10
746.164055401768
 20
591.1394571138887
 30
0.0
 10
746.1652930998629
 20
589.446830262034
 30
0.0
 10
746.1670823218309
 20
588.5333668863901
 30
0.0
 10
746.1673652882168
 20
588.388902177899
 30
0.0
  0
SPLINE
  5
207
330
1F
100
AcDbEntity
  8
0
  6
Continuous
 62
     7
370
    25
100
AcDbSpline
210
0.0
220
0.0
230
1.0
 70
     8
 71
     3
 72
    12
 73
     8
 74
     0
 42
0.00000001
 43
0.00000001
 40
0.0
 40
0.0
 40
0.0
 40
0.0
 40
0.1130367476169362
 40
0.3328594693548023
 40
0.5544127937945006
 40
0.7774207483513244
 40
1.0
 40
1.0
 40
1.0
 40
1.0
 10
744.2316378553691
 20
588.2782278082352
 30
0.0
 10
744.3457086953558
 20
588.2832430539366
 30
0.0
 10
744.6816132579639
 20
588.2980114549925
 30
0.0
 10
745.2156811143585
 20
588.3236036591018
 30
0.0
 10
745.7322067522457
 20
588.3514789219728
 30
0.0
 10
746.0891014694002
 20
588.3749207955633
 30
0.0
 10
746.1412940869186
 20
588.384244707323
 30
0.0
 10
746.1673652882168
 20
588.388902177899
 30
0.0
  0
SPLINE
  5
208
330
1F
100
AcDbEntity
  8
0
  6
Continuous
 62
     7
370
    25
100
AcDbSpline
210
0.0
220
0.0
230
1.0
 70
     8
 71
     3
 72
     9
 73
     5
 74
     0
 42
0.00000001
 43
0.00000001
 40
0.0
 40
0.0
 40
0.0
 40
0.0
 40
0.500010612381544
 40
1.0
 40
1.0
 40
1.0
 40
1.0
 10
694.2634711074041
 20
598.1234451160501
 30
0.0
 10
694.693192474225
 20
597.8356045779568
 30
0.0
 10
695.5526169667856
 20
597.2599357202052
 30
0.0
 10
696.5772810520639
 20
597.1211324591186
 30
0.0
 10
697.0896022205767
 20
597.0517323016085
 30
0.0
  0
SPLINE
  5
209
330
1F
100
AcDbEntity
  8
0
  6
Continuous
 62
     7
370
    25
100
AcDbSpline
210
0.0
220
0.0
230
1.0
 70
     8
 71
     3
 72
     9
 73
     5
 74
     0
 42
0.00000001
 43
0.00000001
 40
0.0
 40
0.0
 40
0.0
 40
0.0
 40
0.9838702326459385
 40
1.0
 40
1.0
 40
1.0
 40
1.0
 10
694.7630789562471
 20
597.6916134268038
 30
0.0
 10
694.6017381413125
 20
597.8364458398228
 30
0.0
 10
694.437752272464
 20
597.9836526646795
 30
0.0
 10
694.266237599182
 20
598.1212260887261
 30
0.0
 10
694.2634711074041
 20
598.1234451160501
 30
0.0
  0
SPLINE
  5
20A
330
1F
100
AcDbEntity
  8
0
  6
Continuous
 62
     7
370
    25
100
AcDbSpline
210
0.0
220
0.0
230
1.0
 70
     8
 71
     3
 72
     9
 73
     5
 74
     0
 42
0.00000001
 43
0.00000001
 40
0.0
 40
0.0
 40
0.0
 40
0.0
 40
0.5055561057107305
 40
1.0
 40
1.0
 40
1.0
 40
1.0
 10
697.0896022205768
 20
585.2307556618659
 30
0.0
 10
696.5715427032437
 20
585.160099627596
 30
0.0
 10
695.5468107071684
 20
585.0203405910185
 30
0.0
 10
694.6880701384068
 20
584.4440073162228
 30
0.0
 10
694.2634711074041
 20
584.1590428474243
 30
0.0
  0
SPLINE
  5
20B
330
1F
100
AcDbEntity
  8
0
  6
Continuous
 62
     7
370
    25
100
AcDbSpline
210
0.0
220
0.0
230
1.0
 70
     8
 71
     3
 72
     9
 73
     5
 74
     0
 42
0.00000001
 43
0.00000001
 40
0.0
 40
0.0
 40
0.0
 40
0.0
 40
0.0161297673533178
 40
0.9999999999999999
 40
0.9999999999999999
 40
0.9999999999999999
 40
0.9999999999999999
 10
694.2634711074041
 20
584.1590428474243
 30
0.0
 10
694.266237599182
 20
584.1612618747481
 30
0.0
 10
694.4377522724681
 20
584.2988352987978
 30
0.0
 10
694.6017381413144
 20
584.446042123653
 30
0.0
 10
694.7630789562471
 20
584.5908745366705
 30
0.0
  0
SPLINE
  5
20C
330
1F
100
AcDbEntity
  8
0
  6
Continuous
 62
     7
370
    25
100
AcDbSpline
210
0.0
220
0.0
230
1.0
 70
     8
 71
     3
 72
    12
 73
     8
 74
     0
 42
0.00000001
 43
0.00000001
 40
0.0
 40
0.0
 40
0.0
 40
0.0
 40
0.2230315344150434
 40
0.4461337558340359
 40
0.6675099896777019
 40
0.8870667292265005
 40
1.0
 40
1.0
 40
1.0
 40
1.0
 10
745.6950110231322
 20
587.8897391068505
 30
0.0
 10
745.6754772370064
 20
587.8916293541452
 30
0.0
 10
745.6364034737699
 20
587.8954104478246
 30
0.0
 10
745.3688142917136
 20
587.888467611554
 30
0.0
 10
744.9812852078885
 20
587.8728787890641
 30
0.0
 10
744.5805630954254
 20
587.8535415089999
 30
0.0
 10
744.3287036731676
 20
587.8399759078235
 30
0.0
 10
744.2431573185476
 20
587.835368227402
 30
0.0
  0
ARC
  5
20D
330
1F
100
AcDbEntity
  8
0
  6
Continuous
 62
     7
370
    25
100
AcDbCircle
 10
745.6672654006
 20
588.3890687633
 30
0.0
 40
0.5000999153471877
100
AcDbArc
 50
273.1804119247
 51
359.9809145383
  0
SPLINE
  5
20E
330
1F
100
AcDbEntity
  8
0
  6
Continuous
 62
     7
370
    25
100
AcDbSpline
210
0.0
220
0.0
230
1.0
 70
     8
 71
     3
 72
    12
 73
     8
 74
     0
 42
0.00000001
 43
0.00000001
 40
0.0
 40
0.0
 40
0.0
 40
0.0
 40
0.2190444340109334
 40
0.4380981679380241
 40
0.6571027493691853
 40
0.8772791087290019
 40
1.0
 40
1.0
 40
1.0
 40
1.0
 10
744.243157318544
 20
594.4471197360724
 30
0.0
 10
744.4095750593149
 20
594.4382909231227
 30
0.0
 10
744.742417606414
 20
594.4206329223805
 30
0.0
 10
745.1805760490571
 20
594.4011144329714
 30
0.0
 10
745.5075418758169
 20
594.3898086493391
 30
0.0
 10
745.669385752831
 20
594.3879847812625
 30
0.0
 10
745.6882570852431
 20
594.3914932105872
 30
0.0
 10
745.6950110231322
 20
594.3927488566238
 30
0.0
  0
ARC
  5
20F
330
1F
100
AcDbEntity
  8
0
  6
Continuous
 62
     7
370
    25
100
AcDbCircle
 10
745.6672654006
 20
593.8934192002
 30
0.0
 40
0.5000999153468408
100
AcDbArc
 50
0.0190854623
 51
86.8195880753
  0
LINE
  5
210
330
1F
100
AcDbEntity
  8
0
  6
Continuous
 62
     7
370
    25
100
AcDbLine
 10
697.0896022206
 20
585.2307556619
 30
0.0
 11
697.1165884023
 21
585.1594653865
 31
0.0
  0
LINE
  5
211
330
1F
100
AcDbEntity
  8
0
  6
Continuous
 62
     7
370
    25
100
AcDbLine
 10
745.6997013838
 20
587.8853006538
 30
0.0
 11
745.6950110231
 21
587.8897391069
 31
0.0
  0
ELLIPSE
  5
212
330
1F
100
AcDbEntity
  8
0
  6
Continuous
 62
     7
370
    25
100
AcDbEllipse
 10
744.1999298411
 20
587.8020082038
 30
0.0
 11
1.499999304622747
 21
0.08287263343868288
 31
0.0
210
0.0
220
0.0
230
1.0
 40
0.0174284859
 41
5.396717970284397
 42
6.299675703199822
  0
LINE
  5
213
330
1F
100
AcDbEntity
  8
0
  6
Continuous
 62
     7
370
    25
100
AcDbLine
 10
741.684315172
 20
587.5932486158
 30
0.0
 11
745.1492783815
 21
587.8341398948
 31
0.0
  0
LINE
  5
214
330
1F
100
AcDbEntity
  8
0
  6
Continuous
 62
     7
370
    25
100
AcDbLine
 10
741.684315172
 20
587.593347007
 30
0.0
 11
741.684315172
 21
587.5932486158
 31
0.0
  0
ELLIPSE
  5
215
330
1F
100
AcDbEntity
  8
0
  6
Continuous
 62
     7
370
    25
100
AcDbEllipse
 10
732.2348287511
 20
587.2637009555
 30
0.0
 11
14.4999932780205
 21
0.8011021232407529
 31
0.0
210
0.0
220
0.0
230
1.0
 40
0.0174284859
 41
4.685109492442209
 42
5.421234828998426
  0
ELLIPSE
  5
216
330
1F
100
AcDbEntity
  8
0
  6
Continuous
 62
     7
370
    25
100
AcDbEllipse
 10
730.9138188356
 20
586.3134174062
 30
0.0
 11
35.70262504606012
 21
1.972514619922095
 31
0.0
210
0.0
220
0.0
230
1.0
 40
0.0174284859
 41
1.543516838852417
 42
2.025717338717964
  0
ELLIPSE
  5
217
330
1F
100
AcDbEntity
  8
0
  6
Continuous
 62
     7
370
    25
100
AcDbEllipse
 10
711.8935913635
 20
585.9410213465
 30
0.0
 11
7.499996523113964
 21
0.4143631671934145
 31
0.0
210
0.0
220
0.0
230
1.0
 40
0.0174284859
 41
4.97641933459759
 42
5.167309992307705
  0
LINE
  5
218
330
1F
100
AcDbEntity
  8
0
  6
Continuous
 62
     7
370
    25
100
AcDbLine
 10
713.8382437645
 20
586.0733657977
 30
0.0
 11
713.8578620219
 21
585.9229752531
 31
0.0
  0
SPLINE
  5
219
330
1F
100
AcDbEntity
  8
0
  6
Continuous
 62
     7
370
    25
100
AcDbSpline
210
0.0
220
0.0
230
1.0
 70
     8
 71
     3
 72
    10
 73
     6
 74
     0
 42
0.00000001
 43
0.00000001
 40
0.0
 40
0.0
 40
0.0
 40
0.0
 40
0.0186368637457253
 40
0.3939469944633057
 40
1.0
 40
1.0
 40
1.0
 40
1.0
 10
713.6544724788465
 20
586.0728794304621
 30
0.0
 10
713.6569286860952
 20
586.0729671809414
 30
0.0
 10
713.7088481225721
 20
586.0748220551343
 30
0.0
 10
713.81284697105
 20
586.0775020365124
 30
0.0
 10
713.8285476283994
 20
586.0749449551148
 30
0.0
 10
713.838243764543
 20
586.073365797707
 30
0.0
  0
LINE
  5
21A
330
1F
100
AcDbEntity
  8
0
  6
Continuous
 62
     7
370
    25
100
AcDbLine
 10
697.1165884023
 20
585.1594653865
 30
0.0
 11
713.6544724788
 21
586.0728794305
 31
0.0
  0
LINE
  5
21B
330
1F
100
AcDbEntity
  8
0
  6
Continuous
 62
     7
370
    25
100
AcDbLine
 10
713.6565382108
 20
596.2258121818
 30
0.0
 11
697.1226297873
 21
597.139006644
 31
0.0
  0
SPLINE
  5
21C
330
1F
100
AcDbEntity
  8
0
  6
Continuous
 62
     7
370
    25
100
AcDbSpline
210
0.0
220
0.0
230
1.0
 70
     8
 71
     3
 72
    11
 73
     7
 74
     0
 42
0.00000001
 43
0.00000001
 40
0.0
 40
0.0
 40
0.0
 40
0.0
 40
0.4177469294495291
 40
0.8392770662410922
 40
0.9817832068819584
 40
1.0
 40
1.0
 40
1.0
 40
1.0
 10
713.8402436514149
 20
596.224462736554
 30
0.0
 10
713.835606623383
 20
596.2233795453702
 30
0.0
 10
713.8262905733817
 20
596.2212033533872
 30
0.0
 10
713.7507941076314
 20
596.2224055302785
 30
0.0
 10
713.6805339070595
 20
596.2248760576185
 30
0.0
 10
713.6589810704019
 20
596.2257168805755
 30
0.0
 10
713.6565382107718
 20
596.225812181834
 30
0.0
  0
LINE
  5
21D
330
1F
100
AcDbEntity
  8
0
  6
Continuous
 62
     7
370
    25
100
AcDbLine
 10
713.8578620219
 20
596.3595127103
 30
0.0
 11
713.8402436514
 21
596.2244627366
 31
0.0
  0
ELLIPSE
  5
21E
330
1F
100
AcDbEntity
  8
0
  6
Continuous
 62
     7
370
    25
100
AcDbEllipse
 10
711.8935913635
 20
596.341466617
 30
0.0
 11
7.499996523113964
 21
-0.4143631671934145
 31
0.0
210
0.0
220
0.0
230
1.0
 40
0.0174284859
 41
1.115875314871692
 42
1.306765972581834
  0
ELLIPSE
  5
21F
330
1F
100
AcDbEntity
  8
0
  6
Continuous
 62
     7
370
    25
100
AcDbEllipse
 10
730.9138188356
 20
595.9690705572
 30
0.0
 11
35.70262504606012
 21
-1.972514619921981
 31
0.0
210
0.0
220
0.0
230
1.0
 40
0.0174284859
 41
4.257467968461734
 42
4.739668468327174
  0
ELLIPSE
  5
220
330
1F
100
AcDbEntity
  8
0
  6
Continuous
 62
     7
370
    25
100
AcDbEllipse
 10
732.2348287511
 20
595.0187870079
 30
0.0
 11
14.4999932780205
 21
-0.8011021232406391
 31
0.0
210
0.0
220
0.0
230
1.0
 40
0.0174284859
 41
0.86195047818182
 42
1.598075814737354
  0
LINE
  5
221
330
1F
100
AcDbEntity
  8
0
  6
Continuous
 62
     7
370
    25
100
AcDbLine
 10
741.684315172
 20
594.6892393477
 30
0.0
 11
741.684315172
 21
594.6891409565
 31
0.0
  0
LINE
  5
222
330
1F
100
AcDbEntity
  8
0
  6
Continuous
 62
     7
370
    25
100
AcDbLine
 10
745.1492783815
 20
594.4483480687
 30
0.0
 11
741.684315172
 21
594.6892393477
 31
0.0
  0
ELLIPSE
  5
223
330
1F
100
AcDbEntity
  8
0
  6
Continuous
 62
     7
370
    25
100
AcDbEllipse
 10
744.1999298411
 20
594.4804797597
 30
0.0
 11
1.499999304622747
 21
-0.08287263343856921
 31
0.0
210
0.0
220
0.0
230
1.0
 40
0.0174284859
 41
6.26669491115595
 42
7.16965264407184
  0
LINE
  5
224
330
1F
100
AcDbEntity
  8
0
  6
Continuous
 62
     7
370
    25
100
AcDbLine
 10
745.6950110231
 20
594.3927488566
 30
0.0
 11
745.6997013838
 21
594.3971873097
 31
0.0
  0
LINE
  5
225
330
1F
100
AcDbEntity
  8
0
  6
Continuous
 62
     7
370
    25
100
AcDbLine
 10
697.1226297873
 20
597.139006644
 30
0.0
 11
697.0896022206
 21
597.0517323016
 31
0.0
  0
SPLINE
  5
226
330
1F
100
AcDbEntity
  8
0
  6
Continuous
 62
     7
370
    25
100
AcDbSpline
210
0.0
220
0.0
230
1.0
 70
     8
 71
     3
 72
     9
 73
     5
 74
     0
 42
0.00000001
 43
0.00000001
 40
0.0
 40
0.0
 40
0.0
 40
0.0
 40
0.5001021276704695
 40
1.0
 40
1.0
 40
1.0
 40
1.0
 10
694.2966899734596
 20
584.0933514004641
 30
0.0
 10
694.7256377491669
 20
584.3798770345526
 30
0.0
 10
695.5833581066175
 20
584.9528112778505
 30
0.0
 10
696.6055812352325
 20
585.0905900643046
 30
0.0
 10
697.1165884022734
 20
585.1594653865052
 30
0.0
  0
LINE
  5
227
330
1F
100
AcDbEntity
  8
0
  6
Continuous
 62
     7
370
    25
100
AcDbLine
 10
694.2966899735
 20
584.0933514005
 30
0.0
 11
694.2634711074
 21
584.1590428474
 31
0.0
  0
SPLINE
  5
228
330
1F
100
AcDbEntity
  8
0
  6
Continuous
 62
     7
370
    25
100
AcDbSpline
210
0.0
220
0.0
230
1.0
 70
     8
 71
     3
 72
     9
 73
     5
 74
     0
 42
0.00000001
 43
0.00000001
 40
0.0
 40
0.0
 40
0.0
 40
0.0
 40
0.400722737156528
 40
1.0
 40
1.0
 40
1.0
 40
1.0
 10
697.122629787325
 20
597.1390066440485
 30
0.0
 10
696.7139436639158
 20
597.1874139061142
 30
0.0
 10
695.6940711048759
 20
597.308213794858
 30
0.0
 10
694.82499506105
 20
597.8683210682117
 30
0.0
 10
694.3041775483032
 20
598.2039806218858
 30
0.0
  0
LINE
  5
229
330
1F
100
AcDbEntity
  8
0
  6
Continuous
 62
     7
370
    25
100
AcDbLine
 10
694.2634711074
 20
598.1234451161
 30
0.0
 11
694.3041775483
 21
598.2039806219
 31
0.0
  0
ARC
  5
22A
330
1F
100
AcDbEntity
  8
0
  6
Continuous
 62
     7
370
    25
100
AcDbCircle
 10
688.7388443936
 20
591.1412439817
 30
0.0
 40
8.975658044222053
100
AcDbArc
 50
245.1648853947
 51
308.2586979829
  0
LWPOLYLINE
  5
22B
330
1F
100
AcDbEntity
  8
0
  6
Continuous
 62
     7
370
    25
100
AcDbPolyline
 90
        3
 70
   128
 43
0.0
 10
684.8035309693
 20
582.8905842584
 10
684.9081125335
 20
582.9568366697
 10
684.9689930762
 20
582.995652636
  0
ARC
  5
22C
330
1F
100
AcDbEntity
  8
0
  6
Continuous
 62
     7
370
    25
100
AcDbCircle
 10
688.7388443936
 20
591.1412439817
 30
0.0
 40
9.141120151092208
100
AcDbArc
 50
115.4997164176
 51
244.5002794289
  0
LWPOLYLINE
  5
22D
330
1F
100
AcDbEntity
  8
0
  6
Continuous
 62
     7
370
    25
100
AcDbPolyline
 90
        3
 70
   128
 43
0.0
 10
684.9527001658
 20
599.2972413982
 10
684.9081125335
 20
599.3256512938
 10
684.803530969
 20
599.3919037052
  0
ARC
  5
22E
330
1F
100
AcDbEntity
  8
0
  6
Continuous
 62
     7
370
    25
100
AcDbCircle
 10
688.7388443936
 20
591.1412439817
 30
0.0
 40
8.991950954660766
100
AcDbArc
 50
51.762407147
 51
114.9014811666
  0
LINE
  5
22F
330
1F
100
AcDbEntity
  8
0
  6
Continuous
 62
     7
370
    25
100
AcDbLine
 10
746.1720556489
 20
593.8980242386
 30
0.0
 11
746.1673652882
 21
593.8935857856
 31
0.0
  0
LINE
  5
230
330
1F
100
AcDbEntity
  8
0
  6
Continuous
 62
     7
370
    25
100
AcDbLine
 10
746.1720556489
 20
588.3844637248
 30
0.0
 11
746.1720556489
 21
593.8980242386
 31
0.0
  0
LINE
  5
231
330
1F
100
AcDbEntity
  8
0
  6
Continuous
 62
     7
370
    25
100
AcDbLine
 10
746.1673652882
 20
588.3889021779
 30
0.0
 11
746.1720556489
 21
588.3844637248
 31
0.0
  0
ARC
  5
232
330
1F
100
AcDbEntity
  8
0
  6
Continuous
 62
     7
370
    25
100
AcDbCircle
 10
745.6719557613
 20
593.8978576533
 30
0.0
 40
0.5000999153470272
100
AcDbArc
 50
0.0190854617
 51
86.8195880753
  0
ARC
  5
233
330
1F
100
AcDbEntity
  8
0
  6
Continuous
 62
     7
370
    25
100
AcDbCircle
 10
745.6719557613
 20
588.3846303102
 30
0.0
 40
0.5000999153470271
100
AcDbArc
 50
273.1804119247
 51
359.9809145383
  0
LINE
  5
234
330
1F
100
AcDbEntity
  8
0
  6
Continuous
 62
     7
370
    25
100
AcDbLine
 10
745.1492783815
 20
594.4483480687
 30
0.0
 11
745.1563861123
 21
594.4479810321
 31
0.0
  0
LINE
  5
235
330
1F
100
AcDbEntity
  8
0
  6
Continuous
 62
     7
370
    25
100
AcDbLine
 10
745.1492783815
 20
587.8341398948
 30
0.0
 11
745.1563861123
 21
587.8345069314
 31
0.0
  0
SPLINE
  5
236
330
1F
100
AcDbEntity
  8
0
  6
Continuous
 62
     7
370
    25
100
AcDbSpline
210
0.0
220
0.0
230
1.0
 70
     8
 71
     3
 72
    12
 73
     8
 74
     0
 42
0.00000001
 43
0.00000001
 40
0.0
 40
0.0
 40
0.0
 40
0.0
 40
0.1662426524176545
 40
0.3368059756191297
 40
0.6054181071254586
 40
0.8801435087136193
 40
1.0
 40
1.0
 40
1.0
 40
1.0
 10
694.8609036409034
 20
579.4645836000662
 30
0.0
 10
694.2232221203673
 20
579.6200687755492
 30
0.0
 10
692.9312856435666
 20
579.9350802089045
 30
0.0
 10
690.7470992612173
 20
580.5980453139031
 30
0.0
 10
688.3851249176574
 20
581.4502402307083
 30
0.0
 10
686.4195873557649
 20
582.2928689093204
 30
0.0
 10
685.3058123709693
 20
582.8307270020157
 30
0.0
 10
684.9674968928118
 20
582.9941044528429
 30
0.0
  0
LINE
  5
237
330
1F
100
AcDbEntity
  8
0
  6
Continuous
 62
     7
370
    25
100
AcDbLine
 10
694.8609036409
 20
579.4645836001
 30
0.0
 11
694.845045564
 21
579.3951100685
 31
0.0
  0
ARC
  5
238
330
1F
100
AcDbEntity
  8
0
  6
Continuous
 62
     7
370
    25
100
AcDbCircle
 10
705.5668238005
 20
626.3667448808
 30
0.0
 40
48.17977797259051
100
AcDbArc
 50
244.4718479123
 51
257.1419190681
  0
LWPOLYLINE
  5
239
330
1F
100
AcDbEntity
  8
0
  6
Continuous
 62
     7
370
    25
100
AcDbPolyline
 90
        3
 70
   128
 43
0.0
 10
684.9674968928
 20
582.9941044528
 10
684.9081090425
 20
582.9565807493
 10
684.8035309696
 20
582.8905827194
  0
SPLINE
  5
23A
330
1F
100
AcDbEntity
  8
0
  6
Continuous
 62
     7
370
    25
100
AcDbSpline
210
0.0
220
0.0
230
1.0
 70
     8
 71
     3
 72
    11
 73
     7
 74
     0
 42
0.00000001
 43
0.00000001
 40
0.0
 40
0.0
 40
0.0
 40
0.0
 40
0.1345990676765959
 40
0.4126978815969493
 40
0.6969472592954598
 40
1.0
 40
1.0
 40
1.0
 40
1.0
 10
684.9682144697689
 20
582.9948460189169
 30
0.0
 10
685.3975204900171
 20
582.8039621337557
 30
0.0
 10
686.7138274167413
 20
582.2186878343358
 30
0.0
 10
689.0896374676246
 20
581.5962199503122
 30
0.0
 10
692.1433268525057
 20
581.2197172678119
 30
0.0
 10
694.3343567608664
 20
581.1925759394792
 30
0.0
 10
695.4649462784043
 20
581.1785707900341
 30
0.0
  0
ARC
  5
23B
330
1F
100
AcDbEntity
  8
0
  6
Continuous
 62
     7
370
    25
100
AcDbCircle
 10
690.9724152854
 20
581.7983948346
 30
0.0
 40
4.535087272520568
100
AcDbArc
 50
329.0284626407
 51
352.1446266983
  0
LINE
  5
23C
330
1F
100
AcDbEntity
  8
0
  6
Continuous
 62
     7
370
    25
100
AcDbLine
 10
684.9674968928
 20
582.9941044528
 30
0.0
 11
684.9682144698
 21
582.9948460189
 31
0.0
  0
LINE
  5
23D
330
1F
100
AcDbEntity
  8
0
  6
Continuous
 62
     7
370
    25
100
AcDbLine
 10
694.2966899735
 20
584.0933514005
 30
0.0
 11
696.4945618936
 21
581.3062345261
 31
0.0
  0
ARC
  5
23E
330
1F
100
AcDbEntity
  8
0
  6
Continuous
 62
     7
370
    25
100
AcDbCircle
 10
688.7388443936
 20
591.1412439817
 30
0.0
 40
12.52511736202734
100
AcDbArc
 50
307.8583068702
 51
308.2586979829
  0
LINE
  5
23F
330
1F
100
AcDbEntity
  8
0
  6
Continuous
 62
     7
370
    25
100
AcDbLine
 10
695.4649462784
 20
581.17857079
 30
0.0
 11
696.4256446273
 21
581.2522770438
 31
0.0
  0
LINE
  5
240
330
1F
100
AcDbEntity
  8
0
  6
Continuous
 62
     7
370
    25
100
AcDbLine
 10
684.9689930762
 20
582.995652636
 30
0.0
 11
684.9682144698
 21
582.9948460189
 31
0.0
  0
ARC
  5
241
330
1F
100
AcDbEntity
  8
0
  6
Continuous
 62
     7
370
    25
100
AcDbCircle
 10
706.6565161073
 20
585.8646445936
 30
0.0
 40
6.83413872820889
100
AcDbArc
 50
211.8771071303
 51
226.9488007428
  0
SPLINE
  5
242
330
1F
100
AcDbEntity
  8
0
  6
Continuous
 62
     7
370
    25
100
AcDbSpline
210
0.0
220
0.0
230
1.0
 70
     8
 71
     3
 72
    16
 73
    12
 74
     0
 42
0.00000001
 43
0.00000001
 40
0.0
 40
0.0
 40
0.0
 40
0.0
 40
0.2861254310575669
 40
0.7591203623085425
 40
0.8520758313858449
 40
0.9266344548631255
 40
0.9604862301433736
 40
0.9835335436569232
 40
0.9930756629548352
 40
0.9972242292023619
 40
1.0
 40
1.0
 40
1.0
 40
1.0
 10
700.8530833161524
 20
582.255542212752
 30
0.0
 10
702.081230153276
 20
582.785609522104
 30
0.0
 10
705.3396307383603
 20
584.1919329182313
 30
0.0
 10
709.1372121929677
 20
585.2097449211157
 30
0.0
 10
711.9348738428721
 20
585.7716651388872
 30
0.0
 10
712.8000067817666
 20
585.9261676547801
 30
0.0
 10
713.3255929505007
 20
586.0146883206105
 30
0.0
 10
713.5592552092147
 20
586.0537977042592
 30
0.0
 10
713.6369053563755
 20
586.0681176732287
 30
0.0
 10
713.6529870114106
 20
586.0718514118516
 30
0.0
 10
713.6540473993324
 20
586.0725852539349
 30
0.0
 10
713.6544724788465
 20
586.0728794304621
 30
0.0
  0
SPLINE
  5
243
330
1F
100
AcDbEntity
  8
0
  6
Continuous
 62
     7
370
    25
100
AcDbSpline
210
0.0
220
0.0
230
1.0
 70
     8
 71
     3
 72
    10
 73
     6
 74
     0
 42
0.00000001
 43
0.00000001
 40
0.0
 40
0.0
 40
0.0
 40
0.0
 40
0.5975855365574454
 40
0.9790563563181981
 40
1.0
 40
1.0
 40
1.0
 40
1.0
 10
713.7644977985342
 20
586.0637525331227
 30
0.0
 10
713.7670169378875
 20
586.067491830849
 30
0.0
 10
713.7711441786682
 20
586.0736181223725
 30
0.0
 10
713.6967730521127
 20
586.0739946812291
 30
0.0
 10
713.6565651000084
 20
586.0729346022287
 30
0.0
 10
713.6544724788465
 20
586.0728794304621
 30
0.0
  0
SPLINE
  5
244
330
1F
100
AcDbEntity
  8
0
  6
Continuous
 62
     7
370
    25
100
AcDbSpline
210
0.0
220
0.0
230
1.0
 70
     8
 71
     3
 72
    14
 73
    10
 74
     0
 42
0.00000001
 43
0.00000001
 40
0.0
 40
0.0
 40
0.0
 40
0.0
 40
0.0129036569231464
 40
0.0519665716781148
 40
0.1318891824261205
 40
0.2280032005552168
 40
0.4679440229400844
 40
0.7079115564493632
 40
1.0
 40
1.0
 40
1.0
 40
1.0
 10
713.7644977985342
 20
586.0637525331227
 30
0.0
 10
713.7310292220699
 20
586.0559075590613
 30
0.0
 10
713.5962420692372
 20
586.0243136931288
 30
0.0
 10
713.1569686242448
 20
585.921931645835
 30
0.0
 10
712.3455412060188
 20
585.719530137018
 30
0.0
 10
710.6920640241982
 20
585.2524794562519
 30
0.0
 10
708.3477739519544
 20
584.4150223968614
 30
0.0
 10
705.2026797754573
 20
582.9700821565111
 30
0.0
 10
703.1293811012648
 20
581.6147112737165
 30
0.0
 10
701.9911802185177
 20
580.8706388665668
 30
0.0
  0
LINE
  5
245
330
1F
100
AcDbEntity
  8
0
  6
Continuous
 62
     7
370
    25
100
AcDbLine
 10
699.4124149541
 20
581.7313985308
 30
0.0
 11
697.312332438
 21
581.6154075821
 31
0.0
  0
LINE
  5
246
330
1F
100
AcDbEntity
  8
0
  6
Continuous
 62
     7
370
    25
100
AcDbLine
 10
697.1165884023
 20
585.1594653865
 30
0.0
 11
697.312332438
 21
581.6154075821
 31
0.0
  0
LINE
  5
247
330
1F
100
AcDbEntity
  8
0
  6
Continuous
 62
     7
370
    25
100
AcDbLine
 10
699.4124149541
 20
581.7313985308
 30
0.0
 11
700.8530833162
 21
582.2555422128
 31
0.0
  0
LWPOLYLINE
  5
248
330
1F
100
AcDbEntity
  8
0
  6
Continuous
 62
     7
370
    25
100
AcDbPolyline
 90
        4
 70
   128
 43
0.0
 10
713.7840246126
 20
585.9126569569
 10
713.781779977
 20
585.9300151037
 10
713.772804943
 20
585.9994478499
 10
713.7644977985
 20
586.0637525331
  0
LINE
  5
249
330
1F
100
AcDbEntity
  8
0
  6
Continuous
 62
     7
370
    25
100
AcDbLine
 10
711.9959003288
 20
585.4831294536
 30
0.0
 11
713.7840246126
 21
585.9126569569
 31
0.0
  0
ARC
  5
24A
330
1F
100
AcDbEntity
  8
0
  6
Continuous
 62
     7
370
    25
100
AcDbCircle
 10
720.1814587274
 20
555.0574358597
 30
0.0
 40
31.5075577752834
100
AcDbArc
 50
105.0579972479
 51
125.1719294169
  0
LINE
  5
24B
330
1F
100
AcDbEntity
  8
0
  6
Continuous
 62
     7
370
    25
100
AcDbLine
 10
701.9911802185
 20
580.8706388666
 30
0.0
 11
702.0321001047
 21
580.8125708535
 31
0.0
  0
SPLINE
  5
24C
330
1F
100
AcDbEntity
  8
0
  6
Continuous
 62
     7
370
    25
100
AcDbSpline
210
0.0
220
0.0
230
1.0
 70
     8
 71
     3
 72
     9
 73
     5
 74
     0
 42
0.00000001
 43
0.00000001
 40
0.0
 40
0.0
 40
0.0
 40
0.0
 40
0.4998978730609624
 40
1.0
 40
1.0
 40
1.0
 40
1.0
 10
697.3123324379785
 20
581.6154075820612
 30
0.0
 10
697.1641375220827
 20
581.5954412440591
 30
0.0
 10
696.8676871391508
 20
581.5555004099842
 30
0.0
 10
696.6189539103742
 20
581.3893344674137
 30
0.0
 10
696.4945618936226
 20
581.3062345261093
 30
0.0
  0
ARC
  5
24D
330
1F
100
AcDbEntity
  8
0
  6
Continuous
 62
     7
370
    25
100
AcDbCircle
 10
713.8658331134
 20
585.5740510933
 30
0.0
 40
0.5000763403800835
100
AcDbArc
 50
93.1626296398
 51
101.6913635616
  0
SPLINE
  5
24E
330
1F
100
AcDbEntity
  8
0
  6
Continuous
 62
     7
370
    25
100
AcDbSpline
210
0.0
220
0.0
230
1.0
 70
     8
 71
     3
 72
    12
 73
     8
 74
     0
 42
0.00000001
 43
0.00000001
 40
0.0
 40
0.0
 40
0.0
 40
0.0
 40
0.0460732444350186
 40
0.2494607408078308
 40
0.4779405209378887
 40
0.7057893369168751
 40
0.9999999999999999
 40
0.9999999999999999
 40
0.9999999999999999
 40
0.9999999999999999
 10
684.9514659191216
 20
599.2985157418397
 30
0.0
 10
685.0798031468432
 20
599.3610211392555
 30
0.0
 10
685.7746771522073
 20
599.6994527590607
 30
0.0
 10
687.133933103162
 20
600.3179948558858
 30
0.0
 10
689.1438876178523
 20
601.1257194074544
 30
0.0
 10
691.639090026966
 20
601.997797320994
 30
0.0
 10
693.5694333263966
 20
602.4929340549683
 30
0.0
 10
694.6572932444348
 20
602.7719721965248
 30
0.0
  0
LINE
  5
24F
330
1F
100
AcDbEntity
  8
0
  6
Continuous
 62
     7
370
    25
100
AcDbLine
 10
695.1107533223
 20
600.8243696673
 30
0.0
 11
694.6572932444
 21
602.7719721965
 31
0.0
  0
SPLINE
  5
250
330
1F
100
AcDbEntity
  8
0
  6
Continuous
 62
     7
370
    25
100
AcDbSpline
210
0.0
220
0.0
230
1.0
 70
     8
 71
     3
 72
    13
 73
     9
 74
     0
 42
0.00000001
 43
0.00000001
 40
0.0
 40
0.0
 40
0.0
 40
0.0
 40
0.2574896950994368
 40
0.4890886589321025
 40
0.7206004760683485
 40
0.9447506334961274
 40
0.9460032291293288
 40
1.0
 40
1.0
 40
1.0
 40
1.0
 10
695.1107533223218
 20
600.8243696673106
 30
0.0
 10
694.1920277463338
 20
600.8524326314255
 30
0.0
 10
692.4469549591958
 20
600.9057368130909
 30
0.0
 10
689.9523897132822
 20
600.7411726942528
 30
0.0
 10
687.6367399072815
 20
600.3277986992426
 30
0.0
 10
686.1596313056774
 20
599.8282415126794
 30
0.0
 10
685.2883698611367
 20
599.4539986577494
 30
0.0
 10
685.1183234523138
 20
599.3750182392644
 30
0.0
 10
684.9521322802585
 20
599.2978284390895
 30
0.0
  0
LINE
  5
251
330
1F
100
AcDbEntity
  8
0
  6
Continuous
 62
     7
370
    25
100
AcDbLine
 10
684.9521322803
 20
599.2978284391
 30
0.0
 11
684.9514659191
 21
599.2985157418
 31
0.0
  0
ARC
  5
252
330
1F
100
AcDbEntity
  8
0
  6
Continuous
 62
     7
370
    25
100
AcDbCircle
 10
705.5668238005
 20
555.9157430827
 30
0.0
 40
48.10950076354631
100
AcDbArc
 50
102.8580809319
 51
103.1066633214
  0
LWPOLYLINE
  5
253
330
1F
100
AcDbEntity
  8
0
  6
Continuous
 62
     7
370
    25
100
AcDbPolyline
 90
        3
 70
   128
 43
0.0
 10
684.9514659191
 20
599.2985157418
 10
684.9081090425
 20
599.3259072142
 10
684.8035309693
 20
599.3919052443
  0
ARC
  5
254
330
1F
100
AcDbEntity
  8
0
  6
Continuous
 62
     7
370
    25
100
AcDbCircle
 10
705.5668238005
 20
555.9157430827
 30
0.0
 40
48.17977797259051
100
AcDbArc
 50
102.8580809319
 51
115.5281512988
  0
LINE
  5
255
330
1F
100
AcDbEntity
  8
0
  6
Continuous
 62
     7
370
    25
100
AcDbLine
 10
694.8606848359
 20
602.8188629383
 30
0.0
 11
694.845045564
 21
602.887377895
 31
0.0
  0
LINE
  5
256
330
1F
100
AcDbEntity
  8
0
  6
Continuous
 62
     7
370
    25
100
AcDbLine
 10
701.2160726381
 20
599.5164852598
 30
0.0
 11
702.3455480556
 21
601.1666570495
 31
0.0
  0
SPLINE
  5
257
330
1F
100
AcDbEntity
  8
0
  6
Continuous
 62
     7
370
    25
100
AcDbSpline
210
0.0
220
0.0
230
1.0
 70
     8
 71
     3
 72
    14
 73
    10
 74
     0
 42
0.00000001
 43
0.00000001
 40
0.0
 40
0.0
 40
0.0
 40
0.0
 40
0.2256458607195977
 40
0.4518169308148963
 40
0.815776144776343
 40
0.8946140573305373
 40
0.9637846180221654
 40
0.9940799143125669
 40
0.9999999999999999
 40
0.9999999999999999
 40
0.9999999999999999
 40
0.9999999999999999
 10
702.3455480555905
 20
601.1666570494674
 30
0.0
 10
703.1912956026616
 20
600.6216333269662
 30
0.0
 10
704.8847592440654
 20
599.530317294239
 30
0.0
 10
708.0649813441178
 20
597.964876209437
 30
0.0
 10
710.7362594072843
 20
597.011497375201
 30
0.0
 10
712.6867878945353
 20
596.4900492290719
 30
0.0
 10
713.3308644049772
 20
596.3346685544299
 30
0.0
 10
713.6588153012038
 20
596.2591184935852
 30
0.0
 10
713.7513526338026
 20
596.2375977194401
 30
0.0
 10
713.7664796021887
 20
596.234079743927
 30
0.0
  0
SPLINE
  5
258
330
1F
100
AcDbEntity
  8
0
  6
Continuous
 62
     7
370
    25
100
AcDbSpline
210
0.0
220
0.0
230
1.0
 70
     8
 71
     3
 72
    11
 73
     7
 74
     0
 42
0.00000001
 43
0.00000001
 40
0.0
 40
0.0
 40
0.0
 40
0.0
 40
0.019556121229571
 40
0.168189199674442
 40
0.5898876540792781
 40
1.0
 40
1.0
 40
1.0
 40
1.0
 10
713.6565382107718
 20
596.225812181834
 30
0.0
 10
713.6584969239198
 20
596.2257540681182
 30
0.0
 10
713.6753425137424
 20
596.2252542706775
 30
0.0
 10
713.727243077502
 20
596.224407853264
 30
0.0
 10
713.7765277095673
 20
596.2264971517861
 30
0.0
 10
713.7697977244909
 20
596.2315757929696
 30
0.0
 10
713.7664796021888
 20
596.234079743927
 30
0.0
  0
SPLINE
  5
259
330
1F
100
AcDbEntity
  8
0
  6
Continuous
 62
     7
370
    25
100
AcDbSpline
210
0.0
220
0.0
230
1.0
 70
     8
 71
     3
 72
    17
 73
    13
 74
     0
 42
0.00000001
 43
0.00000001
 40
0.0
 40
0.0
 40
0.0
 40
0.0
 40
0.0068263121770685
 40
0.0088448507297254
 40
0.0223990310416126
 40
0.0309593028397538
 40
0.0563218912149143
 40
0.1198824177066684
 40
0.1957460556357056
 40
0.5558621944880031
 40
0.77803360979772
 40
1.0
 40
1.0
 40
1.0
 40
1.0
 10
713.6565382107718
 20
596.225812181834
 30
0.0
 10
713.6529180656102
 20
596.226850364879
 30
0.0
 10
713.6482274445626
 20
596.2281955383528
 30
0.0
 10
713.6046947318594
 20
596.2357855264278
 30
0.0
 10
713.5301628094269
 20
596.2475370332343
 30
0.0
 10
713.3633305639249
 20
596.2732559284576
 30
0.0
 10
712.9817544468576
 20
596.3317705074797
 30
0.0
 10
712.2988534801233
 20
596.440967492067
 30
0.0
 10
710.1938541632056
 20
596.808139724491
 30
0.0
 10
707.3809195814194
 20
597.4423174084563
 30
0.0
 10
703.9821353668528
 20
598.4552577003149
 30
0.0
 10
702.1378097520891
 20
599.1628516210014
 30
0.0
 10
701.2160726380985
 20
599.5164852598286
 30
0.0
  0
LINE
  5
25A
330
1F
100
AcDbEntity
  8
0
  6
Continuous
 62
     7
370
    25
100
AcDbLine
 10
697.1226297873
 20
597.139006644
 30
0.0
 11
697.2659916163
 21
599.7346546135
 31
0.0
  0
LINE
  5
25B
330
1F
100
AcDbEntity
  8
0
  6
Continuous
 62
     7
370
    25
100
AcDbLine
 10
697.2659916163
 20
599.7346546135
 30
0.0
 11
701.2160726381
 21
599.5164852598
 31
0.0
  0
LINE
  5
25C
330
1F
100
AcDbEntity
  8
0
  6
Continuous
 62
     7
370
    25
100
AcDbLine
 10
694.3041775483
 20
598.2039806219
 30
0.0
 11
695.9131345416
 21
600.2458421229
 31
0.0
  0
LINE
  5
25D
330
1F
100
AcDbEntity
  8
0
  6
Continuous
 62
     7
370
    25
100
AcDbLine
 10
684.9521322803
 20
599.2978284391
 30
0.0
 11
684.9527001658
 21
599.2972413982
 31
0.0
  0
ARC
  5
25E
330
1F
100
AcDbEntity
  8
0
  6
Continuous
 62
     7
370
    25
100
AcDbCircle
 10
688.7388443936
 20
591.1412439817
 30
0.0
 40
11.5915549620674
100
AcDbArc
 50
51.762407147
 51
56.6533814372
  0
LWPOLYLINE
  5
25F
330
1F
100
AcDbEntity
  8
0
  6
Continuous
 62
     7
370
    25
100
AcDbPolyline
 90
        4
 70
   128
 43
0.0
 10
713.7664796022
 20
596.2340797439
 10
713.7687218485
 20
596.2514379989
 10
713.7776943314
 20
596.3208708605
 10
713.7840246126
 20
596.3698310066
  0
ARC
  5
260
330
1F
100
AcDbEntity
  8
0
  6
Continuous
 62
     7
370
    25
100
AcDbCircle
 10
720.1814587274
 20
627.2250521038
 30
0.0
 40
31.57783498432752
100
AcDbArc
 50
234.8280705831
 51
235.6099480104
  0
LINE
  5
261
330
1F
100
AcDbEntity
  8
0
  6
Continuous
 62
     7
370
    25
100
AcDbLine
 10
701.9916181899
 20
601.4124706072
 30
0.0
 11
702.0321001047
 21
601.46991711
 31
0.0
  0
ARC
  5
262
330
1F
100
AcDbEntity
  8
0
  6
Continuous
 62
     7
370
    25
100
AcDbCircle
 10
720.1814587274
 20
627.2250521038
 30
0.0
 40
31.5075577752834
100
AcDbArc
 50
234.8280705831
 51
254.9420027521
  0
LINE
  5
263
330
1F
100
AcDbEntity
  8
0
  6
Continuous
 62
     7
370
    25
100
AcDbLine
 10
713.7840246126
 20
596.3698310066
 30
0.0
 11
711.9959003288
 21
596.7993585099
 31
0.0
  0
LINE
  5
264
330
1F
100
AcDbEntity
  8
0
  6
Continuous
 62
     7
370
    25
100
AcDbLine
 10
713.8578620219
 20
585.9229752531
 30
0.0
 11
713.7840246126
 21
585.9126569569
 31
0.0
  0
SPLINE
  5
265
330
1F
100
AcDbEntity
  8
0
  6
Continuous
 62
     7
370
    25
100
AcDbSpline
210
0.0
220
0.0
230
1.0
 70
     8
 71
     3
 72
    10
 73
     6
 74
     0
 42
0.00000001
 43
0.00000001
 40
0.0
 40
0.0
 40
0.0
 40
0.0
 40
0.0490769085761659
 40
0.599580584366531
 40
1.0
 40
1.0
 40
1.0
 40
1.0
 10
695.9131345415617
 20
600.245842122862
 30
0.0
 10
695.9320820799308
 20
600.2312193872607
 30
0.0
 10
696.1635672418372
 20
600.0525710450715
 30
0.0
 10
696.6094410166546
 20
599.8185190516502
 30
0.0
 10
697.071447593539
 20
599.7595046786327
 30
0.0
 10
697.2659916162927
 20
599.7346546135004
 30
0.0
  0
ARC
  5
266
330
1F
100
AcDbEntity
  8
0
  6
Continuous
 62
     7
370
    25
100
AcDbCircle
 10
713.8678330031
 20
596.7237774409
 30
0.0
 40
0.5000763404983236
100
AcDbArc
 50
258.3065203378
 51
266.8373700347
  0
SPLINE
  5
267
330
1F
100
AcDbEntity
  8
0
  6
Continuous
 62
     7
370
    25
100
AcDbSpline
210
0.0
220
0.0
230
1.0
 70
     8
 71
     3
 72
     9
 73
     5
 74
     0
 42
0.00000001
 43
0.00000001
 40
0.0
 40
0.0
 40
0.0
 40
0.0
 40
0.8458911907785723
 40
1.0
 40
1.0
 40
1.0
 40
1.0
 10
713.7840246125994
 20
596.3698310066133
 30
0.0
 10
713.8048652087105
 20
596.366016199621
 30
0.0
 10
713.8295026518454
 20
596.3615063914635
 30
0.0
 10
713.8540751790216
 20
596.3597789277127
 30
0.0
 10
713.8578620219242
 20
596.3595127103309
 30
0.0
  0
LINE
  5
268
330
1F
100
AcDbEntity
  8
0
  6
Continuous
 62
     7
370
    25
100
AcDbLine
 10
731.8532822196
 20
595.2932568571
 30
0.0
 11
731.8528241998
 21
595.2932819435
 31
0.0
  0
LINE
  5
269
330
1F
100
AcDbEntity
  8
0
  6
Continuous
 62
     7
370
    25
100
AcDbLine
 10
701.9911802185
 20
580.8706388666
 30
0.0
 11
700.1524393692
 21
579.8736726309
 31
0.0
  0
LINE
  5
26A
330
1F
100
AcDbEntity
  8
0
  6
Continuous
 62
     7
370
    25
100
AcDbLine
 10
699.4124149541
 20
581.7313985308
 30
0.0
 11
700.1524393692
 21
579.8736726309
 31
0.0
  0
LINE
  5
26B
330
1F
100
AcDbEntity
  8
0
  6
Continuous
 62
     7
370
    25
100
AcDbLine
 10
696.4256446273
 20
581.2522770438
 30
0.0
 11
696.3038108807
 21
579.2562965348
 31
0.0
  0
LINE
  5
26C
330
1F
100
AcDbEntity
  8
0
  6
Continuous
 62
     7
370
    25
100
AcDbLine
 10
696.3038108807
 20
579.2562965348
 30
0.0
 11
694.8609036409
 21
579.4645836001
 31
0.0
  0
ARC
  5
26D
330
1F
100
AcDbEntity
  8
0
  6
Continuous
 62
     7
370
    25
100
AcDbCircle
 10
705.5668238005
 20
555.9157430827
 30
0.0
 40
46.10980537323343
100
AcDbArc
 50
102.8580809319
 51
103.1066633214
  0
LINE
  5
26E
330
1F
100
AcDbEntity
  8
0
  6
Continuous
 62
     7
370
    25
100
AcDbLine
 10
695.3056908409
 20
600.8693113721
 30
0.0
 11
694.8606848359
 21
602.8188629383
 31
0.0
  0
ARC
  5
26F
330
1F
100
AcDbEntity
  8
0
  6
Continuous
 62
     7
370
    25
100
AcDbCircle
 10
696.8478595988
 20
594.1131384575
 30
0.0
 40
6.929946387144206
100
AcDbArc
 50
54.8280705831
 51
102.8580809319
  0
ARC
  5
270
330
1F
100
AcDbEntity
  8
0
  6
Continuous
 62
     7
370
    25
100
AcDbCircle
 10
696.8478595988
 20
594.1131384575
 30
0.0
 40
8.929641777457059
100
AcDbArc
 50
54.8280705831
 51
102.8580809319
  0
LINE
  5
271
330
1F
100
AcDbEntity
  8
0
  6
Continuous
 62
     7
370
    25
100
AcDbLine
 10
700.8397298387
 20
599.7778651867
 30
0.0
 11
701.9916181899
 21
601.4124706072
 31
0.0
  0
ARC
  5
272
330
1F
100
AcDbEntity
  8
0
  6
Continuous
 62
     7
370
    25
100
AcDbCircle
 10
696.8478595988
 20
588.1693495059
 30
0.0
 40
6.929946387144304
100
AcDbArc
 50
266.5070253286
 51
291.7198462835
  0
ARC
  5
273
330
1F
100
AcDbEntity
  8
0
  6
Continuous
 62
     7
370
    25
100
AcDbCircle
 10
720.1814587274
 20
627.2250521038
 30
0.0
 40
33.57753037464038
100
AcDbArc
 50
234.8280705831
 51
235.6099480104
  0
ARC
  5
274
330
1F
100
AcDbEntity
  8
0
  6
Continuous
 62
     7
370
    25
100
AcDbCircle
 10
696.8478595988
 20
588.1693495059
 30
0.0
 40
8.929641777457107
100
AcDbArc
 50
266.5070253286
 51
291.7198462835
  0
ARC
  5
275
330
1F
100
AcDbEntity
  8
0
  6
Continuous
 62
     7
370
    25
100
AcDbCircle
 10
696.8478595988
 20
588.1693495059
 30
0.0
 40
8.999918986501271
100
AcDbArc
 50
257.1419190681
 51
305.1719294169
  0
ARC
  5
276
330
1F
100
AcDbEntity
  8
0
  6
Continuous
 62
     7
370
    25
100
AcDbCircle
 10
696.8478595988
 20
594.1131384575
 30
0.0
 40
8.999918986501177
100
AcDbArc
 50
54.8280705831
 51
102.8580809319
  0
ARC
  5
277
330
1F
100
AcDbEntity
  8
0
  6
Continuous
 62
     7
370
    25
100
AcDbCircle
 10
485.5388443936
 20
590.8958226929
 30
0.0
 40
10.30000000000002
100
AcDbArc
 50
292.7308609266
 51
307.2691390734
  0
SPLINE
  5
278
330
1F
100
AcDbEntity
  8
0
  6
Continuous
 62
     7
370
    25
100
AcDbSpline
210
0.0
220
0.0
230
1.0
 70
    24
 71
     3
 72
    10
 73
     6
 74
     0
 42
0.00000001
 43
0.00000001
 40
0.0
 40
0.0
 40
0.0
 40
0.0
 40
0.07539421856212
 40
0.6651331616214426
 40
1.0
 40
1.0
 40
1.0
 40
1.0
 10
489.5187941420192
 20
581.3958226929088
 30
0.0
 10
489.4435826765935
 20
581.3958226929088
 30
0.0
 10
488.7800617761471
 20
581.3958226929088
 30
0.0
 10
487.7543026695305
 20
581.3958226929088
 30
0.0
 10
486.7715899567281
 20
581.3958226929088
 30
0.0
 10
486.4156783825447
 20
581.3958226929088
 30
0.0
  0
SPLINE
  5
279
330
1F
100
AcDbEntity
  8
0
  6
Continuous
 62
     7
370
    25
100
AcDbSpline
210
0.0
220
0.0
230
1.0
 70
    24
 71
     3
 72
    10
 73
     6
 74
     0
 42
0.00000001
 43
0.00000001
 40
0.0
 40
0.0
 40
0.0
 40
0.0
 40
0.3848035719694788
 40
0.9302662133992883
 40
1.0
 40
1.0
 40
1.0
 40
1.0
 10
486.1579488147449
 20
600.3958226929088
 30
0.0
 10
486.6003705114704
 20
600.3958226929088
 30
0.0
 10
487.6699290772394
 20
600.3958226929088
 30
0.0
 10
488.7800924736619
 20
600.3958226929088
 30
0.0
 10
489.4435858019541
 20
600.3958226929088
 30
0.0
 10
489.5187941420192
 20
600.3958226929088
 30
0.0
  0
ARC
  5
27A
330
1F
100
AcDbEntity
  8
0
  6
Continuous
 62
     7
370
    25
100
AcDbCircle
 10
485.5388443936
 20
590.8958226929
 30
0.0
 40
10.30000000000002
100
AcDbArc
 50
52.7308609266
 51
67.2691390734
  0
SPLINE
  5
27B
330
1F
100
AcDbEntity
  8
0
  6
Continuous
 62
     7
370
    25
100
AcDbSpline
210
0.0
220
0.0
230
1.0
 70
    24
 71
     3
 72
    11
 73
     7
 74
     0
 42
0.00000001
 43
0.00000001
 40
0.0
 40
0.0
 40
0.0
 40
0.0
 40
0.2431641197380913
 40
0.4936284730588932
 40
0.7421706076863291
 40
1.0
 40
1.0
 40
1.0
 40
1.0
 10
491.7761108553317
 20
599.0925602808317
 30
0.0
 10
492.0898698570284
 20
598.5491137485608
 30
0.0
 10
492.7268074820483
 20
597.445905420774
 30
0.0
 10
493.7371964510549
 20
595.6958603910475
 30
0.0
 10
494.768903578891
 20
593.9088912271045
 30
0.0
 10
495.4230093217892
 20
592.7759468468823
 30
0.0
 10
495.7560606037582
 20
592.199085104986
 30
0.0
  0
ARC
  5
27C
330
1F
100
AcDbEntity
  8
0
  6
Continuous
 62
     7
370
    25
100
AcDbCircle
 10
485.5388443936
 20
590.8958226929
 30
0.0
 40
10.30000000000001
100
AcDbArc
 50
352.7308609266
 51
7.2691390734
  0
SPLINE
  5
27D
330
1F
100
AcDbEntity
  8
0
  6
Continuous
 62
     7
370
    25
100
AcDbSpline
210
0.0
220
0.0
230
1.0
 70
    24
 71
     3
 72
    11
 73
     7
 74
     0
 42
0.00000001
 43
0.00000001
 40
0.0
 40
0.0
 40
0.0
 40
0.0
 40
0.2431641197380911
 40
0.493628473058894
 40
0.742170607686329
 40
1.0
 40
1.0
 40
1.0
 40
1.0
 10
495.7560606037581
 20
589.5925602808317
 30
0.0
 10
495.4423016020614
 20
589.0491137485608
 30
0.0
 10
494.8053639770415
 20
587.9459054207741
 30
0.0
 10
493.7949750080348
 20
586.1958603910474
 30
0.0
 10
492.7632678801989
 20
584.4088912271046
 30
0.0
 10
492.1091621373007
 20
583.2759468468822
 30
0.0
 10
491.7761108553317
 20
582.699085104986
 30
0.0
  0
SPLINE
  5
27E
330
1F
100
AcDbEntity
  8
0
  6
Continuous
 62
     7
370
    25
100
AcDbSpline
210
0.0
220
0.0
230
1.0
 70
    24
 71
     3
 72
    10
 73
     6
 74
     0
 42
0.00000001
 43
0.00000001
 40
0.0
 40
0.0
 40
0.0
 40
0.0
 40
0.4659072110093477
 40
0.9422777323363251
 40
1.0
 40
1.0
 40
1.0
 40
1.0
 10
688.7711791889154
 20
581.3958226929088
 30
0.0
 10
688.1329608224598
 20
581.3958226929088
 30
0.0
 10
686.8421910278125
 20
581.3958226929088
 30
0.0
 10
685.5179457694891
 20
581.3958226929088
 30
0.0
 10
684.8329281657332
 20
581.3958226929088
 30
0.0
 10
684.7588946451663
 20
581.3958226929088
 30
0.0
  0
ARC
  5
27F
330
1F
100
AcDbEntity
  8
0
  6
Continuous
 62
     7
370
    25
100
AcDbCircle
 10
688.7388443936
 20
590.8958226929
 30
0.0
 40
10.30000000000002
100
AcDbArc
 50
232.7308609266
 51
247.2691390734
  0
SPLINE
  5
280
330
1F
100
AcDbEntity
  8
0
  6
Continuous
 62
     7
370
    25
100
AcDbSpline
210
0.0
220
0.0
230
1.0
 70
    24
 71
     3
 72
    11
 73
     7
 74
     0
 42
0.00000001
 43
0.00000001
 40
0.0
 40
0.0
 40
0.0
 40
0.0
 40
0.2431641197380911
 40
0.4936284730588937
 40
0.7421706076863289
 40
1.0
 40
1.0
 40
1.0
 40
1.0
 10
682.5015779318538
 20
582.699085104986
 30
0.0
 10
682.1878189301572
 20
583.2425316372569
 30
0.0
 10
681.5508813051372
 20
584.3457399650437
 30
0.0
 10
680.5404923361306
 20
586.0957849947703
 30
0.0
 10
679.5087852082946
 20
587.882754158713
 30
0.0
 10
678.8546794653963
 20
589.0156985389355
 30
0.0
 10
678.5216281834274
 20
589.5925602808317
 30
0.0
  0
ARC
  5
281
330
1F
100
AcDbEntity
  8
0
  6
Continuous
 62
     7
370
    25
100
AcDbCircle
 10
688.7388443936
 20
590.8958226929
 30
0.0
 40
10.29999999999995
100
AcDbArc
 50
172.7308609266
 51
187.2691390734
  0
SPLINE
  5
282
330
1F
100
AcDbEntity
  8
0
  6
Continuous
 62
     7
370
    25
100
AcDbSpline
210
0.0
220
0.0
230
1.0
 70
    24
 71
     3
 72
    11
 73
     7
 74
     0
 42
0.00000001
 43
0.00000001
 40
0.0
 40
0.0
 40
0.0
 40
0.0
 40
0.2431641197380909
 40
0.4936284730588934
 40
0.7421706076863288
 40
1.0
 40
1.0
 40
1.0
 40
1.0
 10
678.5216281834274
 20
592.199085104986
 30
0.0
 10
678.8353871851242
 20
592.7425316372569
 30
0.0
 10
679.4723248101441
 20
593.8457399650437
 30
0.0
 10
680.4827137791506
 20
595.5957849947702
 30
0.0
 10
681.5144209069866
 20
597.3827541587132
 30
0.0
 10
682.1685266498849
 20
598.5156985389353
 30
0.0
 10
682.5015779318538
 20
599.0925602808317
 30
0.0
  0
ARC
  5
283
330
1F
100
AcDbEntity
  8
0
  6
Continuous
 62
     7
370
    25
100
AcDbCircle
 10
688.7388443936
 20
590.8958226929
 30
0.0
 40
10.30000000000002
100
AcDbArc
 50
112.7308609266
 51
127.2691390734
  0
SPLINE
  5
284
330
1F
100
AcDbEntity
  8
0
  6
Continuous
 62
     7
370
    25
100
AcDbSpline
210
0.0
220
0.0
230
1.0
 70
    24
 71
     3
 72
    10
 73
     6
 74
     0
 42
0.00000001
 43
0.00000001
 40
0.0
 40
0.0
 40
0.0
 40
0.0
 40
0.0993746184585311
 40
0.9194937980719894
 40
1.0
 40
1.0
 40
1.0
 40
1.0
 10
684.7588946451664
 20
600.3958226929088
 30
0.0
 10
684.8329522603784
 20
600.3958226929088
 30
0.0
 10
685.5181928071474
 20
600.3958226929088
 30
0.0
 10
686.2808996837583
 20
600.3958226929088
 30
0.0
 10
686.9943682284519
 20
600.3958226929088
 30
0.0
 10
687.0581446263923
 20
600.3958226929088
 30
0.0
  0
ARC
  5
285
330
1F
100
AcDbEntity
  8
0
  6
Continuous
 62
     7
370
    25
100
AcDbCircle
 10
485.5388443936
 20
590.8958226929
 30
0.0
 40
14.87500000000004
100
AcDbArc
 50
233.3837470415
 51
30.0
  0
ARC
  5
286
330
1F
100
AcDbEntity
  8
0
  6
Continuous
 62
     7
370
    25
100
AcDbCircle
 10
485.5388443936
 20
590.8958226929
 30
0.0
 40
14.87500000000003
100
AcDbArc
 50
30.0
 51
126.6162529585
  0
ARC
  5
287
330
1F
100
AcDbEntity
  8
0
  6
Continuous
 62
     7
370
    25
100
AcDbCircle
 10
485.5388443936
 20
590.8958226929
 30
0.0
 40
10.57500000000004
100
AcDbArc
 50
261.6509017607
 51
30.0
  0
ARC
  5
288
330
1F
100
AcDbEntity
  8
0
  6
Continuous
 62
     7
370
    25
100
AcDbCircle
 10
485.5388443936
 20
590.8958226929
 30
0.0
 40
10.57500000000005
100
AcDbArc
 50
30.0
 51
98.3490982393
  0
SPLINE
  5
289
330
1F
100
AcDbEntity
  8
0
  6
Continuous
 62
     7
370
    25
100
AcDbSpline
210
0.0
220
0.0
230
1.0
 70
     8
 71
     3
 72
     9
 73
     5
 74
     0
 42
0.00000001
 43
0.00000001
 40
0.0
 40
0.0
 40
0.0
 40
0.0
 40
0.5850553834534097
 40
1.0
 40
1.0
 40
1.0
 40
1.0
 10
474.412433745678
 20
577.6673312409725
 30
0.0
 10
474.6722086654868
 20
577.2807847154087
 30
0.0
 10
475.1162263211752
 20
576.6200839740834
 30
0.0
 10
475.788077513208
 20
576.1419251419572
 30
0.0
 10
476.0668585484624
 20
575.9435157087124
 30
0.0
  0
LINE
  5
28A
330
1F
100
AcDbEntity
  8
0
  6
Continuous
 62
     7
370
    25
100
AcDbLine
 10
472.9071084664
 20
580.2746311067
 30
0.0
 11
474.4124337457
 21
577.667331241
 31
0.0
  0
SPLINE
  5
28B
330
1F
100
AcDbEntity
  8
0
  6
Continuous
 62
     7
370
    25
100
AcDbSpline
210
0.0
220
0.0
230
1.0
 70
    24
 71
     3
 72
     9
 73
     5
 74
     0
 42
0.00000001
 43
0.00000001
 40
0.0
 40
0.0
 40
0.0
 40
0.0
 40
0.9286188355902005
 40
1.0
 40
1.0
 40
1.0
 40
1.0
 10
474.4124337456788
 20
604.1243141448465
 30
0.0
 10
473.9684725255365
 20
603.3553507549698
 30
0.0
 10
473.4903848504572
 20
602.5272786112599
 30
0.0
 10
472.9909047446549
 20
601.6621536906406
 30
0.0
 10
472.9552512731032
 20
601.6004000664468
 30
0.0
  0
SPLINE
  5
28C
330
1F
100
AcDbEntity
  8
0
  6
Continuous
 62
     7
370
    25
100
AcDbSpline
210
0.0
220
0.0
230
1.0
 70
     8
 71
     3
 72
     9
 73
     5
 74
     0
 42
0.00000001
 43
0.00000001
 40
0.0
 40
0.0
 40
0.0
 40
0.0
 40
0.584191749740925
 40
1.0
 40
1.0
 40
1.0
 40
1.0
 10
476.0668585484624
 20
605.8481296771054
 30
0.0
 10
475.6792022830119
 20
605.5588537736056
 30
0.0
 10
475.0156251858987
 20
605.063680906772
 30
0.0
 10
474.5895848374902
 20
604.4001964541608
 30
0.0
 10
474.4124337456788
 20
604.1243141448465
 30
0.0
  0
ARC
  5
28D
330
1F
100
AcDbEntity
  8
0
  6
Continuous
 62
     7
370
    25
100
AcDbCircle
 10
485.5388443936
 20
590.8958226929
 30
0.0
 40
17.70000000000002
100
AcDbArc
 50
117.6465635726
 51
122.3534364274
  0
SPLINE
  5
28E
330
1F
100
AcDbEntity
  8
0
  6
Continuous
 62
     7
370
    25
100
AcDbSpline
210
0.0
220
0.0
230
1.0
 70
     8
 71
     3
 72
     9
 73
     5
 74
     0
 42
0.00000001
 43
0.00000001
 40
0.0
 40
0.0
 40
0.0
 40
0.0
 40
0.5850553834536162
 40
1.0
 40
1.0
 40
1.0
 40
1.0
 10
479.6458400664265
 20
607.1458226929088
 30
0.0
 10
479.1811934956391
 20
607.1141242758702
 30
0.0
 10
478.3870010415087
 20
607.0599440769776
 30
0.0
 10
477.6369777498277
 20
606.7171832931776
 30
0.0
 10
477.3257596226603
 20
606.5749565511766
 30
0.0
  0
SPLINE
  5
28F
330
1F
100
AcDbEntity
  8
0
  6
Continuous
 62
     7
370
    25
100
AcDbSpline
210
0.0
220
0.0
230
1.0
 70
    24
 71
     3
 72
    11
 73
     7
 74
     0
 42
0.00000001
 43
0.00000001
 40
0.0
 40
0.0
 40
0.0
 40
0.0
 40
0.2328716322111479
 40
0.4710265024313248
 40
0.7311421212560302
 40
0.9999999999999999
 40
0.9999999999999999
 40
0.9999999999999999
 40
0.9999999999999999
 10
491.431848720759
 20
607.1458226929088
 30
0.0
 10
490.5379922904385
 20
607.1458226929088
 30
0.0
 10
488.7300002046192
 20
607.1458226929088
 30
0.0
 10
485.8023274640562
 20
607.1458226929088
 30
0.0
 10
482.7152285535783
 20
607.1458226929088
 30
0.0
 10
480.6801805325921
 20
607.1458226929088
 30
0.0
 10
479.6458400664265
 20
607.1458226929088
 30
0.0
  0
SPLINE
  5
290
330
1F
100
AcDbEntity
  8
0
  6
Continuous
 62
     7
370
    25
100
AcDbSpline
210
0.0
220
0.0
230
1.0
 70
     8
 71
     3
 72
     9
 73
     5
 74
     0
 42
0.00000001
 43
0.00000001
 40
0.0
 40
0.0
 40
0.0
 40
0.0
 40
0.5841917497409234
 40
1.0
 40
1.0
 40
1.0
 40
1.0
 10
493.7519291645253
 20
606.5749565511766
 30
0.0
 10
493.3075807506665
 20
606.766038773243
 30
0.0
 10
492.5469599201672
 20
607.0931269632958
 30
0.0
 10
491.7593453549857
 20
607.1303465017492
 30
0.0
 10
491.431848720759
 20
607.1458226929088
 30
0.0
  0
ARC
  5
291
330
1F
100
AcDbEntity
  8
0
  6
Continuous
 62
     7
370
    25
100
AcDbCircle
 10
485.5388443936
 20
590.8958226929
 30
0.0
 40
17.70000000000005
100
AcDbArc
 50
57.6465635726
 51
62.3534364274
  0
SPLINE
  5
292
330
1F
100
AcDbEntity
  8
0
  6
Continuous
 62
     7
370
    25
100
AcDbSpline
210
0.0
220
0.0
230
1.0
 70
     8
 71
     3
 72
     9
 73
     5
 74
     0
 42
0.00000001
 43
0.00000001
 40
0.0
 40
0.0
 40
0.0
 40
0.0
 40
0.5850553834536193
 40
1.0
 40
1.0
 40
1.0
 40
1.0
 10
496.6652550415067
 20
604.1243141448465
 30
0.0
 10
496.4054801216978
 20
604.5108606704102
 30
0.0
 10
495.9614624660096
 20
605.1715614117348
 30
0.0
 10
495.2896112739771
 20
605.6497202438607
 30
0.0
 10
495.010830238723
 20
605.8481296771054
 30
0.0
  0
SPLINE
  5
293
330
1F
100
AcDbEntity
  8
0
  6
Continuous
 62
     7
370
    25
100
AcDbSpline
210
0.0
220
0.0
230
1.0
 70
    24
 71
     3
 72
    11
 73
     7
 74
     0
 42
0.00000001
 43
0.00000001
 40
0.0
 40
0.0
 40
0.0
 40
0.0
 40
0.2556279644380972
 40
0.5185037642963867
 40
0.7560467972580103
 40
1.0
 40
1.0
 40
1.0
 40
1.0
 10
502.558259368673
 20
593.9173312409712
 30
0.0
 10
502.0669662904048
 20
594.7682758139388
 30
0.0
 10
501.0704504709608
 20
596.4942918437617
 30
0.0
 10
499.5502395645076
 20
599.1273743719591
 30
0.0
 10
498.0585238429594
 20
601.7111017921297
 30
0.0
 10
497.133781679453
 20
603.3128022032241
 30
0.0
 10
496.6652550415067
 20
604.1243141448465
 30
0.0
  0
SPLINE
  5
294
330
1F
100
AcDbEntity
  8
0
  6
Continuous
 62
     7
370
    25
100
AcDbSpline
210
0.0
220
0.0
230
1.0
 70
     8
 71
     3
 72
     9
 73
     5
 74
     0
 42
0.00000001
 43
0.00000001
 40
0.0
 40
0.0
 40
0.0
 40
0.0
 40
0.5841917497409242
 40
1.0
 40
1.0
 40
1.0
 40
1.0
 10
503.2239150096556
 20
591.62264956698
 30
0.0
 10
503.1672228612474
 20
592.1030076925463
 30
0.0
 10
503.0701791278614
 20
592.9252687494327
 30
0.0
 10
502.7086049110883
 20
593.6259727404971
 30
0.0
 10
502.558259368673
 20
593.9173312409712
 30
0.0
  0
ARC
  5
295
330
1F
100
AcDbEntity
  8
0
  6
Continuous
 62
     7
370
    25
100
AcDbCircle
 10
485.5388443936
 20
590.8958226929
 30
0.0
 40
17.70000000000003
100
AcDbArc
 50
357.6465635726
 51
2.3534364274
  0
SPLINE
  5
296
330
1F
100
AcDbEntity
  8
0
  6
Continuous
 62
     7
370
    25
100
AcDbSpline
210
0.0
220
0.0
230
1.0
 70
     8
 71
     3
 72
     9
 73
     5
 74
     0
 42
0.00000001
 43
0.00000001
 40
0.0
 40
0.0
 40
0.0
 40
0.0
 40
0.5850553834536182
 40
0.9999999999999999
 40
0.9999999999999999
 40
0.9999999999999999
 40
0.9999999999999999
 10
502.558259368673
 20
587.8743141448464
 30
0.0
 10
502.7631310196514
 20
588.2925590874489
 30
0.0
 10
503.1133058180936
 20
589.0074400276661
 30
0.0
 10
503.1914779177422
 20
589.8283596435919
 30
0.0
 10
503.2239150096556
 20
590.1689958188376
 30
0.0
  0
SPLINE
  5
297
330
1F
100
AcDbEntity
  8
0
  6
Continuous
 62
     7
370
    25
100
AcDbSpline
210
0.0
220
0.0
230
1.0
 70
    24
 71
     3
 72
    11
 73
     7
 74
     0
 42
0.00000001
 43
0.00000001
 40
0.0
 40
0.0
 40
0.0
 40
0.0
 40
0.2328716322111471
 40
0.471026502431323
 40
0.7311421212560296
 40
1.0
 40
1.0
 40
1.0
 40
1.0
 10
496.6652550415067
 20
577.6673312409713
 30
0.0
 10
497.1121832566669
 20
578.4414336169648
 30
0.0
 10
498.0161792995766
 20
580.0072006931256
 30
0.0
 10
499.4800156698581
 20
582.5426396604203
 30
0.0
 10
501.023565125097
 20
585.2161457408894
 30
0.0
 10
502.0410891355902
 20
586.9785490249847
 30
0.0
 10
502.558259368673
 20
587.8743141448464
 30
0.0
  0
SPLINE
  5
298
330
1F
100
AcDbEntity
  8
0
  6
Continuous
 62
     7
370
    25
100
AcDbSpline
210
0.0
220
0.0
230
1.0
 70
     8
 71
     3
 72
     9
 73
     5
 74
     0
 42
0.00000001
 43
0.00000001
 40
0.0
 40
0.0
 40
0.0
 40
0.0
 40
0.5841917497409237
 40
1.0
 40
1.0
 40
1.0
 40
1.0
 10
495.010830238723
 20
575.9435157087124
 30
0.0
 10
495.3984865041736
 20
576.232791612212
 30
0.0
 10
496.0620636012869
 20
576.7279644790456
 30
0.0
 10
496.4881039496952
 20
577.3914489316568
 30
0.0
 10
496.6652550415067
 20
577.6673312409713
 30
0.0
  0
ARC
  5
299
330
1F
100
AcDbEntity
  8
0
  6
Continuous
 62
     7
370
    25
100
AcDbCircle
 10
485.5388443936
 20
590.8958226929
 30
0.0
 40
17.70000000000002
100
AcDbArc
 50
297.6465635726
 51
302.3534364274
  0
SPLINE
  5
29A
330
1F
100
AcDbEntity
  8
0
  6
Continuous
 62
     7
370
    25
100
AcDbSpline
210
0.0
220
0.0
230
1.0
 70
     8
 71
     3
 72
     9
 73
     5
 74
     0
 42
0.00000001
 43
0.00000001
 40
0.0
 40
0.0
 40
0.0
 40
0.0
 40
0.5850553834536171
 40
1.0
 40
1.0
 40
1.0
 40
1.0
 10
491.431848720759
 20
574.6458226929088
 30
0.0
 10
491.8964952915463
 20
574.6775211099475
 30
0.0
 10
492.6906877456768
 20
574.73170130884
 30
0.0
 10
493.4407110373577
 20
575.07446209264
 30
0.0
 10
493.7519291645252
 20
575.2166888346411
 30
0.0
  0
SPLINE
  5
29B
330
1F
100
AcDbEntity
  8
0
  6
Continuous
 62
     7
370
    25
100
AcDbSpline
210
0.0
220
0.0
230
1.0
 70
    24
 71
     3
 72
    11
 73
     7
 74
     0
 42
0.00000001
 43
0.00000001
 40
0.0
 40
0.0
 40
0.0
 40
0.0
 40
0.2328716322111485
 40
0.471026502431326
 40
0.7311421212560308
 40
1.0
 40
1.0
 40
1.0
 40
1.0
 10
479.6458400664265
 20
574.6458226929088
 30
0.0
 10
480.539696496747
 20
574.6458226929088
 30
0.0
 10
482.3476885825663
 20
574.6458226929088
 30
0.0
 10
485.2753613231292
 20
574.6458226929088
 30
0.0
 10
488.3624602336072
 20
574.6458226929088
 30
0.0
 10
490.3975082545934
 20
574.6458226929088
 30
0.0
 10
491.431848720759
 20
574.6458226929088
 30
0.0
  0
SPLINE
  5
29C
330
1F
100
AcDbEntity
  8
0
  6
Continuous
 62
     7
370
    25
100
AcDbSpline
210
0.0
220
0.0
230
1.0
 70
     8
 71
     3
 72
     9
 73
     5
 74
     0
 42
0.00000001
 43
0.00000001
 40
0.0
 40
0.0
 40
0.0
 40
0.0
 40
0.5841917497409266
 40
1.0
 40
1.0
 40
1.0
 40
1.0
 10
477.3257596226603
 20
575.2166888346411
 30
0.0
 10
477.770108036519
 20
575.0256066125746
 30
0.0
 10
478.5307288670182
 20
574.6985184225218
 30
0.0
 10
479.3183434321998
 20
574.6612988840685
 30
0.0
 10
479.6458400664265
 20
574.6458226929088
 30
0.0
  0
ARC
  5
29D
330
1F
100
AcDbEntity
  8
0
  6
Continuous
 62
     7
370
    25
100
AcDbCircle
 10
485.5388443936
 20
590.8958226929
 30
0.0
 40
17.70000000000002
100
AcDbArc
 50
237.6465635726
 51
242.3534364274
  0
ARC
  5
29E
330
1F
100
AcDbEntity
  8
0
  6
Continuous
 62
     7
370
    25
100
AcDbCircle
 10
485.5388443936
 20
590.8958226929
 30
0.0
 40
16.20000000000004
100
AcDbArc
 50
223.9250761661
 51
136.0749238339
  0
LINE
  5
29F
330
1F
100
AcDbEntity
  8
0
  6
Continuous
 62
     7
370
    25
100
AcDbLine
 10
680.2950967067
 20
586.0208226929
 30
0.0
 11
679.7092947564
 21
587.2175441079
 31
0.0
  0
LINE
  5
2A0
330
1F
100
AcDbEntity
  8
0
  6
Continuous
 62
     7
370
    25
100
AcDbLine
 10
679.6346690301
 20
594.3853055989
 30
0.0
 11
679.7399542454
 21
594.6484852278
 31
0.0
  0
LWPOLYLINE
  5
2A1
330
1F
100
AcDbEntity
  8
0
  6
Continuous
 62
     7
370
    25
100
AcDbPolyline
 90
        3
 70
   128
 43
0.0
 10
681.5624923608
 20
584.2956354606
 10
681.3702860436
 20
584.5109305369
 10
680.2950967067
 20
586.0208226929
  0
ARC
  5
2A2
330
1F
100
AcDbEntity
  8
0
  6
Continuous
 62
     7
370
    25
100
AcDbCircle
 10
688.7388443936
 20
590.8958226929
 30
0.0
 40
14.87500000000004
100
AcDbArc
 50
55.1611835908
 51
308.4167037132
  0
ARC
  5
2A3
330
1F
100
AcDbEntity
  8
0
  6
Continuous
 62
     7
370
    25
100
AcDbCircle
 10
688.7388443936
 20
590.8958226929
 30
0.0
 40
10.57500000000003
100
AcDbArc
 50
84.5490172093
 51
281.0490866707
  0
ARC
  5
2A4
330
1F
100
AcDbEntity
  8
0
  6
Continuous
 62
     7
370
    25
100
AcDbCircle
 10
688.7388443936
 20
590.8958226929
 30
0.0
 40
16.20000000000002
100
AcDbArc
 50
210.0
 51
318.1420914366
  0
ARC
  5
2A5
330
1F
100
AcDbEntity
  8
0
  6
Continuous
 62
     7
370
    25
100
AcDbCircle
 10
688.7388443936
 20
590.8958226929
 30
0.0
 40
16.19999999999999
100
AcDbArc
 50
45.9729863763
 51
210.0
  0
SPLINE
  5
2A6
330
1F
100
AcDbEntity
  8
0
  6
Continuous
 62
     7
370
    25
100
AcDbSpline
210
0.0
220
0.0
230
1.0
 70
     8
 71
     3
 72
     9
 73
     5
 74
     0
 42
0.00000001
 43
0.00000001
 40
0.0
 40
0.0
 40
0.0
 40
0.0
 40
0.5850553834534097
 40
1.0
 40
1.0
 40
1.0
 40
1.0
 10
677.6124337456779
 20
577.6673312409725
 30
0.0
 10
677.8722086654868
 20
577.2807847154087
 30
0.0
 10
678.3162263211751
 20
576.6200839740834
 30
0.0
 10
678.988077513208
 20
576.1419251419572
 30
0.0
 10
679.2668585484624
 20
575.9435157087124
 30
0.0
  0
SPLINE
  5
2A7
330
1F
100
AcDbEntity
  8
0
  6
Continuous
 62
     7
370
    25
100
AcDbSpline
210
0.0
220
0.0
230
1.0
 70
    24
 71
     3
 72
    11
 73
     7
 74
     0
 42
0.00000001
 43
0.00000001
 40
0.0
 40
0.0
 40
0.0
 40
0.0
 40
0.2379053903768482
 40
0.4814905141303176
 40
0.7366519444348056
 40
0.9999999999999999
 40
0.9999999999999999
 40
0.9999999999999999
 40
0.9999999999999999
 10
671.7194294185124
 20
587.8743141448467
 30
0.0
 10
672.1761615292876
 20
587.0832309235358
 30
0.0
 10
673.1005297350213
 20
585.482178226304
 30
0.0
 10
674.576855827541
 20
582.9251064255202
 30
0.0
 10
676.1089892120043
 20
580.2713735596569
 30
0.0
 10
677.1060381766508
 20
578.5444340952554
 30
0.0
 10
677.6124337456779
 20
577.6673312409725
 30
0.0
  0
SPLINE
  5
2A8
330
1F
100
AcDbEntity
  8
0
  6
Continuous
 62
     7
370
    25
100
AcDbSpline
210
0.0
220
0.0
230
1.0
 70
     8
 71
     3
 72
     9
 73
     5
 74
     0
 42
0.00000001
 43
0.00000001
 40
0.0
 40
0.0
 40
0.0
 40
0.0
 40
0.5841917497409942
 40
1.0
 40
1.0
 40
1.0
 40
1.0
 10
671.05377377753
 20
590.1689958188376
 30
0.0
 10
671.1104659259381
 20
589.6886376932713
 30
0.0
 10
671.2075096593242
 20
588.8663766363851
 30
0.0
 10
671.5690838760972
 20
588.1656726453206
 30
0.0
 10
671.7194294185124
 20
587.8743141448467
 30
0.0
  0
ARC
  5
2A9
330
1F
100
AcDbEntity
  8
0
  6
Continuous
 62
     7
370
    25
100
AcDbCircle
 10
688.7388443936
 20
590.8958226929
 30
0.0
 40
17.70000000000003
100
AcDbArc
 50
177.6465635726
 51
182.3534364274
  0
SPLINE
  5
2AA
330
1F
100
AcDbEntity
  8
0
  6
Continuous
 62
     7
370
    25
100
AcDbSpline
210
0.0
220
0.0
230
1.0
 70
     8
 71
     3
 72
     9
 73
     5
 74
     0
 42
0.00000001
 43
0.00000001
 40
0.0
 40
0.0
 40
0.0
 40
0.0
 40
0.5850553834536183
 40
1.0
 40
1.0
 40
1.0
 40
1.0
 10
671.7194294185126
 20
593.9173312409712
 30
0.0
 10
671.5145577675341
 20
593.4990862983688
 30
0.0
 10
671.1643829690919
 20
592.7842053581516
 30
0.0
 10
671.0862108694433
 20
591.9632857422258
 30
0.0
 10
671.05377377753
 20
591.62264956698
 30
0.0
  0
SPLINE
  5
2AB
330
1F
100
AcDbEntity
  8
0
  6
Continuous
 62
     7
370
    25
100
AcDbSpline
210
0.0
220
0.0
230
1.0
 70
    24
 71
     3
 72
    11
 73
     7
 74
     0
 42
0.00000001
 43
0.00000001
 40
0.0
 40
0.0
 40
0.0
 40
0.0
 40
0.2328716322111468
 40
0.4710265024313225
 40
0.7311421212560294
 40
1.0
 40
1.0
 40
1.0
 40
1.0
 10
677.6124337456788
 20
604.1243141448465
 30
0.0
 10
677.1655055305185
 20
603.3502117688529
 30
0.0
 10
676.261509487609
 20
601.7844446926921
 30
0.0
 10
674.7976731173275
 20
599.2490057253974
 30
0.0
 10
673.2541236620884
 20
596.5754996449282
 30
0.0
 10
672.2365996515953
 20
594.8130963608329
 30
0.0
 10
671.7194294185125
 20
593.9173312409712
 30
0.0
  0
SPLINE
  5
2AC
330
1F
100
AcDbEntity
  8
0
  6
Continuous
 62
     7
370
    25
100
AcDbSpline
210
0.0
220
0.0
230
1.0
 70
     8
 71
     3
 72
     9
 73
     5
 74
     0
 42
0.00000001
 43
0.00000001
 40
0.0
 40
0.0
 40
0.0
 40
0.0
 40
0.584191749740925
 40
1.0
 40
1.0
 40
1.0
 40
1.0
 10
679.2668585484624
 20
605.8481296771054
 30
0.0
 10
678.8792022830119
 20
605.5588537736056
 30
0.0
 10
678.2156251858987
 20
605.063680906772
 30
0.0
 10
677.7895848374903
 20
604.4001964541608
 30
0.0
 10
677.6124337456788
 20
604.1243141448465
 30
0.0
  0
ARC
  5
2AD
330
1F
100
AcDbEntity
  8
0
  6
Continuous
 62
     7
370
    25
100
AcDbCircle
 10
688.7388443936
 20
590.8958226929
 30
0.0
 40
17.70000000000005
100
AcDbArc
 50
117.6465635726
 51
122.3534364274
  0
SPLINE
  5
2AE
330
1F
100
AcDbEntity
  8
0
  6
Continuous
 62
     7
370
    25
100
AcDbSpline
210
0.0
220
0.0
230
1.0
 70
     8
 71
     3
 72
     9
 73
     5
 74
     0
 42
0.00000001
 43
0.00000001
 40
0.0
 40
0.0
 40
0.0
 40
0.0
 40
0.5850553834536162
 40
1.0
 40
1.0
 40
1.0
 40
1.0
 10
682.8458400664266
 20
607.1458226929088
 30
0.0
 10
682.3811934956392
 20
607.1141242758702
 30
0.0
 10
681.5870010415088
 20
607.0599440769776
 30
0.0
 10
680.8369777498277
 20
606.7171832931776
 30
0.0
 10
680.5257596226603
 20
606.5749565511766
 30
0.0
  0
SPLINE
  5
2AF
330
1F
100
AcDbEntity
  8
0
  6
Continuous
 62
     7
370
    25
100
AcDbSpline
210
0.0
220
0.0
230
1.0
 70
    24
 71
     3
 72
    11
 73
     7
 74
     0
 42
0.00000001
 43
0.00000001
 40
0.0
 40
0.0
 40
0.0
 40
0.0
 40
0.2328716322111479
 40
0.4710265024313248
 40
0.7311421212560302
 40
0.9999999999999999
 40
0.9999999999999999
 40
0.9999999999999999
 40
0.9999999999999999
 10
694.631848720759
 20
607.1458226929088
 30
0.0
 10
693.7379922904387
 20
607.1458226929088
 30
0.0
 10
691.9300002046192
 20
607.1458226929088
 30
0.0
 10
689.0023274640563
 20
607.1458226929088
 30
0.0
 10
685.9152285535783
 20
607.1458226929088
 30
0.0
 10
683.8801805325921
 20
607.1458226929088
 30
0.0
 10
682.8458400664266
 20
607.1458226929088
 30
0.0
  0
SPLINE
  5
2B0
330
1F
100
AcDbEntity
  8
0
  6
Continuous
 62
     7
370
    25
100
AcDbSpline
210
0.0
220
0.0
230
1.0
 70
     8
 71
     3
 72
     9
 73
     5
 74
     0
 42
0.00000001
 43
0.00000001
 40
0.0
 40
0.0
 40
0.0
 40
0.0
 40
0.5841917497409234
 40
1.0
 40
1.0
 40
1.0
 40
1.0
 10
696.9519291645253
 20
606.5749565511766
 30
0.0
 10
696.5075807506665
 20
606.766038773243
 30
0.0
 10
695.7469599201673
 20
607.0931269632958
 30
0.0
 10
694.9593453549857
 20
607.1303465017492
 30
0.0
 10
694.631848720759
 20
607.1458226929088
 30
0.0
  0
ARC
  5
2B1
330
1F
100
AcDbEntity
  8
0
  6
Continuous
 62
     7
370
    25
100
AcDbCircle
 10
688.7388443936
 20
590.8958226929
 30
0.0
 40
17.70000000000005
100
AcDbArc
 50
57.6465635726
 51
62.3534364274
  0
SPLINE
  5
2B2
330
1F
100
AcDbEntity
  8
0
  6
Continuous
 62
     7
370
    25
100
AcDbSpline
210
0.0
220
0.0
230
1.0
 70
     8
 71
     3
 72
     9
 73
     5
 74
     0
 42
0.00000001
 43
0.00000001
 40
0.0
 40
0.0
 40
0.0
 40
0.0
 40
0.5850553834536193
 40
1.0
 40
1.0
 40
1.0
 40
1.0
 10
699.8652550415068
 20
604.1243141448465
 30
0.0
 10
699.6054801216978
 20
604.5108606704102
 30
0.0
 10
699.1614624660097
 20
605.1715614117348
 30
0.0
 10
698.4896112739773
 20
605.6497202438607
 30
0.0
 10
698.2108302387231
 20
605.8481296771054
 30
0.0
  0
LINE
  5
2B3
330
1F
100
AcDbEntity
  8
0
  6
Continuous
 62
     7
370
    25
100
AcDbLine
 10
701.1803105009
 20
601.8465712744
 30
0.0
 11
699.8652550415
 21
604.1243141448
 31
0.0
  0
SPLINE
  5
2B4
330
1F
100
AcDbEntity
  8
0
  6
Continuous
 62
     7
370
    25
100
AcDbSpline
210
0.0
220
0.0
230
1.0
 70
    24
 71
     3
 72
     9
 73
     5
 74
     0
 42
0.00000001
 43
0.00000001
 40
0.0
 40
0.0
 40
0.0
 40
0.0
 40
0.7598805654552347
 40
1.0
 40
1.0
 40
1.0
 40
1.0
 10
699.8652550415068
 20
577.6673312409713
 30
0.0
 10
700.3103336135197
 20
578.4382299410578
 30
0.0
 10
700.896055360129
 20
579.4527297652832
 30
0.0
 10
701.5079199178741
 20
580.5125102666482
 30
0.0
 10
701.6548404894978
 20
580.7669841613775
 30
0.0
  0
SPLINE
  5
2B5
330
1F
100
AcDbEntity
  8
0
  6
Continuous
 62
     7
370
    25
100
AcDbSpline
210
0.0
220
0.0
230
1.0
 70
     8
 71
     3
 72
     9
 73
     5
 74
     0
 42
0.00000001
 43
0.00000001
 40
0.0
 40
0.0
 40
0.0
 40
0.0
 40
0.5841917497409237
 40
1.0
 40
1.0
 40
1.0
 40
1.0
 10
698.2108302387231
 20
575.9435157087124
 30
0.0
 10
698.5984865041737
 20
576.232791612212
 30
0.0
 10
699.2620636012869
 20
576.7279644790456
 30
0.0
 10
699.6881039496952
 20
577.3914489316568
 30
0.0
 10
699.8652550415068
 20
577.6673312409713
 30
0.0
  0
ARC
  5
2B6
330
1F
100
AcDbEntity
  8
0
  6
Continuous
 62
     7
370
    25
100
AcDbCircle
 10
688.7388443936
 20
590.8958226929
 30
0.0
 40
17.69999999999997
100
AcDbArc
 50
297.6465635726
 51
302.3534364274
  0
SPLINE
  5
2B7
330
1F
100
AcDbEntity
  8
0
  6
Continuous
 62
     7
370
    25
100
AcDbSpline
210
0.0
220
0.0
230
1.0
 70
     8
 71
     3
 72
     9
 73
     5
 74
     0
 42
0.00000001
 43
0.00000001
 40
0.0
 40
0.0
 40
0.0
 40
0.0
 40
0.5850553834536171
 40
1.0
 40
1.0
 40
1.0
 40
1.0
 10
694.631848720759
 20
574.6458226929088
 30
0.0
 10
695.0964952915464
 20
574.6775211099475
 30
0.0
 10
695.8906877456768
 20
574.73170130884
 30
0.0
 10
696.6407110373578
 20
575.07446209264
 30
0.0
 10
696.9519291645253
 20
575.2166888346411
 30
0.0
  0
SPLINE
  5
2B8
330
1F
100
AcDbEntity
  8
0
  6
Continuous
 62
     7
370
    25
100
AcDbSpline
210
0.0
220
0.0
230
1.0
 70
    24
 71
     3
 72
    11
 73
     7
 74
     0
 42
0.00000001
 43
0.00000001
 40
0.0
 40
0.0
 40
0.0
 40
0.0
 40
0.2328716322111485
 40
0.471026502431326
 40
0.7311421212560308
 40
1.0
 40
1.0
 40
1.0
 40
1.0
 10
682.8458400664266
 20
574.6458226929088
 30
0.0
 10
683.7396964967469
 20
574.6458226929088
 30
0.0
 10
685.5476885825664
 20
574.6458226929088
 30
0.0
 10
688.4753613231293
 20
574.6458226929087
 30
0.0
 10
691.5624602336072
 20
574.6458226929088
 30
0.0
 10
693.5975082545933
 20
574.6458226929088
 30
0.0
 10
694.631848720759
 20
574.6458226929088
 30
0.0
  0
SPLINE
  5
2B9
330
1F
100
AcDbEntity
  8
0
  6
Continuous
 62
     7
370
    25
100
AcDbSpline
210
0.0
220
0.0
230
1.0
 70
     8
 71
     3
 72
     9
 73
     5
 74
     0
 42
0.00000001
 43
0.00000001
 40
0.0
 40
0.0
 40
0.0
 40
0.0
 40
0.5841917497409266
 40
1.0
 40
1.0
 40
1.0
 40
1.0
 10
680.5257596226604
 20
575.2166888346411
 30
0.0
 10
680.970108036519
 20
575.0256066125745
 30
0.0
 10
681.7307288670182
 20
574.6985184225217
 30
0.0
 10
682.5183434321999
 20
574.6612988840685
 30
0.0
 10
682.8458400664266
 20
574.6458226929088
 30
0.0
  0
ARC
  5
2BA
330
1F
100
AcDbEntity
  8
0
  6
Continuous
 62
     7
370
    25
100
AcDbCircle
 10
688.7388443936
 20
590.8958226929
 30
0.0
 40
17.69999999999997
100
AcDbArc
 50
237.6465635726
 51
242.3534364274
  0
SPLINE
  5
2BB
330
1F
100
AcDbEntity
  8
0
  6
Continuous
 62
     7
370
    25
100
AcDbSpline
210
0.0
220
0.0
230
1.0
 70
    24
 71
     3
 72
    10
 73
     6
 74
     0
 42
0.00000001
 43
0.00000001
 40
0.0
 40
0.0
 40
0.0
 40
0.0
 40
0.1516742927762401
 40
0.573718668931815
 40
1.0
 40
1.0
 40
1.0
 40
1.0
 10
703.1102107570623
 20
600.8181072093279
 30
0.0
 10
702.8878166249918
 20
601.2033051453787
 30
0.0
 10
702.0465951952151
 20
602.6603434021681
 30
0.0
 10
700.5946251765457
 20
605.1752292455702
 30
0.0
 10
699.3927722024381
 20
607.2568996599522
 30
0.0
 10
698.7888443935927
 20
608.302933308976
 30
0.0
  0
SPLINE
  5
2BC
330
1F
100
AcDbEntity
  8
0
  6
Continuous
 62
     7
370
    25
100
AcDbSpline
210
0.0
220
0.0
230
1.0
 70
    24
 71
     3
 72
     9
 73
     5
 74
     0
 42
0.00000001
 43
0.00000001
 40
0.0
 40
0.0
 40
0.0
 40
0.0
 40
0.6197129473236728
 40
1.0
 40
1.0
 40
1.0
 40
1.0
 10
698.7888443935927
 20
573.4887120768416
 30
0.0
 10
699.6600924195476
 20
574.9977579237894
 30
0.0
 10
701.0659820813943
 20
577.4328302479437
 30
0.0
 10
702.5199710433603
 20
579.9512130037132
 30
0.0
 10
703.0729042203303
 20
580.9089213594157
 30
0.0
  0
SPLINE
  5
2BD
330
1F
100
AcDbEntity
  8
0
  6
Continuous
 62
     7
370
    25
100
AcDbSpline
210
0.0
220
0.0
230
1.0
 70
    24
 71
     3
 72
     9
 73
     5
 74
     0
 42
0.00000001
 43
0.00000001
 40
0.0
 40
0.0
 40
0.0
 40
0.0
 40
0.5881605129007254
 40
1.0
 40
1.0
 40
1.0
 40
1.0
 10
678.6888443935928
 20
573.4887120768416
 30
0.0
 10
680.4319674504108
 20
573.4887120768416
 30
0.0
 10
683.3956534146745
 20
573.4887120768416
 30
0.0
 10
686.460698645286
 20
573.4887120768416
 30
0.0
 10
687.7230053009972
 20
573.4887120768416
 30
0.0
  0
SPLINE
  5
2BE
330
1F
100
AcDbEntity
  8
0
  6
Continuous
 62
     7
370
    25
100
AcDbSpline
210
0.0
220
0.0
230
1.0
 70
    24
 71
     3
 72
     9
 73
     5
 74
     0
 42
0.00000001
 43
0.00000001
 40
0.0
 40
0.0
 40
0.0
 40
0.0
 40
0.4345208978429723
 40
1.0
 40
1.0
 40
1.0
 40
1.0
 10
690.4699084176998
 20
573.4887120768416
 30
0.0
 10
691.6951139629655
 20
573.4887120768416
 30
0.0
 10
694.5147839750355
 20
573.4887120768416
 30
0.0
 10
697.2449771872401
 20
573.4887120768416
 30
0.0
 10
698.7888443935927
 20
573.4887120768416
 30
0.0
  0
SPLINE
  5
2BF
330
1F
100
AcDbEntity
  8
0
  6
Continuous
 62
     7
370
    25
100
AcDbSpline
210
0.0
220
0.0
230
1.0
 70
    24
 71
     3
 72
     9
 73
     5
 74
     0
 42
0.00000001
 43
0.00000001
 40
0.0
 40
0.0
 40
0.0
 40
0.0
 40
0.5290062514329625
 40
1.0
 40
1.0
 40
1.0
 40
1.0
 10
675.9559046162547
 20
578.2223026252174
 30
0.0
 10
676.4451187419405
 20
577.374958903749
 30
0.0
 10
677.3698982211256
 20
575.7731938600033
 30
0.0
 10
678.2665343718585
 20
574.220174491031
 30
0.0
 10
678.6888443935928
 20
573.4887120768416
 30
0.0
  0
SPLINE
  5
2C0
330
1F
100
AcDbEntity
  8
0
  6
Continuous
 62
     7
370
    25
100
AcDbSpline
210
0.0
220
0.0
230
1.0
 70
    24
 71
     3
 72
     9
 73
     5
 74
     0
 42
0.00000001
 43
0.00000001
 40
0.0
 40
0.0
 40
0.0
 40
0.0
 40
0.9659881130670709
 40
1.0
 40
1.0
 40
1.0
 40
1.0
 10
678.6888443935928
 20
608.302933308976
 30
0.0
 10
677.8210369298721
 20
606.7998466906243
 30
0.0
 10
676.922674463521
 20
605.2438372552914
 30
0.0
 10
675.9934547240442
 20
603.6343814551216
 30
0.0
 10
675.9618502073292
 20
603.5796408264226
 30
0.0
  0
SPLINE
  5
2C1
330
1F
100
AcDbEntity
  8
0
  6
Continuous
 62
     7
370
    25
100
AcDbSpline
210
0.0
220
0.0
230
1.0
 70
    24
 71
     3
 72
     9
 73
     5
 74
     0
 42
0.00000001
 43
0.00000001
 40
0.0
 40
0.0
 40
0.0
 40
0.0
 40
0.6058510256477487
 40
1.0
 40
1.0
 40
1.0
 40
1.0
 10
698.7888443935927
 20
608.302933308976
 30
0.0
 10
697.0460728798024
 20
608.302933308976
 30
0.0
 10
694.169505142829
 20
608.302933308976
 30
0.0
 10
691.1945377736711
 20
608.302933308976
 30
0.0
 10
690.0219574363862
 20
608.302933308976
 30
0.0
  0
SPLINE
  5
2C2
330
1F
100
AcDbEntity
  8
0
  6
Continuous
 62
     7
370
    25
100
AcDbSpline
210
0.0
220
0.0
230
1.0
 70
    24
 71
     3
 72
     9
 73
     5
 74
     0
 42
0.00000001
 43
0.00000001
 40
0.0
 40
0.0
 40
0.0
 40
0.0
 40
0.4538337404283768
 40
1.0
 40
1.0
 40
1.0
 40
1.0
 10
687.3055224067928
 20
608.302933308976
 30
0.0
 10
685.9803405861431
 20
608.302933308976
 30
0.0
 10
683.0603685730468
 20
608.302933308976
 30
0.0
 10
680.2330373255876
 20
608.302933308976
 30
0.0
 10
678.6888443935928
 20
608.302933308976
 30
0.0
  0
SPLINE
  5
2C3
330
1F
100
AcDbEntity
  8
0
  6
Continuous
 62
     7
370
    25
100
AcDbSpline
210
0.0
220
0.0
230
1.0
 70
    24
 71
     3
 72
    10
 73
     6
 74
     0
 42
0.00000001
 43
0.00000001
 40
0.0
 40
0.0
 40
0.0
 40
0.0
 40
0.1444117226198174
 40
0.5700692474338062
 40
1.0
 40
1.0
 40
1.0
 40
1.0
 10
471.2047845668554
 20
580.9089213594154
 30
0.0
 10
471.4147252228047
 20
580.5452934767368
 30
0.0
 10
472.2434717370879
 20
579.1098624074027
 30
0.0
 10
473.6830450319045
 20
576.616448319561
 30
0.0
 10
474.8849103712496
 20
574.5347564879594
 30
0.0
 10
475.4888443935927
 20
573.4887120768416
 30
0.0
  0
SPLINE
  5
2C4
330
1F
100
AcDbEntity
  8
0
  6
Continuous
 62
     7
370
    25
100
AcDbSpline
210
0.0
220
0.0
230
1.0
 70
    24
 71
     3
 72
     9
 73
     5
 74
     0
 42
0.00000001
 43
0.00000001
 40
0.0
 40
0.0
 40
0.0
 40
0.0
 40
0.5920686517903692
 40
1.0
 40
1.0
 40
1.0
 40
1.0
 10
475.4888443935927
 20
608.302933308976
 30
0.0
 10
474.6173216961378
 20
606.7934117170347
 30
0.0
 10
473.1453256787512
 20
604.2438398263821
 30
0.0
 10
471.6229845553518
 20
601.6070676542028
 30
0.0
 10
471.0019738884486
 20
600.5314456270842
 30
0.0
  0
SPLINE
  5
2C5
330
1F
100
AcDbEntity
  8
0
  6
Continuous
 62
     7
370
    25
100
AcDbSpline
210
0.0
220
0.0
230
1.0
 70
    24
 71
     3
 72
     9
 73
     5
 74
     0
 42
0.00000001
 43
0.00000001
 40
0.0
 40
0.0
 40
0.0
 40
0.0
 40
0.6162682864357912
 40
1.0
 40
1.0
 40
1.0
 40
1.0
 10
495.5888443935928
 20
608.302933308976
 30
0.0
 10
493.8462798899353
 20
608.302933308976
 30
0.0
 10
491.0186729174335
 20
608.302933308976
 30
0.0
 10
488.0943296380431
 20
608.302933308976
 30
0.0
 10
486.9721663803927
 20
608.302933308976
 30
0.0
  0
SPLINE
  5
2C6
330
1F
100
AcDbEntity
  8
0
  6
Continuous
 62
     7
370
    25
100
AcDbSpline
210
0.0
220
0.0
230
1.0
 70
    24
 71
     3
 72
     9
 73
     5
 74
     0
 42
0.00000001
 43
0.00000001
 40
0.0
 40
0.0
 40
0.0
 40
0.0
 40
0.4630847895199843
 40
1.0
 40
1.0
 40
1.0
 40
1.0
 10
484.2557313507995
 20
608.302933308976
 30
0.0
 10
482.8801038412628
 20
608.302933308976
 30
0.0
 10
479.9095301133661
 20
608.302933308976
 30
0.0
 10
477.033193351501
 20
608.302933308976
 30
0.0
 10
475.4888443935927
 20
608.302933308976
 30
0.0
  0
SPLINE
  5
2C7
330
1F
100
AcDbEntity
  8
0
  6
Continuous
 62
     7
370
    25
100
AcDbSpline
210
0.0
220
0.0
230
1.0
 70
    24
 71
     3
 72
     9
 73
     5
 74
     0
 42
0.00000001
 43
0.00000001
 40
0.0
 40
0.0
 40
0.0
 40
0.0
 40
0.5286328760408042
 40
1.0
 40
1.0
 40
1.0
 40
1.0
 10
498.3195983780783
 20
603.5731286648759
 30
0.0
 10
497.8311186311579
 20
604.4192004050104
 30
0.0
 10
496.9070751804764
 20
606.019690609992
 30
0.0
 10
496.0111527655888
 20
607.5714737522171
 30
0.0
 10
495.5888443935928
 20
608.302933308976
 30
0.0
  0
SPLINE
  5
2C8
330
1F
100
AcDbEntity
  8
0
  6
Continuous
 62
     7
370
    25
100
AcDbSpline
210
0.0
220
0.0
230
1.0
 70
    24
 71
     3
 72
     9
 73
     5
 74
     0
 42
0.00000001
 43
0.00000001
 40
0.0
 40
0.0
 40
0.0
 40
0.0
 40
0.9651475940341748
 40
1.0
 40
1.0
 40
1.0
 40
1.0
 10
495.5888443935928
 20
573.4887120768416
 30
0.0
 10
496.4566602086431
 20
574.9918131601206
 30
0.0
 10
497.3558136857014
 20
576.5491926661878
 30
0.0
 10
498.2858513085893
 20
578.1600650819803
 30
0.0
 10
498.3182653573857
 20
578.2162078613745
 30
0.0
  0
SPLINE
  5
2C9
330
1F
100
AcDbEntity
  8
0
  6
Continuous
 62
     7
370
    25
100
AcDbSpline
210
0.0
220
0.0
230
1.0
 70
    24
 71
     3
 72
     9
 73
     5
 74
     0
 42
0.00000001
 43
0.00000001
 40
0.0
 40
0.0
 40
0.0
 40
0.0
 40
0.6380134089095435
 40
1.0
 40
1.0
 40
1.0
 40
1.0
 10
475.4888443935927
 20
573.4887120768416
 30
0.0
 10
477.2309767816695
 20
573.4887120768416
 30
0.0
 10
479.9615344216013
 20
573.4887120768416
 30
0.0
 10
482.7855313486231
 20
573.4887120768416
 30
0.0
 10
483.8077803694857
 20
573.4887120768416
 30
0.0
  0
SPLINE
  5
2CA
330
1F
100
AcDbEntity
  8
0
  6
Continuous
 62
     7
370
    25
100
AcDbSpline
210
0.0
220
0.0
230
1.0
 70
    24
 71
     3
 72
     9
 73
     5
 74
     0
 42
0.00000001
 43
0.00000001
 40
0.0
 40
0.0
 40
0.0
 40
0.0
 40
0.4787933681683263
 40
1.0
 40
1.0
 40
1.0
 40
1.0
 10
486.5546834861884
 20
573.4887120768416
 30
0.0
 10
488.0200841073156
 20
573.4887120768416
 30
0.0
 10
491.080695883818
 20
573.4887120768416
 30
0.0
 10
494.0442304986694
 20
573.4887120768416
 30
0.0
 10
495.5888443935928
 20
573.4887120768416
 30
0.0
  0
ARC
  5
2CB
330
1F
100
AcDbEntity
  8
0
  6
Continuous
 62
     7
370
    25
100
AcDbCircle
 10
485.5388443936
 20
590.8958226929
 30
0.0
 40
25.79999999999998
100
AcDbArc
 50
27.7177476896
 51
90.0
  0
ARC
  5
2CC
330
1F
100
AcDbEntity
  8
0
  6
Continuous
 62
     7
370
    25
100
AcDbCircle
 10
485.5388443936
 20
590.8958226929
 30
0.0
 40
25.80000000000001
100
AcDbArc
 50
191.8273896223
 51
332.2822523104
  0
ARC
  5
2CD
330
1F
100
AcDbEntity
  8
0
  6
Continuous
 62
     7
370
    25
100
AcDbCircle
 10
485.5388443936
 20
590.8958226929
 30
0.0
 40
25.8
100
AcDbArc
 50
90.0
 51
168.1084633881
  0
ARC
  5
2CE
330
1F
100
AcDbEntity
  8
0
  6
Continuous
 62
     7
370
    25
100
AcDbCircle
 10
688.7388443936
 20
590.8958226929
 30
0.0
 40
25.80000000000007
100
AcDbArc
 50
207.7177476896
 51
270.0
  0
ARC
  5
2CF
330
1F
100
AcDbEntity
  8
0
  6
Continuous
 62
     7
370
    25
100
AcDbCircle
 10
688.7388443936
 20
590.8958226929
 30
0.0
 40
25.80000000000004
100
AcDbArc
 50
12.355358281
 51
152.2822523104
  0
ARC
  5
2D0
330
1F
100
AcDbEntity
  8
0
  6
Continuous
 62
     7
370
    25
100
AcDbCircle
 10
688.7388443936
 20
590.8958226929
 30
0.0
 40
25.80000000000007
100
AcDbArc
 50
270.0
 51
348.632283567
  0
ARC
  5
2D1
330
1F
100
AcDbEntity
  8
0
  6
Continuous
 62
     8
370
    25
100
AcDbCircle
 10
587.1388443936
 20
590.8958226929
 30
0.0
 40
11.05993649053893
100
AcDbArc
 50
182.3675813795
 51
224.4149728023
  0
ARC
  5
2D2
330
1F
100
AcDbEntity
  8
0
  6
Continuous
 62
     8
370
    25
100
AcDbCircle
 10
587.1388443936
 20
590.8958226929
 30
0.0
 40
11.05993649053893
100
AcDbArc
 50
315.5850271977
 51
182.3675813795
  0
ARC
  5
2D3
330
1F
100
AcDbEntity
  8
0
  6
Continuous
 62
     8
370
    25
100
AcDbCircle
 10
587.1388443936
 20
590.8958226929
 30
0.0
 40
11.30993649053889
100
AcDbArc
 50
314.3068486059
 51
182.3675813795
  0
ARC
  5
2D4
330
1F
100
AcDbEntity
  8
0
  6
Continuous
 62
     8
370
    25
100
AcDbCircle
 10
587.1388443936
 20
590.8958226929
 30
0.0
 40
11.30993649053889
100
AcDbArc
 50
182.3675813795
 51
225.6931513941
  0
SPLINE
  5
2D5
330
1F
100
AcDbEntity
  8
0
  6
Continuous
 62
     8
370
    25
100
AcDbSpline
210
0.0
220
0.0
230
1.0
 70
     8
 71
     3
 72
     9
 73
     5
 74
     0
 42
0.00000001
 43
0.00000001
 40
0.0
 40
0.0
 40
0.0
 40
0.0
 40
0.5050734883508607
 40
1.0
 40
1.0
 40
1.0
 40
1.0
 10
577.5652773168391
 20
580.0488234254451
 30
0.0
 10
577.8402481267977
 20
579.8600247273996
 30
0.0
 10
578.3846655557476
 20
579.4862203159628
 30
0.0
 10
578.9560507249776
 20
579.1542833569649
 30
0.0
 10
579.2388443935928
 20
578.9899989557606
 30
0.0
  0
SPLINE
  5
2D6
330
1F
100
AcDbEntity
  8
0
  6
Continuous
 62
     8
370
    25
100
AcDbSpline
210
0.0
220
0.0
230
1.0
 70
     8
 71
     3
 72
     9
 73
     5
 74
     0
 42
0.00000001
 43
0.00000001
 40
0.0
 40
0.0
 40
0.0
 40
0.0
 40
0.1103590486141665
 40
1.0
 40
1.0
 40
1.0
 40
1.0
 10
595.0388443935926
 20
579.02671517713
 30
0.0
 10
595.1367712851544
 20
579.088000825515
 30
0.0
 10
596.0241193802258
 20
579.6433304441971
 30
0.0
 10
596.8449303020097
 20
580.2957369192553
 30
0.0
 10
597.5751573113733
 20
580.8761444364162
 30
0.0
  0
ARC
  5
2D7
330
1F
100
AcDbEntity
  8
0
  6
Continuous
 62
     8
370
    25
100
AcDbCircle
 10
587.1388443936
 20
590.8958226929
 30
0.0
 40
9.375000000000101
100
AcDbArc
 50
119.4063269879
 51
212.5772063232
  0
ARC
  5
2D8
330
1F
100
AcDbEntity
  8
0
  6
Continuous
 62
     8
370
    25
100
AcDbCircle
 10
587.1388443936
 20
590.8958226929
 30
0.0
 40
9.375000000000101
100
AcDbArc
 50
327.4227936768
 51
119.4063269879
  0
ARC
  5
2D9
330
1F
100
AcDbEntity
  8
0
  6
Continuous
 62
     8
370
    25
100
AcDbCircle
 10
587.1860265873
 20
378.1128131089
 30
0.0
 40
7.852911808525621
100
AcDbArc
 50
269.6557510264
 51
359.7196557284
  0
ARC
  5
2DA
330
1F
100
AcDbEntity
  8
0
  6
Continuous
 62
     8
370
    25
100
AcDbCircle
 10
587.0916621999
 20
378.1128131089
 30
0.0
 40
7.852911808525753
100
AcDbArc
 50
180.2803442717
 51
270.3442489736
  0
ARC
  5
2DB
330
1F
100
AcDbEntity
  8
0
  6
Continuous
 62
     8
370
    25
100
AcDbCircle
 10
587.2344186378
 20
377.6286959782
 30
0.0
 40
9.721901268304848
100
AcDbArc
 50
269.4367265329
 51
36.6048083592
  0
ARC
  5
2DC
330
1F
100
AcDbEntity
  8
0
  6
Continuous
 62
     8
370
    25
100
AcDbCircle
 10
587.0432701493
 20
377.6286959782
 30
0.0
 40
9.721901268304896
100
AcDbArc
 50
143.3951916408
 51
270.5632734671
  0
LINE
  5
2DD
330
1F
100
AcDbEntity
  8
0
  6
Continuous
 62
     8
370
    25
100
AcDbLine
 10
597.4452298131
 20
375.3335388347
 30
0.0
 11
597.7009227635
 21
375.2574631159
 31
0.0
  0
SPLINE
  5
2DE
330
1F
100
AcDbEntity
  8
0
  6
Continuous
 62
     8
370
    25
100
AcDbSpline
210
0.0
220
0.0
230
1.0
 70
     8
 71
     3
 72
    16
 73
    12
 74
     0
 42
0.00000001
 43
0.00000001
 40
0.0
 40
0.0
 40
0.0
 40
0.0
 40
0.0813136106776186
 40
0.1605245215906259
 40
0.2399383939261219
 40
0.2485515096895351
 40
0.3627608172497716
 40
0.4772794202588233
 40
0.6362603090226577
 40
0.7954727285311687
 40
1.0
 40
1.0
 40
1.0
 40
1.0
 10
565.3585124227275
 20
590.8958226929088
 30
0.0
 10
565.3929365109046
 20
591.4263894136941
 30
0.0
 10
565.4608945100608
 20
592.473802857965
 30
0.0
 10
565.9737821330835
 20
593.9386695765685
 30
0.0
 10
566.4731797153505
 20
594.8626300069736
 30
0.0
 10
567.1625405801783
 20
595.9055669331764
 30
0.0
 10
568.0952991612132
 20
597.0191496112644
 30
0.0
 10
569.8427032417409
 20
598.5235861599963
 30
0.0
 10
571.9805194593193
 20
599.8591095467011
 30
0.0
 10
574.7048335454933
 20
601.1239361577358
 30
0.0
 10
576.6953407033654
 20
601.6311398442598
 30
0.0
 10
577.8145834143957
 20
601.9163355175857
 30
0.0
  0
SPLINE
  5
2DF
330
1F
100
AcDbEntity
  8
0
  6
Continuous
 62
     8
370
    25
100
AcDbSpline
210
0.0
220
0.0
230
1.0
 70
     8
 71
     3
 72
    22
 73
    18
 74
     0
 42
0.00000001
 43
0.00000001
 40
0.0
 40
0.0
 40
0.0
 40
0.0
 40
0.054881813029562
 40
0.1474564299363814
 40
0.2398765041914563
 40
0.3011522231813676
 40
0.3622616899552181
 40
0.4412388031220051
 40
0.4976189867397439
 40
0.5191029667427268
 40
0.5843050852220694
 40
0.5987667562819488
 40
0.6509209544433898
 40
0.7032267144068975
 40
0.8180585515613471
 40
0.933416825215563
 40
1.0
 40
1.0
 40
1.0
 40
1.0
 10
596.632418629071
 20
601.8591622959633
 30
0.0
 10
597.2318240595504
 20
601.7293320867349
 30
0.0
 10
598.8423062937171
 20
601.3805043404576
 30
0.0
 10
601.3671559638509
 20
600.3352662649224
 30
0.0
 10
603.8393542421195
 20
598.9533551948947
 30
0.0
 10
605.8162321327417
 20
597.3796976023522
 30
0.0
 10
607.4475559221744
 20
595.5848178508193
 30
0.0
 10
608.6407211797181
 20
593.385899533733
 30
0.0
 10
608.96220564059
 20
591.3463599918811
 30
0.0
 10
608.8539917342664
 20
589.4973290890067
 30
0.0
 10
608.4692183940241
 20
588.228022126413
 30
0.0
 10
607.7240109662141
 20
586.7619556977509
 30
0.0
 10
606.887151793965
 20
585.5560259260429
 30
0.0
 10
605.0498704396626
 20
583.6808061184265
 30
0.0
 10
602.2996058741569
 20
581.860922367292
 30
0.0
 10
599.1931649019026
 20
580.5100666818128
 30
0.0
 10
597.2074607082506
 20
580.0535683403878
 30
0.0
 10
596.4807736859657
 20
579.8865085026392
 30
0.0
  0
SPLINE
  5
2E0
330
1F
100
AcDbEntity
  8
0
  6
Continuous
 62
     8
370
    25
100
AcDbSpline
210
0.0
220
0.0
230
1.0
 70
     8
 71
     3
 72
    15
 73
    11
 74
     0
 42
0.00000001
 43
0.00000001
 40
0.0
 40
0.0
 40
0.0
 40
0.0
 40
0.135670555472706
 40
0.3365797747267343
 40
0.5369628257570617
 40
0.6511047554927393
 40
0.7649159955482032
 40
0.8429085150694524
 40
0.9207156114673456
 40
1.0
 40
1.0
 40
1.0
 40
1.0
 10
577.6568762149715
 20
579.9298837376101
 30
0.0
 10
576.9192776241835
 20
580.0998896953364
 30
0.0
 10
575.0893981292464
 20
580.5216508265883
 30
0.0
 10
572.2901712187122
 20
581.7392522474883
 30
0.0
 10
569.7571208369134
 20
583.3020003820882
 30
0.0
 10
567.8780650305242
 20
584.9984251840563
 30
0.0
 10
566.7183670955516
 20
586.4557601377953
 30
0.0
 10
565.9369296348823
 20
587.941603680672
 30
0.0
 10
565.4541427133042
 20
589.3689225706474
 30
0.0
 10
565.3905884083282
 20
590.38367506646
 30
0.0
 10
565.3585124227275
 20
590.8958226929088
 30
0.0
  0
SPLINE
  5
2E1
330
1F
100
AcDbEntity
  8
0
  6
Continuous
 62
     8
370
    25
100
AcDbSpline
210
0.0
220
0.0
230
1.0
 70
     8
 71
     3
 72
    13
 73
     9
 74
     0
 42
0.00000001
 43
0.00000001
 40
0.0
 40
0.0
 40
0.0
 40
0.0
 40
0.3086570593896741
 40
0.5142462440525061
 40
0.7190373955263313
 40
0.8855430685586471
 40
0.9382954799300373
 40
1.0
 40
1.0
 40
1.0
 40
1.0
 10
508.152114833757
 20
583.6958226929088
 30
0.0
 10
507.3334489530886
 20
582.8845795802605
 30
0.0
 10
505.9694890452864
 20
581.5329865711204
 30
0.0
 10
503.9802043908675
 20
580.2208538182186
 30
0.0
 10
502.5550857646265
 20
579.405270500261
 30
0.0
 10
501.8047707247833
 20
579.0340397493447
 30
0.0
 10
501.5527488918942
 20
578.9120172705108
 30
0.0
 10
501.5316023932447
 20
578.9019233260187
 30
0.0
 10
501.5202021701747
 20
578.8964816110204
 30
0.0
  0
SPLINE
  5
2E2
330
1F
100
AcDbEntity
  8
0
  6
Continuous
 62
     8
370
    25
100
AcDbSpline
210
0.0
220
0.0
230
1.0
 70
     8
 71
     3
 72
    13
 73
     9
 74
     0
 42
0.00000001
 43
0.00000001
 40
0.0
 40
0.0
 40
0.0
 40
0.0
 40
0.0616988709538129
 40
0.2371847626742214
 40
0.2807307886799653
 40
0.487411842866282
 40
0.6949099454175248
 40
0.9999999999999999
 40
0.9999999999999999
 40
0.9999999999999999
 40
0.9999999999999999
 10
672.7574635107527
 20
578.8964927218854
 30
0.0
 10
672.7453563854422
 20
578.9022821347679
 30
0.0
 10
672.6988137891349
 20
578.9245379799615
 30
0.0
 10
672.2668048697813
 20
579.1338270022687
 30
0.0
 10
671.4152795703385
 20
579.5801984611116
 30
0.0
 10
670.2833900873013
 20
580.2294201732944
 30
0.0
 10
668.2924779048567
 20
581.5454290242543
 30
0.0
 10
666.9340837502453
 20
582.8934731716141
 30
0.0
 10
666.1255739534286
 20
583.6958226929088
 30
0.0
  0
SPLINE
  5
2E3
330
1F
100
AcDbEntity
  8
0
  6
Continuous
 62
     8
370
    25
100
AcDbSpline
210
0.0
220
0.0
230
1.0
 70
     8
 71
     3
 72
    14
 73
    10
 74
     0
 42
0.00000001
 43
0.00000001
 40
0.0
 40
0.0
 40
0.0
 40
0.0
 40
0.0338406719493978
 40
0.1227065900592135
 40
0.2392973242781097
 40
0.3605097605622855
 40
0.5545600826377888
 40
0.7532538867057824
 40
1.0
 40
1.0
 40
1.0
 40
1.0
 10
501.5708226721114
 20
602.8707379435035
 30
0.0
 10
501.5542748520132
 20
602.8787306630654
 30
0.0
 10
501.4942723030034
 20
602.9077123382579
 30
0.0
 10
501.7475087962068
 20
602.786075318796
 30
0.0
 10
502.2479175223262
 20
602.5366722215358
 30
0.0
 10
503.2090279547102
 20
602.0239014310525
 30
0.0
 10
504.5476750526186
 20
601.2111609072306
 30
0.0
 10
506.3270351100908
 20
599.9484691513951
 30
0.0
 10
507.5015219175094
 20
598.75624242503
 30
0.0
 10
508.1521148337483
 20
598.0958226929185
 30
0.0
  0
SPLINE
  5
2E4
330
1F
100
AcDbEntity
  8
0
  6
Continuous
 62
     8
370
    25
100
AcDbSpline
210
0.0
220
0.0
230
1.0
 70
     8
 71
     3
 72
    13
 73
     9
 74
     0
 42
0.00000001
 43
0.00000001
 40
0.0
 40
0.0
 40
0.0
 40
0.0
 40
0.246873581239535
 40
0.4413811989636142
 40
0.6398169724544361
 40
0.7569724566612596
 40
0.8777345843649657
 40
1.0
 40
1.0
 40
1.0
 40
1.0
 10
666.1255739534286
 20
598.0958226929089
 30
0.0
 10
666.7764058293
 20
598.7564388071962
 30
0.0
 10
667.9400173921634
 20
599.9375434483443
 30
0.0
 10
669.7157678229651
 20
601.2023271496885
 30
0.0
 10
671.0549934606223
 20
602.0154571238063
 30
0.0
 10
672.0072494412556
 20
602.5256918049233
 30
0.0
 10
672.6316929945666
 20
602.8356485152584
 30
0.0
 10
672.6975585969848
 20
602.8666111585108
 30
0.0
 10
672.7306951096001
 20
602.8821882424676
 30
0.0
  0
ARC
  5
2E5
330
1F
100
AcDbEntity
  8
0
  6
Continuous
 62
     8
370
    25
100
AcDbCircle
 10
485.5388443936
 20
590.8958226929
 30
0.0
 40
24.80000000000006
100
AcDbArc
 50
90.0
 51
167.1597533419
  0
ARC
  5
2E6
330
1F
100
AcDbEntity
  8
0
  6
Continuous
 62
     8
370
    25
100
AcDbCircle
 10
485.5388443936
 20
590.8958226929
 30
0.0
 40
24.80000000000001
100
AcDbArc
 50
192.8474248147
 51
331.0614722598
  0
ARC
  5
2E7
330
1F
100
AcDbEntity
  8
0
  6
Continuous
 62
     8
370
    25
100
AcDbCircle
 10
485.5388443936
 20
590.8958226929
 30
0.0
 40
24.80000000000001
100
AcDbArc
 50
28.9385277402
 51
90.0
  0
ARC
  5
2E8
330
1F
100
AcDbEntity
  8
0
  6
Continuous
 62
     8
370
    25
100
AcDbCircle
 10
688.7388443936
 20
590.8958226929
 30
0.0
 40
24.80000000000007
100
AcDbArc
 50
270.0
 51
347.7891131326
  0
ARC
  5
2E9
330
1F
100
AcDbEntity
  8
0
  6
Continuous
 62
     8
370
    25
100
AcDbCircle
 10
688.7388443936
 20
590.8958226929
 30
0.0
 40
24.80000000000002
100
AcDbArc
 50
13.4605379577
 51
151.0614722598
  0
ARC
  5
2EA
330
1F
100
AcDbEntity
  8
0
  6
Continuous
 62
     8
370
    25
100
AcDbCircle
 10
688.7388443936
 20
590.8958226929
 30
0.0
 40
24.80000000000007
100
AcDbArc
 50
208.9385277402
 51
270.0
  0
ENDSEC
  0
SECTION
  2
OBJECTS
  0
DICTIONARY
  5
C
330
0
100
AcDbDictionary
281
     1
  3
ACAD_GROUP
350
D
  3
ACAD_LAYOUT
350
1A
  3
ACAD_MLINESTYLE
350
17
  3
ACAD_PLOTSETTINGS
350
19
  3
ACAD_PLOTSTYLENAME
350
E
  3
ACAD_SCALELIST
350
47
  3
DWGPROPS
350
2EB
  0
DICTIONARY
  5
D
102
{ACAD_REACTORS
330
C
102
}
330
C
100
AcDbDictionary
281
     1
  0
DICTIONARY
  5
1A
102
{ACAD_REACTORS
330
C
102
}
330
C
100
AcDbDictionary
281
     1
  3
Layout1
350
1E
  3
Layout2
350
26
  3
Model
350
22
  0
DICTIONARY
  5
17
102
{ACAD_REACTORS
330
C
102
}
330
C
100
AcDbDictionary
281
     1
  3
Standard
350
18
  0
DICTIONARY
  5
19
102
{ACAD_REACTORS
330
C
102
}
330
C
100
AcDbDictionary
281
     1
  0
ACDBDICTIONARYWDFLT
  5
E
102
{ACAD_REACTORS
330
C
102
}
330
C
100
AcDbDictionary
281
     1
  3
Normal
350
F
100
AcDbDictionaryWithDefault
340
F
  0
DICTIONARY
  5
47
102
{ACAD_REACTORS
330
C
102
}
330
C
100
AcDbDictionary
281
     1
  3
A0
350
48
  3
A1
350
49
  3
A2
350
4A
  3
A3
350
4B
  3
A4
350
4C
  3
A5
350
4D
  3
A6
350
4E
  3
A7
350
4F
  3
A8
350
50
  3
A9
350
51
  3
B0
350
52
  3
B1
350
53
  3
B2
350
54
  3
B3
350
55
  3
B4
350
56
  3
B5
350
57
  3
B6
350
58
  3
B7
350
59
  3
B8
350
5A
  3
B9
350
5B
  3
C0
350
5C
  3
C1
350
5D
  3
C2
350
5E
  3
C3
350
5F
  3
C4
350
60
  3
C5
350
61
  3
C6
350
62
  3
C7
350
63
  3
C8
350
64
  3
C9
350
65
  3
D0
350
66
  3
D1
350
67
  3
D2
350
68
  0
XRECORD
  5
2EB
102
{ACAD_REACTORS
330
C
102
}
330
C
100
AcDbXrecord
280
     1
  1
DWGPROPS COOKIE
  2

  3

  4

  6

  7

  8
designer5
  9

300
=
301
=
302
=
303
=
304
=
305
=
306
=
307
=
308
=
309
=
 40
0.0
 41
2460383.253751759
 42
2460383.253752303
  1

 90
        0
  0
LAYOUT
  5
1E
102
{ACAD_REACTORS
330
1A
102
}
330
1A
100
AcDbPlotSettings
  1

  2
none_device
  4

  6

 40
0.0
 41
0.0
 42
0.0
 43
0.0
 44
0.0
 45
0.0
 46
0.0
 47
0.0
 48
0.0
 49
0.0
140
0.0
141
0.0
142
1.0
143
1.0
 70
   688
 72
     1
 73
     0
 74
     5
  7

 75
    16
147
1.0
148
0.0
149
0.0
100
AcDbLayout
  1
Layout1
 70
     1
 71
     1
 10
0.0
 20
0.0
 11
420.0
 21
297.0
 12
0.0
 22
0.0
 32
0.0
 14
1.0000000000E+20
 24
1.0000000000E+20
 34
1.0000000000E+20
 15
-1.0000000000E+20
 25
-1.0000000000E+20
 35
-1.0000000000E+20
146
0.0
 13
0.0
 23
0.0
 33
0.0
 16
1.0
 26
0.0
 36
0.0
 17
0.0
 27
1.0
 37
0.0
 76
     0
330
1B
  0
LAYOUT
  5
26
102
{ACAD_REACTORS
330
1A
102
}
330
1A
100
AcDbPlotSettings
  1

  2
none_device
  4

  6

 40
0.0
 41
0.0
 42
0.0
 43
0.0
 44
0.0
 45
0.0
 46
0.0
 47
0.0
 48
0.0
 49
0.0
140
0.0
141
0.0
142
1.0
143
1.0
 70
   688
 72
     1
 73
     0
 74
     5
  7

 75
    16
147
1.0
148
0.0
149
0.0
100
AcDbLayout
  1
Layout2
 70
     1
 71
     2
 10
0.0
 20
0.0
 11
0.0
 21
0.0
 12
0.0
 22
0.0
 32
0.0
 14
0.0
 24
0.0
 34
0.0
 15
0.0
 25
0.0
 35
0.0
146
0.0
 13
0.0
 23
0.0
 33
0.0
 16
1.0
 26
0.0
 36
0.0
 17
0.0
 27
1.0
 37
0.0
 76
     0
330
23
  0
LAYOUT
  5
22
102
{ACAD_REACTORS
330
1A
102
}
330
1A
100
AcDbPlotSettings
  1

  2
none_device
  4
Letter_(8.50_x_11.00_Inches)
  6

 40
6.35
 41
6.35
 42
6.35000508
 43
6.35000508
 44
215.9
 45
279.4
 46
0.0
 47
0.0
 48
0.0
 49
0.0
140
0.0
141
0.0
142
1.0
143
1.0
 70
  1712
 72
     1
 73
     0
 74
     0
  7

 75
     0
147
1.0
148
0.0
149
0.0
100
AcDbLayout
  1
Model
 70
     1
 71
     0
 10
0.0
 20
0.0
 11
1189.0
 21
841.0
 12
0.0
 22
0.0
 32
0.0
 14
0.0
 24
0.0
 34
0.0
 15
1189.0
 25
841.0
 35
0.0
146
0.0
 13
0.0
 23
0.0
 33
0.0
 16
1.0
 26
0.0
 36
0.0
 17
0.0
 27
1.0
 37
0.0
 76
     0
330
1F
331
29
  0
MLINESTYLE
  5
18
102
{ACAD_REACTORS
330
17
102
}
330
17
100
AcDbMlineStyle
  2
Standard
 70
     0
  3

 62
   256
 51
90.0
 52
90.0
 71
     2
 49
0.5
 62
   256
  6
BYLAYER
 49
-0.5
 62
   256
  6
BYLAYER
  0
ACDBPLACEHOLDER
  5
F
102
{ACAD_REACTORS
330
E
102
}
330
E
  0
SCALE
  5
48
102
{ACAD_REACTORS
330
47
102
}
330
47
100
AcDbScale
 70
     0
300
1:1
140
1.0
141
1.0
290
     1
  0
SCALE
  5
49
102
{ACAD_REACTORS
330
47
102
}
330
47
100
AcDbScale
 70
     0
300
1:2
140
1.0
141
2.0
290
     0
  0
SCALE
  5
4A
102
{ACAD_REACTORS
330
47
102
}
330
47
100
AcDbScale
 70
     0
300
1:4
140
1.0
141
4.0
290
     0
  0
SCALE
  5
4B
102
{ACAD_REACTORS
330
47
102
}
330
47
100
AcDbScale
 70
     0
300
1:5
140
1.0
141
5.0
290
     0
  0
SCALE
  5
4C
102
{ACAD_REACTORS
330
47
102
}
330
47
100
AcDbScale
 70
     0
300
1:8
140
1.0
141
8.0
290
     0
  0
SCALE
  5
4D
102
{ACAD_REACTORS
330
47
102
}
330
47
100
AcDbScale
 70
     0
300
1:10
140
1.0
141
10.0
290
     0
  0
SCALE
  5
4E
102
{ACAD_REACTORS
330
47
102
}
330
47
100
AcDbScale
 70
     0
300
1:16
140
1.0
141
16.0
290
     0
  0
SCALE
  5
4F
102
{ACAD_REACTORS
330
47
102
}
330
47
100
AcDbScale
 70
     0
300
1:20
140
1.0
141
20.0
290
     0
  0
SCALE
  5
50
102
{ACAD_REACTORS
330
47
102
}
330
47
100
AcDbScale
 70
     0
300
1:30
140
1.0
141
30.0
290
     0
  0
SCALE
  5
51
102
{ACAD_REACTORS
330
47
102
}
330
47
100
AcDbScale
 70
     0
300
1:40
140
1.0
141
40.0
290
     0
  0
SCALE
  5
52
102
{ACAD_REACTORS
330
47
102
}
330
47
100
AcDbScale
 70
     0
300
1:50
140
1.0
141
50.0
290
     0
  0
SCALE
  5
53
102
{ACAD_REACTORS
330
47
102
}
330
47
100
AcDbScale
 70
     0
300
1:100
140
1.0
141
100.0
290
     0
  0
SCALE
  5
54
102
{ACAD_REACTORS
330
47
102
}
330
47
100
AcDbScale
 70
     0
300
2:1
140
2.0
141
1.0
290
     0
  0
SCALE
  5
55
102
{ACAD_REACTORS
330
47
102
}
330
47
100
AcDbScale
 70
     0
300
4:1
140
4.0
141
1.0
290
     0
  0
SCALE
  5
56
102
{ACAD_REACTORS
330
47
102
}
330
47
100
AcDbScale
 70
     0
300
8:1
140
8.0
141
1.0
290
     0
  0
SCALE
  5
57
102
{ACAD_REACTORS
330
47
102
}
330
47
100
AcDbScale
 70
     0
300
10:1
140
10.0
141
1.0
290
     0
  0
SCALE
  5
58
102
{ACAD_REACTORS
330
47
102
}
330
47
100
AcDbScale
 70
     0
300
100:1
140
100.0
141
1.0
290
     0
  0
SCALE
  5
59
102
{ACAD_REACTORS
330
47
102
}
330
47
100
AcDbScale
 70
     0
300
1/128" = 1'-0"
140
0.0078125
141
12.0
290
     0
  0
SCALE
  5
5A
102
{ACAD_REACTORS
330
47
102
}
330
47
100
AcDbScale
 70
     0
300
1/64" = 1'-0"
140
0.015625
141
12.0
290
     0
  0
SCALE
  5
5B
102
{ACAD_REACTORS
330
47
102
}
330
47
100
AcDbScale
 70
     0
300
1/32" = 1'-0"
140
0.03125
141
12.0
290
     0
  0
SCALE
  5
5C
102
{ACAD_REACTORS
330
47
102
}
330
47
100
AcDbScale
 70
     0
300
1/16" = 1'-0"
140
0.0625
141
12.0
290
     0
  0
SCALE
  5
5D
102
{ACAD_REACTORS
330
47
102
}
330
47
100
AcDbScale
 70
     0
300
3/32" = 1'-0"
140
0.09375
141
12.0
290
     0
  0
SCALE
  5
5E
102
{ACAD_REACTORS
330
47
102
}
330
47
100
AcDbScale
 70
     0
300
1/8" = 1'-0"
140
0.125
141
12.0
290
     0
  0
SCALE
  5
5F
102
{ACAD_REACTORS
330
47
102
}
330
47
100
AcDbScale
 70
     0
300
3/16" = 1'-0"
140
0.1875
141
12.0
290
     0
  0
SCALE
  5
60
102
{ACAD_REACTORS
330
47
102
}
330
47
100
AcDbScale
 70
     0
300
1/4" = 1'-0"
140
0.25
141
12.0
290
     0
  0
SCALE
  5
61
102
{ACAD_REACTORS
330
47
102
}
330
47
100
AcDbScale
 70
     0
300
3/8" = 1'-0"
140
0.375
141
12.0
290
     0
  0
SCALE
  5
62
102
{ACAD_REACTORS
330
47
102
}
330
47
100
AcDbScale
 70
     0
300
1/2" = 1'-0"
140
0.5
141
12.0
290
     0
  0
SCALE
  5
63
102
{ACAD_REACTORS
330
47
102
}
330
47
100
AcDbScale
 70
     0
300
3/4" = 1'-0"
140
0.75
141
12.0
290
     0
  0
SCALE
  5
64
102
{ACAD_REACTORS
330
47
102
}
330
47
100
AcDbScale
 70
     0
300
1" = 1'-0"
140
1.0
141
12.0
290
     0
  0
SCALE
  5
65
102
{ACAD_REACTORS
330
47
102
}
330
47
100
AcDbScale
 70
     0
300
1-1/2" = 1'-0"
140
1.5
141
12.0
290
     0
  0
SCALE
  5
66
102
{ACAD_REACTORS
330
47
102
}
330
47
100
AcDbScale
 70
     0
300
3" = 1'-0"
140
3.0
141
12.0
290
     0
  0
SCALE
  5
67
102
{ACAD_REACTORS
330
47
102
}
330
47
100
AcDbScale
 70
     0
300
6" = 1'-0"
140
6.0
141
12.0
290
     0
  0
SCALE
  5
68
102
{ACAD_REACTORS
330
47
102
}
330
47
100
AcDbScale
 70
     0
300
1'-0" = 1'-0"
140
12.0
141
12.0
290
     0
  0
ENDSEC
  0
EOF
