  0
SECTION
  2
HEADER
  9
$ACADVER
  1
AC1015
  9
$ACADMAINTVER
 70
     6
  9
$DWGCODEPAGE
  3
ANSI_1252
  9
$INSBASE
 10
0.0
 20
0.0
 30
0.0
  9
$EXTMIN
 10
0.0
 20
0.0
 30
0.0
  9
$EXTMAX
 10
1189.0
 20
841.0
 30
0.0
  9
$LIMMIN
 10
0.0
 20
0.0
  9
$LIMMAX
 10
1189.0
 20
841.0
  9
$ORTHOMODE
 70
     0
  9
$REGENMODE
 70
     1
  9
$FILLMODE
 70
     1
  9
$QTEXTMODE
 70
     0
  9
$MIRRTEXT
 70
     1
  9
$LTSCALE
 40
1.0
  9
$ATTMODE
 70
     1
  9
$TEXTSIZE
 40
3.5
  9
$TRACEWID
 40
1.0
  9
$TEXTSTYLE
  7
Standard
  9
$CLAYER
  8
0
  9
$CELTYPE
  6
ByLayer
  9
$CECOLOR
 62
   256
  9
$CELTSCALE
 40
1.0
  9
$DISPSILH
 70
     0
  9
$DIMSCALE
 40
1.0
  9
$DIMASZ
 40
3.302
  9
$DIMEXO
 40
1.0
  9
$DIMDLI
 40
3.75
  9
$DIMRND
 40
0.0
  9
$DIMDLE
 40
0.0
  9
$DIMEXE
 40
1.0
  9
$DIMTP
 40
0.0
  9
$DIMTM
 40
0.0
  9
$DIMTXT
 40
3.5
  9
$DIMCEN
 40
2.5
  9
$DIMTSZ
 40
0.0
  9
$DIMTOL
 70
     0
  9
$DIMLIM
 70
     0
  9
$DIMTIH
 70
     1
  9
$DIMTOH
 70
     1
  9
$DIMSE1
 70
     0
  9
$DIMSE2
 70
     0
  9
$DIMTAD
 70
     1
  9
$DIMZIN
 70
     1
  9
$DIMBLK
  1

  9
$DIMASO
 70
     1
  9
$DIMSHO
 70
     1
  9
$DIMPOST
  1

  9
$DIMAPOST
  1

  9
$DIMALT
 70
     0
  9
$DIMALTD
 70
     3
  9
$DIMALTF
 40
0.0393700787
  9
$DIMLFAC
 40
1.0
  9
$DIMTOFL
 70
     1
  9
$DIMTVP
 40
0.0
  9
$DIMTIX
 70
     0
  9
$DIMSOXD
 70
     0
  9
$DIMSAH
 70
     0
  9
$DIMBLK1
  1

  9
$DIMBLK2
  1

  9
$DIMSTYLE
  2
ISO-25
  9
$DIMCLRD
 70
     0
  9
$DIMCLRE
 70
     0
  9
$DIMCLRT
 70
     0
  9
$DIMTFAC
 40
1.0
  9
$DIMGAP
 40
1.524
  9
$DIMJUST
 70
     0
  9
$DIMSD1
 70
     0
  9
$DIMSD2
 70
     0
  9
$DIMTOLJ
 70
     0
  9
$DIMTZIN
 70
     1
  9
$DIMALTZ
 70
     0
  9
$DIMALTTZ
 70
     0
  9
$DIMUPT
 70
     0
  9
$DIMDEC
 70
     2
  9
$DIMTDEC
 70
     2
  9
$DIMALTU
 70
     2
  9
$DIMALTTD
 70
     3
  9
$DIMTXSTY
  7
Standard
  9
$DIMAUNIT
 70
     0
  9
$DIMADEC
 70
     2
  9
$DIMALTRND
 40
0.0
  9
$DIMAZIN
 70
     0
  9
$DIMDSEP
 70
    44
  9
$DIMATFIT
 70
     3
  9
$DIMFRAC
 70
     0
  9
$DIMLDRBLK
  1

  9
$DIMLUNIT
 70
     2
  9
$DIMLWD
 70
    -2
  9
$DIMLWE
 70
    -2
  9
$DIMTMOVE
 70
     0
  9
$LUNITS
 70
     2
  9
$LUPREC
 70
     2
  9
$SKETCHINC
 40
1.0
  9
$FILLETRAD
 40
10.0
  9
$AUNITS
 70
     0
  9
$AUPREC
 70
     2
  9
$MENU
  1
.
  9
$ELEVATION
 40
0.0
  9
$PELEVATION
 40
0.0
  9
$THICKNESS
 40
0.0
  9
$LIMCHECK
 70
     0
  9
$CHAMFERA
 40
0.0
  9
$CHAMFERB
 40
0.0
  9
$CHAMFERC
 40
0.0
  9
$CHAMFERD
 40
0.0
  9
$SKPOLY
 70
     0
  9
$TDCREATE
 40
2460383.476811933
  9
$TDUCREATE
 40
2460383.247645266
  9
$TDUPDATE
 40
2460383.476812477
  9
$TDUUPDATE
 40
2460383.24764581
  9
$TDINDWG
 40
0.0000000116
  9
$TDUSRTIMER
 40
0.0000000116
  9
$USRTIMER
 70
     1
  9
$ANGBASE
 50
0.0
  9
$ANGDIR
 70
     0
  9
$PDMODE
 70
     0
  9
$PDSIZE
 40
-1.0
  9
$PLINEWID
 40
0.0
  9
$SPLFRAME
 70
     0
  9
$SPLINETYPE
 70
     6
  9
$SPLINESEGS
 70
     8
  9
$HANDSEED
  5
350
  9
$SURFTAB1
 70
     6
  9
$SURFTAB2
 70
     6
  9
$SURFTYPE
 70
     6
  9
$SURFU
 70
     6
  9
$SURFV
 70
     6
  9
$UCSBASE
  2

  9
$UCSNAME
  2

  9
$UCSORG
 10
0.0
 20
0.0
 30
0.0
  9
$UCSXDIR
 10
1.0
 20
0.0
 30
0.0
  9
$UCSYDIR
 10
0.0
 20
1.0
 30
0.0
  9
$UCSORTHOREF
  2

  9
$UCSORTHOVIEW
 70
     0
  9
$UCSORGTOP
 10
0.0
 20
0.0
 30
0.0
  9
$UCSORGBOTTOM
 10
0.0
 20
0.0
 30
0.0
  9
$UCSORGLEFT
 10
0.0
 20
0.0
 30
0.0
  9
$UCSORGRIGHT
 10
0.0
 20
0.0
 30
0.0
  9
$UCSORGFRONT
 10
0.0
 20
0.0
 30
0.0
  9
$UCSORGBACK
 10
0.0
 20
0.0
 30
0.0
  9
$PUCSBASE
  2

  9
$PUCSNAME
  2

  9
$PUCSORG
 10
0.0
 20
0.0
 30
0.0
  9
$PUCSXDIR
 10
1.0
 20
0.0
 30
0.0
  9
$PUCSYDIR
 10
0.0
 20
1.0
 30
0.0
  9
$PUCSORTHOREF
  2

  9
$PUCSORTHOVIEW
 70
     0
  9
$PUCSORGTOP
 10
0.0
 20
0.0
 30
0.0
  9
$PUCSORGBOTTOM
 10
0.0
 20
0.0
 30
0.0
  9
$PUCSORGLEFT
 10
0.0
 20
0.0
 30
0.0
  9
$PUCSORGRIGHT
 10
0.0
 20
0.0
 30
0.0
  9
$PUCSORGFRONT
 10
0.0
 20
0.0
 30
0.0
  9
$PUCSORGBACK
 10
0.0
 20
0.0
 30
0.0
  9
$USERI1
 70
     0
  9
$USERI2
 70
     0
  9
$USERI3
 70
     0
  9
$USERI4
 70
     0
  9
$USERI5
 70
     0
  9
$USERR1
 40
0.0
  9
$USERR2
 40
0.0
  9
$USERR3
 40
0.0
  9
$USERR4
 40
0.0
  9
$USERR5
 40
0.0
  9
$WORLDVIEW
 70
     1
  9
$SHADEDGE
 70
     3
  9
$SHADEDIF
 70
    70
  9
$TILEMODE
 70
     1
  9
$MAXACTVP
 70
    64
  9
$PINSBASE
 10
0.0
 20
0.0
 30
0.0
  9
$PLIMCHECK
 70
     0
  9
$PEXTMIN
 10
1.0000000000E+20
 20
1.0000000000E+20
 30
1.0000000000E+20
  9
$PEXTMAX
 10
-1.0000000000E+20
 20
-1.0000000000E+20
 30
-1.0000000000E+20
  9
$PLIMMIN
 10
0.0
 20
0.0
  9
$PLIMMAX
 10
420.0
 20
297.0
  9
$UNITMODE
 70
     0
  9
$VISRETAIN
 70
     1
  9
$PLINEGEN
 70
     0
  9
$PSLTSCALE
 70
     1
  9
$TREEDEPTH
 70
  3020
  9
$CMLSTYLE
  2
Standard
  9
$CMLJUST
 70
     0
  9
$CMLSCALE
 40
20.0
  9
$PROXYGRAPHICS
 70
     1
  9
$MEASUREMENT
 70
     1
  9
$CELWEIGHT
370
    -1
  9
$ENDCAPS
280
     0
  9
$JOINSTYLE
280
     0
  9
$LWDISPLAY
290
     1
  9
$INSUNITS
 70
     4
  9
$HYPERLINKBASE
  1

  9
$STYLESHEET
  1

  9
$XEDIT
290
     1
  9
$CEPSNTYPE
380
     0
  9
$PSTYLEMODE
290
     1
  9
$FINGERPRINTGUID
  2
{433ade5a-302f-4a5b-a0e5-6e48f70e65be}
  9
$VERSIONGUID
  2
{FAEB1C32-E019-11D5-929B-00C0DF256EC4}
  9
$EXTNAMES
290
     1
  9
$PSVPSCALE
 40
0.0
  9
$OLESTARTUP
290
     0
  0
ENDSEC
  0
SECTION
  2
CLASSES
  0
CLASS
  1
ACDBDICTIONARYWDFLT
  2
AcDbDictionaryWithDefault
  3
ObjectDBX Classes
 90
        0
280
     0
281
     0
  0
CLASS
  1
VISUALSTYLE
  2
AcDbVisualStyle
  3
ObjectDBX Classes
 90
     4095
280
     0
281
     0
  0
CLASS
  1
MATERIAL
  2
AcDbMaterial
  3
ObjectDBX Classes
 90
     1153
280
     0
281
     0
  0
CLASS
  1
SCALE
  2
AcDbScale
  3
ObjectDBX Classes
 90
     1153
280
     0
281
     0
  0
CLASS
  1
TABLESTYLE
  2
AcDbTableStyle
  3
ObjectDBX Classes
 90
     4095
280
     0
281
     0
  0
CLASS
  1
MLEADERSTYLE
  2
AcDbMLeaderStyle
  3
ACDB_MLEADERSTYLE_CLASS
 90
     4095
280
     0
281
     0
  0
CLASS
  1
SUN
  2
AcDbSun
  3
SCENEOE
 90
     1153
280
     0
281
     0
  0
CLASS
  1
ACDBPLACEHOLDER
  2
AcDbPlaceHolder
  3
ObjectDBX Classes
 90
        0
280
     0
281
     0
  0
CLASS
  1
LAYOUT
  2
AcDbLayout
  3
ObjectDBX Classes
 90
        0
280
     0
281
     0
  0
ENDSEC
  0
SECTION
  2
TABLES
  0
TABLE
  2
VPORT
  5
8
330
0
100
AcDbSymbolTable
 70
     1
  0
VPORT
  5
29
330
8
100
AcDbSymbolTableRecord
100
AcDbViewportTableRecord
  2
*Active
 70
     0
 10
0.0
 20
0.0
 11
1.0
 21
1.0
 12
594.5
 22
420.5
 13
0.0
 23
0.0
 14
10.0
 24
10.0
 15
10.0
 25
10.0
 16
0.0
 26
0.0
 36
1.0
 17
0.0
 27
0.0
 37
0.0
 40
841.0
 41
1.4137931034
 42
50.0
 43
0.0
 44
0.0
 50
0.0
 51
0.0
 71
     0
 72
  2000
 73
     1
 74
     3
 75
     0
 76
     0
 77
     0
 78
     0
281
     0
 65
     1
110
0.0
120
0.0
130
0.0
111
1.0
121
0.0
131
0.0
112
0.0
122
1.0
132
0.0
 79
     0
146
0.0
  0
ENDTAB
  0
TABLE
  2
LTYPE
  5
5
330
0
100
AcDbSymbolTable
 70
     6
  0
LTYPE
  5
14
330
5
100
AcDbSymbolTableRecord
100
AcDbLinetypeTableRecord
  2
ByBlock
 70
     0
  3

 72
    65
 73
     0
 40
0.0
  0
LTYPE
  5
15
330
5
100
AcDbSymbolTableRecord
100
AcDbLinetypeTableRecord
  2
ByLayer
 70
     0
  3

 72
    65
 73
     0
 40
0.0
  0
LTYPE
  5
16
330
5
100
AcDbSymbolTableRecord
100
AcDbLinetypeTableRecord
  2
Continuous
 70
     0
  3
Solid line
 72
    65
 73
     0
 40
0.0
  0
LTYPE
  5
6E
330
5
100
AcDbSymbolTableRecord
100
AcDbLinetypeTableRecord
  2
HIDDEN
 70
     0
  3
Hidden __ __ __ __ __ __ __ __ __ __ __ __ __ __
 72
    65
 73
     2
 40
1.905
 49
1.27
 74
     0
 49
-0.635
 74
     0
  0
LTYPE
  5
6F
330
5
100
AcDbSymbolTableRecord
100
AcDbLinetypeTableRecord
  2
PHANTOM
 70
     0
  3
Phantom ______  __  __  ______  __  __  ______
 72
    65
 73
     6
 40
12.7
 49
6.35
 74
     0
 49
-1.27
 74
     0
 49
1.27
 74
     0
 49
-1.27
 74
     0
 49
1.27
 74
     0
 49
-1.27
 74
     0
  0
LTYPE
  5
70
330
5
100
AcDbSymbolTableRecord
100
AcDbLinetypeTableRecord
  2
CENTER
 70
     0
  3
Center ____ _ ____ _ ____ _ ____ _ ____ _ ____
 72
    65
 73
     4
 40
10.16
 49
6.35
 74
     0
 49
-1.27
 74
     0
 49
1.27
 74
     0
 49
-1.27
 74
     0
  0
LTYPE
  5
71
330
5
100
AcDbSymbolTableRecord
100
AcDbLinetypeTableRecord
  2
CENTERX2
 70
     0
  3
Center (2x) ________  __  ________  __  _____
 72
    65
 73
     4
 40
20.32
 49
12.7
 74
     0
 49
-2.54
 74
     0
 49
2.54
 74
     0
 49
-2.54
 74
     0
  0
LTYPE
  5
72
330
5
100
AcDbSymbolTableRecord
100
AcDbLinetypeTableRecord
  2
DOT2
 70
     0
  3
Dot (.5x) ........................................
 72
    65
 73
     2
 40
0.635
 49
0.0
 74
     0
 49
-0.635
 74
     0
  0
ENDTAB
  0
TABLE
  2
LAYER
  5
2
330
0
100
AcDbSymbolTable
 70
     1
  0
LAYER
  5
10
330
2
100
AcDbSymbolTableRecord
100
AcDbLayerTableRecord
  2
0
 70
     0
 62
     7
  6
Continuous
370
    -3
390
F
  0
ENDTAB
  0
TABLE
  2
STYLE
  5
3
330
0
100
AcDbSymbolTable
 70
     1
  0
STYLE
  5
11
330
3
100
AcDbSymbolTableRecord
100
AcDbTextStyleTableRecord
  2
Standard
 70
     0
 40
0.0
 41
1.0
 50
0.0
 71
     0
 42
3.5
  3
txt
  4

  0
ENDTAB
  0
TABLE
  2
VIEW
  5
6
330
0
100
AcDbSymbolTable
 70
     0
  0
ENDTAB
  0
TABLE
  2
UCS
  5
7
330
0
100
AcDbSymbolTable
 70
     0
  0
ENDTAB
  0
TABLE
  2
APPID
  5
9
330
0
100
AcDbSymbolTable
 70
     1
  0
APPID
  5
12
330
9
100
AcDbSymbolTableRecord
100
AcDbRegAppTableRecord
  2
ACAD
 70
     0
  0
ENDTAB
  0
TABLE
  2
DIMSTYLE
  5
A
330
0
100
AcDbSymbolTable
 70
     1
100
AcDbDimStyleTable
  0
DIMSTYLE
105
27
330
A
100
AcDbSymbolTableRecord
100
AcDbDimStyleTableRecord
  2
ISO-25
 70
     0
 41
2.5
 42
0.625
 43
3.75
 44
1.25
 73
     0
 74
     0
 77
     1
 78
     8
140
2.5
141
2.5
143
0.0393700787
147
0.625
171
     3
172
     1
178
     0
271
     2
272
     2
274
     3
278
    44
283
     0
284
     8
340
11
  0
ENDTAB
  0
TABLE
  2
BLOCK_RECORD
  5
1
330
0
100
AcDbSymbolTable
 70
     1
  0
BLOCK_RECORD
  5
1F
330
1
100
AcDbSymbolTableRecord
100
AcDbBlockTableRecord
  2
*Model_Space
340
22
  0
BLOCK_RECORD
  5
1B
330
1
100
AcDbSymbolTableRecord
100
AcDbBlockTableRecord
  2
*Paper_Space
340
1E
  0
BLOCK_RECORD
  5
23
330
1
100
AcDbSymbolTableRecord
100
AcDbBlockTableRecord
  2
*Paper_Space0
340
26
  0
ENDTAB
  0
ENDSEC
  0
SECTION
  2
BLOCKS
  0
BLOCK
  5
20
330
1F
100
AcDbEntity
  8
0
100
AcDbBlockBegin
  2
*Model_Space
 70
     0
 10
0.0
 20
0.0
 30
0.0
  3
*Model_Space
  1

  0
ENDBLK
  5
21
330
1F
100
AcDbEntity
  8
0
100
AcDbBlockEnd
  0
BLOCK
  5
1C
330
1B
100
AcDbEntity
 67
     1
  8
0
100
AcDbBlockBegin
  2
*Paper_Space
 70
     0
 10
0.0
 20
0.0
 30
0.0
  3
*Paper_Space
  1

  0
ENDBLK
  5
1D
330
1B
100
AcDbEntity
 67
     1
  8
0
100
AcDbBlockEnd
  0
BLOCK
  5
24
330
23
100
AcDbEntity
  8
0
100
AcDbBlockBegin
  2
*Paper_Space0
 70
     0
 10
0.0
 20
0.0
 30
0.0
  3
*Paper_Space0
  1

  0
ENDBLK
  5
25
330
23
100
AcDbEntity
  8
0
100
AcDbBlockEnd
  0
ENDSEC
  0
SECTION
  2
ENTITIES
  0
LINE
  5
73
330
1F
100
AcDbEntity
  8
0
  6
Continuous
 62
     7
370
    25
100
AcDbLine
 10
580.0350457666
 20
437.4139797264
 30
0.0
 11
580.0350457666
 21
567.0863660397
 31
0.0
  0
LINE
  5
74
330
1F
100
AcDbEntity
  8
0
  6
Continuous
 62
     7
370
    25
100
AcDbLine
 10
562.8350457666
 20
567.0863660397
 30
0.0
 11
562.8350457666
 21
437.4139797264
 31
0.0
  0
LINE
  5
75
330
1F
100
AcDbEntity
  8
0
  6
Continuous
 62
     7
370
    25
100
AcDbLine
 10
562.8350457666
 20
437.4139797264
 30
0.0
 11
562.8350457666
 21
431.0611239255
 31
0.0
  0
LINE
  5
76
330
1F
100
AcDbEntity
  8
0
  6
Continuous
 62
     7
370
    25
100
AcDbLine
 10
580.0350457666
 20
431.061146036
 30
0.0
 11
580.0350457666
 21
437.4139797264
 31
0.0
  0
LINE
  5
77
330
1F
100
AcDbEntity
  8
0
  6
Continuous
 62
     7
370
    25
100
AcDbLine
 10
581.0350457666
 20
427.0896930121
 30
0.0
 11
581.0350457666
 21
430.687685708
 31
0.0
  0
LINE
  5
78
330
1F
100
AcDbEntity
  8
0
  6
Continuous
 62
     7
370
    25
100
AcDbLine
 10
561.8350457666
 20
430.687685708
 30
0.0
 11
561.8350457666
 21
427.0896930121
 31
0.0
  0
SPLINE
  5
79
330
1F
100
AcDbEntity
  8
0
  6
Continuous
 62
     7
370
    25
100
AcDbSpline
210
0.0
220
0.0
230
1.0
 70
     8
 71
     3
 72
    13
 73
     9
 74
     0
 42
0.00000001
 43
0.00000001
 40
0.0
 40
0.0
 40
0.0
 40
0.0
 40
0.2239115623137158
 40
0.4295853137716418
 40
0.6146819788804979
 40
0.7759138702294867
 40
0.9090474069497317
 40
1.0
 40
1.0
 40
1.0
 40
1.0
 10
485.8685707167249
 20
579.0843067554614
 30
0.0
 10
485.4996064333069
 20
579.09669010634
 30
0.0
 10
484.7917303601607
 20
579.1204481723271
 30
0.0
 10
483.7965961679247
 20
579.3255537278784
 30
0.0
 10
482.9309731272537
 20
579.6068284731828
 30
0.0
 10
482.2108994031632
 20
579.932893705951
 30
0.0
 10
481.6562349871493
 20
580.2426382780907
 30
0.0
 10
481.3514923776024
 20
580.4503768321096
 30
0.0
 10
481.2278027472822
 20
580.5346942335653
 30
0.0
  0
SPLINE
  5
7A
330
1F
100
AcDbEntity
  8
0
  6
Continuous
 62
     7
370
    25
100
AcDbSpline
210
0.0
220
0.0
230
1.0
 70
     8
 71
     3
 72
    14
 73
    10
 74
     0
 42
0.00000001
 43
0.00000001
 40
0.0
 40
0.0
 40
0.0
 40
0.0
 40
0.0291181943368139
 40
0.1105355196900068
 40
0.2447776569980927
 40
0.4471118491232335
 40
0.679444643016767
 40
0.9765279228026743
 40
1.0
 40
1.0
 40
1.0
 40
1.0
 10
481.1026794627774
 20
553.5493795220509
 30
0.0
 10
481.1398794928085
 20
553.5766902445299
 30
0.0
 10
481.2810944529259
 20
553.6803644238901
 30
0.0
 10
481.6304424656218
 20
553.9112428590513
 30
0.0
 10
482.23738346562
 20
554.2585854385238
 30
0.0
 10
483.1183927787276
 20
554.6477584124633
 30
0.0
 10
484.3055837649273
 20
554.9695507658898
 30
0.0
 10
485.2383889137309
 20
555.1190665452925
 30
0.0
 10
485.7765515111569
 20
555.0818744138238
 30
0.0
 10
485.81595747882
 20
555.0791510883141
 30
0.0
  0
SPLINE
  5
7B
330
1F
100
AcDbEntity
  8
0
  6
Continuous
 62
     7
370
    25
100
AcDbSpline
210
0.0
220
0.0
230
1.0
 70
     8
 71
     3
 72
    14
 73
    10
 74
     0
 42
0.00000001
 43
0.00000001
 40
0.0
 40
0.0
 40
0.0
 40
0.0
 40
0.2174771662363308
 40
0.4171578257627632
 40
0.5964995923445698
 40
0.7522029893274299
 40
0.8799518689286052
 40
0.9736761134907636
 40
1.0
 40
1.0
 40
1.0
 40
1.0
 10
657.0536350261078
 20
555.0874781004327
 30
0.0
 10
657.4199165244792
 20
555.0730185353256
 30
0.0
 10
658.1225061163983
 20
555.0452826546077
 30
0.0
 10
659.1089868873149
 20
554.837113797175
 30
0.0
 10
659.9645079115253
 20
554.555186473909
 30
0.0
 10
660.6762245482463
 20
554.231882960797
 30
0.0
 10
661.2252208846521
 20
553.9204301898405
 30
0.0
 10
661.580332321923
 20
553.6868430608786
 30
0.0
 10
661.7339672068895
 20
553.5741142558733
 30
0.0
 10
661.7676559219042
 20
553.5493953348638
 30
0.0
  0
SPLINE
  5
7C
330
1F
100
AcDbEntity
  8
0
  6
Continuous
 62
     7
370
    25
100
AcDbSpline
210
0.0
220
0.0
230
1.0
 70
     8
 71
     3
 72
    12
 73
     8
 74
     0
 42
0.00000001
 43
0.00000001
 40
0.0
 40
0.0
 40
0.0
 40
0.0
 40
0.1555035655110017
 40
0.3250874650222014
 40
0.5216956128439891
 40
0.8107905009119208
 40
1.0
 40
1.0
 40
1.0
 40
1.0
 10
661.6420320591639
 20
580.5350550635721
 30
0.0
 10
661.4298791918175
 20
580.3941195543624
 30
0.0
 10
660.9863637160394
 20
580.0994872913011
 30
0.0
 10
660.2180139654713
 20
579.7201455071938
 30
0.0
 10
659.2095567006461
 20
579.3531843310728
 30
0.0
 10
658.1208764449842
 20
579.1071197861779
 30
0.0
 10
657.3363722618582
 20
579.1099353012738
 30
0.0
 10
657.0260350633968
 20
579.1110490736232
 30
0.0
  0
LINE
  5
7D
330
1F
100
AcDbEntity
  8
0
  6
Continuous
 62
     7
370
    25
100
AcDbLine
 10
564.7226493994
 20
579.0863660397
 30
0.0
 11
485.8666335622
 21
579.0863660397
 31
0.0
  0
LINE
  5
7E
330
1F
100
AcDbEntity
  8
0
  6
Continuous
 62
     7
370
    25
100
AcDbLine
 10
657.0261958167
 20
579.0863660397
 30
0.0
 11
578.1474421338
 21
579.0863660397
 31
0.0
  0
LINE
  5
7F
330
1F
100
AcDbEntity
  8
0
  6
Continuous
 62
     7
370
    25
100
AcDbLine
 10
580.0350457666
 20
555.0863660397
 30
0.0
 11
657.0550582822
 21
555.0863660397
 31
0.0
  0
LINE
  5
80
330
1F
100
AcDbEntity
  8
0
  6
Continuous
 62
     7
370
    25
100
AcDbLine
 10
485.8150332509
 20
555.0863660397
 30
0.0
 11
562.8350457666
 21
555.0863660397
 31
0.0
  0
SPLINE
  5
81
330
1F
100
AcDbEntity
  8
0
  6
Continuous
 62
     7
370
    25
100
AcDbSpline
210
0.0
220
0.0
230
1.0
 70
     8
 71
     3
 72
    10
 73
     6
 74
     0
 42
0.00000001
 43
0.00000001
 40
0.0
 40
0.0
 40
0.0
 40
0.0
 40
0.2633222019758186
 40
0.6716985336975614
 40
1.0
 40
1.0
 40
1.0
 40
1.0
 10
730.4569836385739
 20
570.1343599647076
 30
0.0
 10
730.4558546372039
 20
570.1668758924901
 30
0.0
 10
730.4529747107902
 20
570.249819529029
 30
0.0
 10
730.3947616357393
 20
570.3634597082253
 30
0.0
 10
730.3330484855107
 20
570.4288578663287
 30
0.0
 10
730.305545935869
 20
570.4580026447602
 30
0.0
  0
SPLINE
  5
82
330
1F
100
AcDbEntity
  8
0
  6
Continuous
 62
     7
370
    25
100
AcDbSpline
210
0.0
220
0.0
230
1.0
 70
     8
 71
     3
 72
    17
 73
    13
 74
     0
 42
0.00000001
 43
0.00000001
 40
0.0
 40
0.0
 40
0.0
 40
0.0
 40
0.1727939157605292
 40
0.4670908646424644
 40
0.583603646444573
 40
0.6237329378319886
 40
0.6617158152047128
 40
0.7176264960718008
 40
0.7837734229449179
 40
0.864011767563451
 40
0.9541263261861292
 40
1.0
 40
1.0
 40
1.0
 40
1.0
 10
729.4525874852638
 20
564.0250502782275
 30
0.0
 10
729.5363810881337
 20
564.0310274482864
 30
0.0
 10
729.7628892162913
 20
564.0471847390027
 30
0.0
 10
729.9414935863196
 20
564.063958881907
 30
0.0
 10
730.0234615692731
 20
564.0738761721755
 30
0.0
 10
730.0852924981285
 20
564.086408562134
 30
0.0
 10
730.1539200842184
 20
564.1070297228953
 30
0.0
 10
730.2470397393164
 20
564.1531261645666
 30
0.0
 10
730.3492799803367
 20
564.2392398047392
 30
0.0
 10
730.4339786087659
 20
564.3708766512525
 30
0.0
 10
730.4771706475161
 20
564.512665117276
 30
0.0
 10
730.4621130082782
 20
564.6014029665447
 30
0.0
 10
730.4570335303084
 20
564.6313374033659
 30
0.0
  0
LINE
  5
83
330
1F
100
AcDbEntity
  8
0
  6
Continuous
 62
     7
370
    25
100
AcDbLine
 10
725.9692667944
 20
563.7828827498
 30
0.0
 11
729.4525874853
 21
564.0250502782
 31
0.0
  0
LINE
  5
84
330
1F
100
AcDbEntity
  8
0
  6
Continuous
 62
     7
370
    25
100
AcDbLine
 10
729.4525874853
 20
570.6385243789
 30
0.0
 11
725.9692667944
 21
570.8806919073
 31
0.0
  0
ARC
  5
85
330
1F
100
AcDbEntity
  8
0
  6
Continuous
 62
     7
370
    25
100
AcDbCircle
 10
681.1440609718
 20
564.3598928528
 30
0.0
 40
8.999995138923055
100
AcDbArc
 50
257.1419190681
 51
270.0
  0
ARC
  5
86
330
1F
100
AcDbEntity
  8
0
  6
Continuous
 62
     7
370
    25
100
AcDbCircle
 10
681.1440609718
 20
564.3598928528
 30
0.0
 40
8.999995138923058
100
AcDbArc
 50
270.0
 51
305.1719294169
  0
SPLINE
  5
87
330
1F
100
AcDbEntity
  8
0
  6
Continuous
 62
     7
370
    25
100
AcDbSpline
210
0.0
220
0.0
230
1.0
 70
     8
 71
     3
 72
    17
 73
    13
 74
     0
 42
0.00000001
 43
0.00000001
 40
0.0
 40
0.0
 40
0.0
 40
0.0
 40
0.1727939157605296
 40
0.4670908646424595
 40
0.5836036464445749
 40
0.6237329378319906
 40
0.6617158152047107
 40
0.7176264960718011
 40
0.7837734229449181
 40
0.8640117675634507
 40
0.9541263261861291
 40
1.0
 40
1.0
 40
1.0
 40
1.0
 10
413.4175040479174
 20
570.3931030900906
 30
0.0
 10
413.3337104450476
 20
570.3871259200317
 30
0.0
 10
413.10720231689
 20
570.3709686293155
 30
0.0
 10
412.9285979468618
 20
570.3541944864111
 30
0.0
 10
412.8466299639082
 20
570.3442771961427
 30
0.0
 10
412.7847990350529
 20
570.3317448061841
 30
0.0
 10
412.7161714489629
 20
570.3111236454228
 30
0.0
 10
412.623051793865
 20
570.2650272037515
 30
0.0
 10
412.5208115528445
 20
570.1789135635788
 30
0.0
 10
412.4361129244154
 20
570.0472767170655
 30
0.0
 10
412.3929208856653
 20
569.905488251042
 30
0.0
 10
412.4079785249032
 20
569.8167504017733
 30
0.0
 10
412.4130580028728
 20
569.7868159649522
 30
0.0
  0
SPLINE
  5
88
330
1F
100
AcDbEntity
  8
0
  6
Continuous
 62
     7
370
    25
100
AcDbSpline
210
0.0
220
0.0
230
1.0
 70
     8
 71
     3
 72
    10
 73
     6
 74
     0
 42
0.00000001
 43
0.00000001
 40
0.0
 40
0.0
 40
0.0
 40
0.0
 40
0.2633222019758121
 40
0.6716985336975567
 40
1.0
 40
1.0
 40
1.0
 40
1.0
 10
412.4131078946074
 20
564.2837934036105
 30
0.0
 10
412.4142368959775
 20
564.2512774758279
 30
0.0
 10
412.4171168223911
 20
564.1683338392891
 30
0.0
 10
412.475329897442
 20
564.0546936600929
 30
0.0
 10
412.5370430476706
 20
563.9892955019894
 30
0.0
 10
412.5645455973124
 20
563.9601507235578
 30
0.0
  0
LINE
  5
89
330
1F
100
AcDbEntity
  8
0
  6
Continuous
 62
     7
370
    25
100
AcDbLine
 10
413.4175040479
 20
563.7796289894
 30
0.0
 11
416.9008247388
 21
563.537461461
 31
0.0
  0
LINE
  5
8A
330
1F
100
AcDbEntity
  8
0
  6
Continuous
 62
     7
370
    25
100
AcDbLine
 10
416.9008247388
 20
570.6352706185
 30
0.0
 11
413.4175040479
 21
570.3931030901
 31
0.0
  0
ARC
  5
8B
330
1F
100
AcDbEntity
  8
0
  6
Continuous
 62
     7
370
    25
100
AcDbCircle
 10
469.8350457666
 20
567.0863660397
 30
0.0
 40
9.141196303513993
100
AcDbArc
 50
295.4997205711
 51
0.0
  0
ARC
  5
8C
330
1F
100
AcDbEntity
  8
0
  6
Continuous
 62
     7
370
    25
100
AcDbCircle
 10
469.8350457666
 20
567.0863660397
 30
0.0
 40
9.141196303514018
100
AcDbArc
 50
0.0
 51
64.5159984471
  0
LINE
  5
8D
330
1F
100
AcDbEntity
  8
0
  6
Continuous
 62
     7
370
    25
100
AcDbLine
 10
581.4850457666
 20
426.870684761
 30
0.0
 11
581.4850457666
 21
427.0740495656
 31
0.0
  0
LINE
  5
8E
330
1F
100
AcDbEntity
  8
0
  6
Continuous
 62
     7
370
    25
100
AcDbLine
 10
561.3850457666
 20
427.0740495656
 30
0.0
 11
561.3850457666
 21
426.870684761
 31
0.0
  0
LINE
  5
8F
330
1F
100
AcDbEntity
  8
0
  6
Continuous
 62
     7
370
    25
100
AcDbLine
 10
570.9350457666
 20
416.125289356
 30
0.0
 11
570.9350457666
 21
415.4839080494
 31
0.0
  0
ARC
  5
90
330
1F
100
AcDbEntity
  8
0
  6
Continuous
 62
     7
370
    25
100
AcDbCircle
 10
571.434987885
 20
426.4816191596
 30
0.0
 40
11.00906861575057
100
AcDbArc
 50
265.7647563747
 51
267.3971978154
  0
LINE
  5
91
330
1F
100
AcDbEntity
  8
0
  6
Continuous
 62
     7
370
    25
100
AcDbLine
 10
570.6219500179
 20
416.1439949916
 30
0.0
 11
570.6219500179
 21
415.502613685
 31
0.0
  0
ARC
  5
92
330
1F
100
AcDbEntity
  8
0
  6
Continuous
 62
     7
370
    25
100
AcDbCircle
 10
571.434987885
 20
427.1230004666
 30
0.0
 40
11.00906861609265
100
AcDbArc
 50
265.7647563747
 51
267.3971978154
  0
LINE
  5
93
330
1F
100
AcDbEntity
  8
0
  6
Continuous
 62
     7
370
    25
100
AcDbLine
 10
572.2481415153
 20
416.1439949916
 30
0.0
 11
572.2481415153
 21
415.502613685
 31
0.0
  0
ARC
  5
94
330
1F
100
AcDbEntity
  8
0
  6
Continuous
 62
     7
370
    25
100
AcDbCircle
 10
571.4351036482
 20
426.4816191591
 30
0.0
 40
11.00906861519405
100
AcDbArc
 50
272.6028021846
 51
274.2352436254
  0
LINE
  5
95
330
1F
100
AcDbEntity
  8
0
  6
Continuous
 62
     7
370
    25
100
AcDbLine
 10
571.9350457666
 20
416.125289356
 30
0.0
 11
571.9350457666
 21
415.4839080494
 31
0.0
  0
ARC
  5
96
330
1F
100
AcDbEntity
  8
0
  6
Continuous
 62
     7
370
    25
100
AcDbCircle
 10
571.4351036482
 20
427.1230004666
 30
0.0
 40
11.00906861603331
100
AcDbArc
 50
272.6028021846
 51
274.2352436253
  0
LINE
  5
97
330
1F
100
AcDbEntity
  8
0
  6
Continuous
 62
     7
370
    25
100
AcDbLine
 10
571.4350457666
 20
416.6077747809
 30
0.0
 11
571.9350457666
 21
416.125289356
 31
0.0
  0
LINE
  5
98
330
1F
100
AcDbEntity
  8
0
  6
Continuous
 62
     7
370
    25
100
AcDbLine
 10
571.9350457666
 20
415.4839080494
 30
0.0
 11
571.4350457666
 21
415.9212347339
 31
0.0
  0
LINE
  5
99
330
1F
100
AcDbEntity
  8
0
  6
Continuous
 62
     7
370
    25
100
AcDbLine
 10
571.4350457666
 20
416.6077747809
 30
0.0
 11
571.4350457666
 21
415.9212347339
 31
0.0
  0
ARC
  5
9A
330
1F
100
AcDbEntity
  8
0
  6
Continuous
 62
     7
370
    25
100
AcDbCircle
 10
571.1817959741
 20
426.8566172896
 30
0.0
 40
10.62185813447021
100
AcDbArc
 50
189.6752540642
 51
191.3471322519
  0
LINE
  5
9B
330
1F
100
AcDbEntity
  8
0
  6
Continuous
 62
     7
370
    25
100
AcDbLine
 10
561.1356911978
 20
425.6198698249
 30
0.0
 11
560.7110215842
 21
425.0714691432
 31
0.0
  0
LINE
  5
9C
330
1F
100
AcDbEntity
  8
0
  6
Continuous
 62
     7
370
    25
100
AcDbLine
 10
560.590484904
 20
426.0519561238
 30
0.0
 11
561.1356911978
 21
425.6198698249
 31
0.0
  0
ARC
  5
9D
330
1F
100
AcDbEntity
  8
0
  6
Continuous
 62
     7
370
    25
100
AcDbCircle
 10
571.1703856373
 20
426.8550999177
 30
0.0
 40
10.61034115765443
100
AcDbArc
 50
182.6680361771
 51
184.3411240063
  0
LINE
  5
9E
330
1F
100
AcDbEntity
  8
0
  6
Continuous
 62
     7
370
    25
100
AcDbLine
 10
561.0600457666
 20
426.8550413145
 30
0.0
 11
560.5715461003
 21
426.3611971442
 31
0.0
  0
LINE
  5
9F
330
1F
100
AcDbEntity
  8
0
  6
Continuous
 62
     7
370
    25
100
AcDbLine
 10
560.5715461003
 20
427.3488854848
 30
0.0
 11
561.0600457666
 21
426.8550413145
 31
0.0
  0
ARC
  5
A0
330
1F
100
AcDbEntity
  8
0
  6
Continuous
 62
     7
370
    25
100
AcDbCircle
 10
571.1703856365
 20
426.8549827114
 30
0.0
 40
10.61034115683469
100
AcDbArc
 50
175.6588759936
 51
177.331963823
  0
LINE
  5
A1
330
1F
100
AcDbEntity
  8
0
  6
Continuous
 62
     7
370
    25
100
AcDbLine
 10
561.1356911978
 20
428.0902128042
 30
0.0
 11
560.590484904
 21
427.6581265053
 31
0.0
  0
LINE
  5
A2
330
1F
100
AcDbEntity
  8
0
  6
Continuous
 62
     7
370
    25
100
AcDbLine
 10
560.7110215842
 20
428.6386134858
 30
0.0
 11
561.1356911978
 21
428.0902128042
 31
0.0
  0
ARC
  5
A3
330
1F
100
AcDbEntity
  8
0
  6
Continuous
 62
     7
370
    25
100
AcDbCircle
 10
571.181795974
 20
426.8534653394
 30
0.0
 40
10.62185813435049
100
AcDbArc
 50
168.6528677481
 51
170.3247459358
  0
LINE
  5
A4
330
1F
100
AcDbEntity
  8
0
  6
Continuous
 62
     7
370
    25
100
AcDbLine
 10
561.3615244108
 20
429.3073727122
 30
0.0
 11
560.7675618248
 21
428.9433450759
 31
0.0
  0
LINE
  5
A5
330
1F
100
AcDbEntity
  8
0
  6
Continuous
 62
     7
370
    25
100
AcDbLine
 10
561.0068774891
 20
429.9023329883
 30
0.0
 11
561.3615244108
 21
429.3073727122
 31
0.0
  0
ARC
  5
A6
330
1F
100
AcDbEntity
  8
0
  6
Continuous
 62
     7
370
    25
100
AcDbCircle
 10
571.2034688765
 20
426.8479499745
 30
0.0
 40
10.64423466093922
100
AcDbArc
 50
161.6549093321
 51
163.3244435255
  0
LINE
  5
A7
330
1F
100
AcDbEntity
  8
0
  6
Continuous
 62
     7
370
    25
100
AcDbLine
 10
561.7342522487
 20
430.4887721062
 30
0.0
 11
561.1001946827
 21
430.1981114752
 31
0.0
  0
LINE
  5
A8
330
1F
100
AcDbEntity
  8
0
  6
Continuous
 62
     7
370
    25
100
AcDbLine
 10
561.4547995697
 20
431.1216161163
 30
0.0
 11
561.7342522487
 21
430.4887721062
 31
0.0
  0
ARC
  5
A9
330
1F
100
AcDbEntity
  8
0
  6
Continuous
 62
     7
370
    25
100
AcDbCircle
 10
571.2332530824
 20
426.836419686
 30
0.0
 40
10.67619134088324
100
AcDbArc
 50
154.6693994505
 51
156.3356003094
  0
LINE
  5
AA
330
1F
100
AcDbEntity
  8
0
  6
Continuous
 62
     7
370
    25
100
AcDbLine
 10
561.8699855513
 20
431.4959160188
 30
0.0
 11
561.5835329413
 21
431.4041283836
 31
0.0
  0
LINE
  5
AB
330
1F
100
AcDbEntity
  8
0
  6
Continuous
 62
     7
370
    25
100
AcDbLine
 10
581.2865585918
 20
431.4041283836
 30
0.0
 11
581.0001059819
 21
431.4959160188
 31
0.0
  0
ARC
  5
AC
330
1F
100
AcDbEntity
  8
0
  6
Continuous
 62
     7
370
    25
100
AcDbCircle
 10
571.6368384504
 20
426.8364196858
 30
0.0
 40
10.6761913412677
100
AcDbArc
 50
23.6643996907
 51
25.3306005495
  0
LINE
  5
AD
330
1F
100
AcDbEntity
  8
0
  6
Continuous
 62
     7
370
    25
100
AcDbLine
 10
581.1358392845
 20
430.4887721062
 30
0.0
 11
581.4152919635
 21
431.1216161163
 31
0.0
  0
LINE
  5
AE
330
1F
100
AcDbEntity
  8
0
  6
Continuous
 62
     7
370
    25
100
AcDbLine
 10
581.7698968505
 20
430.1981114752
 30
0.0
 11
581.1358392845
 21
430.4887721062
 31
0.0
  0
ARC
  5
AF
330
1F
100
AcDbEntity
  8
0
  6
Continuous
 62
     7
370
    25
100
AcDbCircle
 10
571.6666226567
 20
426.8479499745
 30
0.0
 40
10.64423466087974
100
AcDbArc
 50
16.6755564745
 51
18.3450906679
  0
LINE
  5
B0
330
1F
100
AcDbEntity
  8
0
  6
Continuous
 62
     7
370
    25
100
AcDbLine
 10
581.5085671224
 20
429.3073727122
 30
0.0
 11
581.8632140441
 21
429.9023329883
 31
0.0
  0
LINE
  5
B1
330
1F
100
AcDbEntity
  8
0
  6
Continuous
 62
     7
370
    25
100
AcDbLine
 10
582.1025297084
 20
428.9433450759
 30
0.0
 11
581.5085671224
 21
429.3073727122
 31
0.0
  0
ARC
  5
B2
330
1F
100
AcDbEntity
  8
0
  6
Continuous
 62
     7
370
    25
100
AcDbCircle
 10
571.6882955592
 20
426.8534653394
 30
0.0
 40
10.62185813434995
100
AcDbArc
 50
9.6752540641
 51
11.3471322519
  0
LINE
  5
B3
330
1F
100
AcDbEntity
  8
0
  6
Continuous
 62
     7
370
    25
100
AcDbLine
 10
581.7344003354
 20
428.0902128042
 30
0.0
 11
582.159069949
 21
428.6386134858
 31
0.0
  0
LINE
  5
B4
330
1F
100
AcDbEntity
  8
0
  6
Continuous
 62
     7
370
    25
100
AcDbLine
 10
582.2796066292
 20
427.6581265053
 30
0.0
 11
581.7344003354
 21
428.0902128042
 31
0.0
  0
ARC
  5
B5
330
1F
100
AcDbEntity
  8
0
  6
Continuous
 62
     7
370
    25
100
AcDbCircle
 10
571.6997058965
 20
426.8549827114
 30
0.0
 40
10.61034115702856
100
AcDbArc
 50
2.6680361771
 51
4.3411240064
  0
LINE
  5
B6
330
1F
100
AcDbEntity
  8
0
  6
Continuous
 62
     7
370
    25
100
AcDbLine
 10
581.8100457666
 20
426.8550413145
 30
0.0
 11
582.2985454329
 21
427.3488854848
 31
0.0
  0
LINE
  5
B7
330
1F
100
AcDbEntity
  8
0
  6
Continuous
 62
     7
370
    25
100
AcDbLine
 10
582.2985454329
 20
426.3611971442
 30
0.0
 11
581.8100457666
 21
426.8550413145
 31
0.0
  0
ARC
  5
B8
330
1F
100
AcDbEntity
  8
0
  6
Continuous
 62
     7
370
    25
100
AcDbCircle
 10
571.6997058965
 20
426.8550999176
 30
0.0
 40
10.61034115700762
100
AcDbArc
 50
355.6588759936
 51
357.3319638229
  0
LINE
  5
B9
330
1F
100
AcDbEntity
  8
0
  6
Continuous
 62
     7
370
    25
100
AcDbLine
 10
581.7344003354
 20
425.6198698249
 30
0.0
 11
582.2796066292
 21
426.0519561238
 31
0.0
  0
LINE
  5
BA
330
1F
100
AcDbEntity
  8
0
  6
Continuous
 62
     7
370
    25
100
AcDbLine
 10
582.159069949
 20
425.0714691432
 30
0.0
 11
581.7344003354
 21
425.6198698249
 31
0.0
  0
ARC
  5
BB
330
1F
100
AcDbEntity
  8
0
  6
Continuous
 62
     7
370
    25
100
AcDbCircle
 10
571.6882955591
 20
426.8566172896
 30
0.0
 40
10.62185813442904
100
AcDbArc
 50
348.6528677481
 51
350.3247459358
  0
LINE
  5
BC
330
1F
100
AcDbEntity
  8
0
  6
Continuous
 62
     7
370
    25
100
AcDbLine
 10
581.5085671224
 20
424.4027099169
 30
0.0
 11
582.1025297084
 21
424.7667375532
 31
0.0
  0
LINE
  5
BD
330
1F
100
AcDbEntity
  8
0
  6
Continuous
 62
     7
370
    25
100
AcDbLine
 10
581.8632140441
 20
423.8077496407
 30
0.0
 11
581.5085671224
 21
424.4027099169
 31
0.0
  0
ARC
  5
BE
330
1F
100
AcDbEntity
  8
0
  6
Continuous
 62
     7
370
    25
100
AcDbCircle
 10
571.6666226574
 20
426.8621326543
 30
0.0
 40
10.64423466018989
100
AcDbArc
 50
341.654909332
 51
343.3244435255
  0
LINE
  5
BF
330
1F
100
AcDbEntity
  8
0
  6
Continuous
 62
     7
370
    25
100
AcDbLine
 10
581.1358392845
 20
423.2213105229
 30
0.0
 11
581.7698968505
 21
423.5119711539
 31
0.0
  0
LINE
  5
C0
330
1F
100
AcDbEntity
  8
0
  6
Continuous
 62
     7
370
    25
100
AcDbLine
 10
581.4152919635
 20
422.5884665127
 30
0.0
 11
581.1358392845
 21
423.2213105229
 31
0.0
  0
ARC
  5
C1
330
1F
100
AcDbEntity
  8
0
  6
Continuous
 62
     7
370
    25
100
AcDbCircle
 10
571.6368384504
 20
426.8736629432
 30
0.0
 40
10.67619134123267
100
AcDbArc
 50
334.6693994505
 51
336.3356003093
  0
LINE
  5
C2
330
1F
100
AcDbEntity
  8
0
  6
Continuous
 62
     7
370
    25
100
AcDbLine
 10
580.6216520327
 20
422.0928991062
 30
0.0
 11
581.2865585918
 21
422.3059542455
 31
0.0
  0
LINE
  5
C3
330
1F
100
AcDbEntity
  8
0
  6
Continuous
 62
     7
370
    25
100
AcDbLine
 10
580.8218354198
 20
421.4313996528
 30
0.0
 11
580.6216520327
 21
422.0928991062
 31
0.0
  0
ARC
  5
C4
330
1F
100
AcDbEntity
  8
0
  6
Continuous
 62
     7
370
    25
100
AcDbCircle
 10
571.6018277975
 20
426.8923421918
 30
0.0
 40
10.71589632133748
100
AcDbArc
 50
327.6999712403
 51
329.3620536495
  0
LINE
  5
C5
330
1F
100
AcDbEntity
  8
0
  6
Continuous
 62
     7
370
    25
100
AcDbLine
 10
579.9735033752
 20
421.0339304464
 30
0.0
 11
580.6595630925
 21
421.1662732702
 31
0.0
  0
LINE
  5
C6
330
1F
100
AcDbEntity
  8
0
  6
Continuous
 62
     7
370
    25
100
AcDbLine
 10
580.0914983457
 20
420.3534217013
 30
0.0
 11
579.9735033752
 21
421.0339304464
 31
0.0
  0
ARC
  5
C7
330
1F
100
AcDbEntity
  8
0
  6
Continuous
 62
     7
370
    25
100
AcDbCircle
 10
571.5648485979
 20
426.9182357629
 30
0.0
 40
10.76106591306082
100
AcDbArc
 50
320.7492802953
 51
322.4067082474
  0
LINE
  5
C8
330
1F
100
AcDbEntity
  8
0
  6
Continuous
 62
     7
370
    25
100
AcDbLine
 10
579.2008447789
 20
420.059846691
 30
0.0
 11
579.8980533587
 21
420.1095473429
 31
0.0
  0
LINE
  5
C9
330
1F
100
AcDbEntity
  8
0
  6
Continuous
 62
     7
370
    25
100
AcDbLine
 10
579.2349307005
 20
419.3702520042
 30
0.0
 11
579.2008447789
 21
420.059846691
 31
0.0
  0
ARC
  5
CA
330
1F
100
AcDbEntity
  8
0
  6
Continuous
 62
     7
370
    25
100
AcDbCircle
 10
571.5291272134
 20
426.9502954986
 30
0.0
 40
10.8090918563267
100
AcDbArc
 50
313.8188594745
 51
315.471374223
  0
LINE
  5
CB
330
1F
100
AcDbEntity
  8
0
  6
Continuous
 62
     7
370
    25
100
AcDbLine
 10
578.3149433458
 20
419.1848521747
 30
0.0
 11
579.0131339172
 21
419.1511859074
 31
0.0
  0
LINE
  5
CC
330
1F
100
AcDbEntity
  8
0
  6
Continuous
 62
     7
370
    25
100
AcDbLine
 10
578.264623169
 20
418.4962273894
 30
0.0
 11
578.3149433458
 21
419.1848521747
 31
0.0
  0
ARC
  5
CD
330
1F
100
AcDbEntity
  8
0
  6
Continuous
 62
     7
370
    25
100
AcDbCircle
 10
571.4974621869
 20
426.9864621539
 30
0.0
 40
10.85718905212968
100
AcDbArc
 50
306.9090466333
 51
308.5566772192
  0
LINE
  5
CE
330
1F
100
AcDbEntity
  8
0
  6
Continuous
 62
     7
370
    25
100
AcDbLine
 10
577.3287175139
 20
418.4217062878
 30
0.0
 11
578.0177088861
 21
418.3051640312
 31
0.0
  0
LINE
  5
CF
330
1F
100
AcDbEntity
  8
0
  6
Continuous
 62
     7
370
    25
100
AcDbLine
 10
577.1947250202
 20
417.7440931041
 30
0.0
 11
577.3287175139
 21
418.4217062878
 31
0.0
  0
ARC
  5
D0
330
1F
100
AcDbEntity
  8
0
  6
Continuous
 62
     7
370
    25
100
AcDbCircle
 10
571.4718874083
 20
427.0239023042
 30
0.0
 40
10.90255608203195
100
AcDbArc
 50
300.0189854626
 51
301.6620420636
  0
LINE
  5
D1
330
1F
100
AcDbEntity
  8
0
  6
Continuous
 62
     7
370
    25
100
AcDbLine
 10
576.2565486765
 20
417.7815374158
 30
0.0
 11
576.9262938038
 21
417.5838186184
 31
0.0
  0
LINE
  5
D2
330
1F
100
AcDbEntity
  8
0
  6
Continuous
 62
     7
370
    25
100
AcDbLine
 10
576.0408377782
 20
417.1248169598
 30
0.0
 11
576.2565486765
 21
417.7815374158
 31
0.0
  0
ARC
  5
D3
330
1F
100
AcDbEntity
  8
0
  6
Continuous
 62
     7
370
    25
100
AcDbCircle
 10
571.4534381321
 20
427.0593493697
 30
0.0
 40
10.94253945460095
100
AcDbArc
 50
293.1466946512
 51
294.7857462768
  0
LINE
  5
D4
330
1F
100
AcDbEntity
  8
0
  6
Continuous
 62
     7
370
    25
100
AcDbLine
 10
575.1140714697
 20
417.2736806624
 30
0.0
 11
575.75480396
 21
416.9976685096
 31
0.0
  0
LINE
  5
D5
330
1F
100
AcDbEntity
  8
0
  6
Continuous
 62
     7
370
    25
100
AcDbLine
 10
574.8197877173
 20
416.6474293971
 30
0.0
 11
575.1140714697
 21
417.2736806624
 31
0.0
  0
ARC
  5
D6
330
1F
100
AcDbEntity
  8
0
  6
Continuous
 62
     7
370
    25
100
AcDbCircle
 10
571.4420498003
 20
427.0895048401
 30
0.0
 40
10.97479170605887
100
AcDbArc
 50
286.2891969994
 51
287.9250357748
  0
LINE
  5
D7
330
1F
100
AcDbEntity
  8
0
  6
Continuous
 62
     7
370
    25
100
AcDbLine
 10
573.9179457836
 20
416.9055417227
 30
0.0
 11
574.5203223144
 21
416.5552610931
 31
0.0
  0
LINE
  5
D8
330
1F
100
AcDbEntity
  8
0
  6
Continuous
 62
     7
370
    25
100
AcDbLine
 10
573.549380497
 20
416.3188918018
 30
0.0
 11
573.9179457836
 21
416.9055417227
 31
0.0
  0
ARC
  5
D9
330
1F
100
AcDbEntity
  8
0
  6
Continuous
 62
     7
370
    25
100
AcDbCircle
 10
571.4366023388
 20
427.1114478976
 30
0.0
 40
10.99741326986467
100
AcDbArc
 50
279.4426979662
 51
281.0762926389
  0
LINE
  5
DA
330
1F
100
AcDbEntity
  8
0
  6
Continuous
 62
     7
370
    25
100
AcDbLine
 10
572.6856138242
 20
416.6824888913
 30
0.0
 11
573.2408503894
 21
416.2630476653
 31
0.0
  0
LINE
  5
DB
330
1F
100
AcDbEntity
  8
0
  6
Continuous
 62
     7
370
    25
100
AcDbLine
 10
572.2481415153
 20
416.1439949916
 30
0.0
 11
572.6856138242
 21
416.6824888913
 31
0.0
  0
LINE
  5
DC
330
1F
100
AcDbEntity
  8
0
  6
Continuous
 62
     7
370
    25
100
AcDbLine
 10
570.9350457666
 20
416.125289356
 30
0.0
 11
571.4350457666
 21
416.6077747809
 31
0.0
  0
LINE
  5
DD
330
1F
100
AcDbEntity
  8
0
  6
Continuous
 62
     7
370
    25
100
AcDbLine
 10
570.1844777089
 20
416.6824888913
 30
0.0
 11
570.6219500179
 21
416.1439949916
 31
0.0
  0
LINE
  5
DE
330
1F
100
AcDbEntity
  8
0
  6
Continuous
 62
     7
370
    25
100
AcDbLine
 10
569.6292411438
 20
416.2630476653
 30
0.0
 11
570.1844777089
 21
416.6824888913
 31
0.0
  0
ARC
  5
DF
330
1F
100
AcDbEntity
  8
0
  6
Continuous
 62
     7
370
    25
100
AcDbCircle
 10
571.4334891943
 20
427.1114478975
 30
0.0
 40
10.99741326973328
100
AcDbArc
 50
258.9237073611
 51
260.5573020338
  0
LINE
  5
E0
330
1F
100
AcDbEntity
  8
0
  6
Continuous
 62
     7
370
    25
100
AcDbLine
 10
568.9521457496
 20
416.9055417227
 30
0.0
 11
569.3207110362
 21
416.3188918018
 31
0.0
  0
LINE
  5
E1
330
1F
100
AcDbEntity
  8
0
  6
Continuous
 62
     7
370
    25
100
AcDbLine
 10
568.3497692187
 20
416.5552610931
 30
0.0
 11
568.9521457496
 21
416.9055417227
 31
0.0
  0
ARC
  5
E2
330
1F
100
AcDbEntity
  8
0
  6
Continuous
 62
     7
370
    25
100
AcDbCircle
 10
571.4280417329
 20
427.0895048401
 30
0.0
 40
10.97479170605648
100
AcDbArc
 50
252.0749642252
 51
253.7108030006
  0
LINE
  5
E3
330
1F
100
AcDbEntity
  8
0
  6
Continuous
 62
     7
370
    25
100
AcDbLine
 10
567.7560200635
 20
417.2736806624
 30
0.0
 11
568.0503038159
 21
416.6474293971
 31
0.0
  0
LINE
  5
E4
330
1F
100
AcDbEntity
  8
0
  6
Continuous
 62
     7
370
    25
100
AcDbLine
 10
567.1152875732
 20
416.9976685096
 30
0.0
 11
567.7560200635
 21
417.2736806624
 31
0.0
  0
ARC
  5
E5
330
1F
100
AcDbEntity
  8
0
  6
Continuous
 62
     7
370
    25
100
AcDbCircle
 10
571.4166534009
 20
427.0593493691
 30
0.0
 40
10.94253945397898
100
AcDbArc
 50
245.2142537231
 51
246.8533053489
  0
LINE
  5
E6
330
1F
100
AcDbEntity
  8
0
  6
Continuous
 62
     7
370
    25
100
AcDbLine
 10
566.6135428566
 20
417.7815374158
 30
0.0
 11
566.829253755
 21
417.1248169598
 31
0.0
  0
LINE
  5
E7
330
1F
100
AcDbEntity
  8
0
  6
Continuous
 62
     7
370
    25
100
AcDbLine
 10
565.9437977293
 20
417.5838186184
 30
0.0
 11
566.6135428566
 21
417.7815374158
 31
0.0
  0
ARC
  5
E8
330
1F
100
AcDbEntity
  8
0
  6
Continuous
 62
     7
370
    25
100
AcDbCircle
 10
571.3982041251
 20
427.0239023047
 30
0.0
 40
10.90255608256809
100
AcDbArc
 50
238.3379579364
 51
239.9810145374
  0
LINE
  5
E9
330
1F
100
AcDbEntity
  8
0
  6
Continuous
 62
     7
370
    25
100
AcDbLine
 10
565.5413740193
 20
418.4217062878
 30
0.0
 11
565.675366513
 21
417.7440931041
 31
0.0
  0
LINE
  5
EA
330
1F
100
AcDbEntity
  8
0
  6
Continuous
 62
     7
370
    25
100
AcDbLine
 10
564.8523826471
 20
418.3051640312
 30
0.0
 11
565.5413740193
 21
418.4217062878
 31
0.0
  0
ARC
  5
EB
330
1F
100
AcDbEntity
  8
0
  6
Continuous
 62
     7
370
    25
100
AcDbCircle
 10
571.3726293462
 20
426.9864621538
 30
0.0
 40
10.85718905202547
100
AcDbArc
 50
231.4433227808
 51
233.0909533667
  0
LINE
  5
EC
330
1F
100
AcDbEntity
  8
0
  6
Continuous
 62
     7
370
    25
100
AcDbLine
 10
564.5551481873
 20
419.1848521747
 30
0.0
 11
564.6054683642
 21
418.4962273894
 31
0.0
  0
LINE
  5
ED
330
1F
100
AcDbEntity
  8
0
  6
Continuous
 62
     7
370
    25
100
AcDbLine
 10
563.856957616
 20
419.1511859074
 30
0.0
 11
564.5551481873
 21
419.1848521747
 31
0.0
  0
ARC
  5
EE
330
1F
100
AcDbEntity
  8
0
  6
Continuous
 62
     7
370
    25
100
AcDbCircle
 10
571.3409643203
 20
426.9502954991
 30
0.0
 40
10.80909185704251
100
AcDbArc
 50
224.528625777
 51
226.1811405254
  0
LINE
  5
EF
330
1F
100
AcDbEntity
  8
0
  6
Continuous
 62
     7
370
    25
100
AcDbLine
 10
563.6692467543
 20
420.059846691
 30
0.0
 11
563.6351608327
 21
419.3702520042
 31
0.0
  0
LINE
  5
F0
330
1F
100
AcDbEntity
  8
0
  6
Continuous
 62
     7
370
    25
100
AcDbLine
 10
562.9720381745
 20
420.1095473429
 30
0.0
 11
563.6692467543
 21
420.059846691
 31
0.0
  0
ARC
  5
F1
330
1F
100
AcDbEntity
  8
0
  6
Continuous
 62
     7
370
    25
100
AcDbCircle
 10
571.3052429353
 20
426.9182357629
 30
0.0
 40
10.76106591306183
100
AcDbArc
 50
217.5932917526
 51
219.2507197047
  0
LINE
  5
F2
330
1F
100
AcDbEntity
  8
0
  6
Continuous
 62
     7
370
    25
100
AcDbLine
 10
562.8965881579
 20
421.0339304464
 30
0.0
 11
562.7785931874
 21
420.3534217013
 31
0.0
  0
LINE
  5
F3
330
1F
100
AcDbEntity
  8
0
  6
Continuous
 62
     7
370
    25
100
AcDbLine
 10
562.2105284407
 20
421.1662732702
 30
0.0
 11
562.8965881579
 21
421.0339304464
 31
0.0
  0
ARC
  5
F4
330
1F
100
AcDbEntity
  8
0
  6
Continuous
 62
     7
370
    25
100
AcDbCircle
 10
571.268263735
 20
426.8923421914
 30
0.0
 40
10.7158963205815
100
AcDbArc
 50
210.6379463504
 51
212.3000287598
  0
LINE
  5
F5
330
1F
100
AcDbEntity
  8
0
  6
Continuous
 62
     7
370
    25
100
AcDbLine
 10
562.2484395004
 20
422.0928991062
 30
0.0
 11
562.0482561134
 21
421.4313996528
 31
0.0
  0
LINE
  5
F6
330
1F
100
AcDbEntity
  8
0
  6
Continuous
 62
     7
370
    25
100
AcDbLine
 10
561.5835329413
 20
422.3059542455
 30
0.0
 11
562.2484395004
 21
422.0928991062
 31
0.0
  0
ARC
  5
F7
330
1F
100
AcDbEntity
  8
0
  6
Continuous
 62
     7
370
    25
100
AcDbCircle
 10
571.2332530818
 20
426.8736629428
 30
0.0
 40
10.6761913401789
100
AcDbArc
 50
203.6643996906
 51
205.3306005496
  0
LINE
  5
F8
330
1F
100
AcDbEntity
  8
0
  6
Continuous
 62
     7
370
    25
100
AcDbLine
 10
561.7342522487
 20
423.2213105229
 30
0.0
 11
561.4547995697
 21
422.5884665127
 31
0.0
  0
LINE
  5
F9
330
1F
100
AcDbEntity
  8
0
  6
Continuous
 62
     7
370
    25
100
AcDbLine
 10
561.1001946827
 20
423.5119711539
 30
0.0
 11
561.7342522487
 21
423.2213105229
 31
0.0
  0
ARC
  5
FA
330
1F
100
AcDbEntity
  8
0
  6
Continuous
 62
     7
370
    25
100
AcDbCircle
 10
571.2034688757
 20
426.8621326543
 30
0.0
 40
10.64423466008626
100
AcDbArc
 50
196.6755564744
 51
198.345090668
  0
LINE
  5
FB
330
1F
100
AcDbEntity
  8
0
  6
Continuous
 62
     7
370
    25
100
AcDbLine
 10
561.3615244108
 20
424.4027099169
 30
0.0
 11
561.0068774891
 21
423.8077496407
 31
0.0
  0
LINE
  5
FC
330
1F
100
AcDbEntity
  8
0
  6
Continuous
 62
     7
370
    25
100
AcDbLine
 10
560.7675618248
 20
424.7667375532
 30
0.0
 11
561.3615244108
 21
424.4027099169
 31
0.0
  0
LINE
  5
FD
330
1F
100
AcDbEntity
  8
0
  6
Continuous
 62
     7
370
    25
100
AcDbLine
 10
571.4350457666
 20
415.9212347339
 30
0.0
 11
570.9350457666
 21
415.4839080494
 31
0.0
  0
LINE
  5
FE
330
1F
100
AcDbEntity
  8
0
  6
Continuous
 62
     7
370
    25
100
AcDbLine
 10
572.6856138242
 20
416.6824888913
 30
0.0
 11
572.6856138242
 21
415.9959488444
 31
0.0
  0
LINE
  5
FF
330
1F
100
AcDbEntity
  8
0
  6
Continuous
 62
     7
370
    25
100
AcDbLine
 10
572.6856138242
 20
415.9959488444
 30
0.0
 11
572.2481415153
 21
415.502613685
 31
0.0
  0
LINE
  5
100
330
1F
100
AcDbEntity
  8
0
  6
Continuous
 62
     7
370
    25
100
AcDbLine
 10
570.6219500179
 20
415.502613685
 30
0.0
 11
570.1844777089
 21
415.9959488444
 31
0.0
  0
LINE
  5
101
330
1F
100
AcDbEntity
  8
0
  6
Continuous
 62
     7
370
    25
100
AcDbLine
 10
570.1844777089
 20
416.6824888913
 30
0.0
 11
570.1844777089
 21
415.9959488444
 31
0.0
  0
LINE
  5
102
330
1F
100
AcDbEntity
  8
0
  6
Continuous
 62
     7
370
    25
100
AcDbLine
 10
570.1844777089
 20
415.9959488444
 30
0.0
 11
569.6292411438
 21
415.6216663587
 31
0.0
  0
LINE
  5
103
330
1F
100
AcDbEntity
  8
0
  6
Continuous
 62
     7
370
    25
100
AcDbLine
 10
569.6292411438
 20
416.2630476653
 30
0.0
 11
569.6292411438
 21
415.6216663587
 31
0.0
  0
LINE
  5
104
330
1F
100
AcDbEntity
  8
0
  6
Continuous
 62
     7
370
    25
100
AcDbLine
 10
573.2408503894
 20
416.2630476653
 30
0.0
 11
573.2408503894
 21
415.6216663587
 31
0.0
  0
LINE
  5
105
330
1F
100
AcDbEntity
  8
0
  6
Continuous
 62
     7
370
    25
100
AcDbLine
 10
573.2408503894
 20
415.6216663587
 30
0.0
 11
572.6856138242
 21
415.9959488444
 31
0.0
  0
ARC
  5
106
330
1F
100
AcDbEntity
  8
0
  6
Continuous
 62
     7
370
    25
100
AcDbCircle
 10
571.4334891944
 20
426.4700665911
 30
0.0
 40
10.99741326997827
100
AcDbArc
 50
258.9237073611
 51
260.5573020338
  0
LINE
  5
107
330
1F
100
AcDbEntity
  8
0
  6
Continuous
 62
     7
370
    25
100
AcDbLine
 10
569.3207110362
 20
416.3188918018
 30
0.0
 11
569.3207110362
 21
415.6775104951
 31
0.0
  0
LINE
  5
108
330
1F
100
AcDbEntity
  8
0
  6
Continuous
 62
     7
370
    25
100
AcDbLine
 10
573.549380497
 20
416.3188918018
 30
0.0
 11
573.549380497
 21
415.6775104951
 31
0.0
  0
ARC
  5
109
330
1F
100
AcDbEntity
  8
0
  6
Continuous
 62
     7
370
    25
100
AcDbCircle
 10
571.4366023389
 20
426.4700665903
 30
0.0
 40
10.99741326919469
100
AcDbArc
 50
279.4426979661
 51
281.076292639
  0
LINE
  5
10A
330
1F
100
AcDbEntity
  8
0
  6
Continuous
 62
     7
370
    25
100
AcDbLine
 10
573.9179457836
 20
416.9055417227
 30
0.0
 11
573.9179457836
 21
416.2190016758
 31
0.0
  0
LINE
  5
10B
330
1F
100
AcDbEntity
  8
0
  6
Continuous
 62
     7
370
    25
100
AcDbLine
 10
573.9179457836
 20
416.2190016758
 30
0.0
 11
573.549380497
 21
415.6775104951
 31
0.0
  0
LINE
  5
10C
330
1F
100
AcDbEntity
  8
0
  6
Continuous
 62
     7
370
    25
100
AcDbLine
 10
569.3207110362
 20
415.6775104951
 30
0.0
 11
568.9521457496
 21
416.2190016758
 31
0.0
  0
LINE
  5
10D
330
1F
100
AcDbEntity
  8
0
  6
Continuous
 62
     7
370
    25
100
AcDbLine
 10
568.9521457496
 20
416.9055417227
 30
0.0
 11
568.9521457496
 21
416.2190016758
 31
0.0
  0
LINE
  5
10E
330
1F
100
AcDbEntity
  8
0
  6
Continuous
 62
     7
370
    25
100
AcDbLine
 10
568.3497692187
 20
416.5552610931
 30
0.0
 11
568.3497692187
 21
415.9138797864
 31
0.0
  0
ARC
  5
10F
330
1F
100
AcDbEntity
  8
0
  6
Continuous
 62
     7
370
    25
100
AcDbCircle
 10
571.4280417329
 20
426.4481235335
 30
0.0
 40
10.9747917062055
100
AcDbArc
 50
252.0749642252
 51
253.7108030006
  0
LINE
  5
110
330
1F
100
AcDbEntity
  8
0
  6
Continuous
 62
     7
370
    25
100
AcDbLine
 10
568.0503038159
 20
416.6474293971
 30
0.0
 11
568.0503038159
 21
416.0060480905
 31
0.0
  0
LINE
  5
111
330
1F
100
AcDbEntity
  8
0
  6
Continuous
 62
     7
370
    25
100
AcDbLine
 10
574.5203223144
 20
416.5552610931
 30
0.0
 11
574.5203223144
 21
415.9138797864
 31
0.0
  0
LINE
  5
112
330
1F
100
AcDbEntity
  8
0
  6
Continuous
 62
     7
370
    25
100
AcDbLine
 10
574.5203223144
 20
415.9138797864
 30
0.0
 11
573.9179457836
 21
416.2190016758
 31
0.0
  0
LINE
  5
113
330
1F
100
AcDbEntity
  8
0
  6
Continuous
 62
     7
370
    25
100
AcDbLine
 10
568.9521457496
 20
416.2190016758
 30
0.0
 11
568.3497692187
 21
415.9138797864
 31
0.0
  0
LINE
  5
114
330
1F
100
AcDbEntity
  8
0
  6
Continuous
 62
     7
370
    25
100
AcDbLine
 10
574.8197877173
 20
416.6474293971
 30
0.0
 11
574.8197877173
 21
416.0060480905
 31
0.0
  0
ARC
  5
115
330
1F
100
AcDbEntity
  8
0
  6
Continuous
 62
     7
370
    25
100
AcDbCircle
 10
571.4420498005
 20
426.4481235329
 30
0.0
 40
10.97479170558497
100
AcDbArc
 50
286.2891969994
 51
287.9250357749
  0
LINE
  5
116
330
1F
100
AcDbEntity
  8
0
  6
Continuous
 62
     7
370
    25
100
AcDbLine
 10
575.1140714697
 20
417.2736806624
 30
0.0
 11
575.1140714697
 21
416.5871406155
 31
0.0
  0
LINE
  5
117
330
1F
100
AcDbEntity
  8
0
  6
Continuous
 62
     7
370
    25
100
AcDbLine
 10
575.1140714697
 20
416.5871406155
 30
0.0
 11
574.8197877173
 21
416.0060480905
 31
0.0
  0
LINE
  5
118
330
1F
100
AcDbEntity
  8
0
  6
Continuous
 62
     7
370
    25
100
AcDbLine
 10
568.0503038159
 20
416.0060480905
 30
0.0
 11
567.7560200635
 21
416.5871406155
 31
0.0
  0
LINE
  5
119
330
1F
100
AcDbEntity
  8
0
  6
Continuous
 62
     7
370
    25
100
AcDbLine
 10
567.7560200635
 20
417.2736806624
 30
0.0
 11
567.7560200635
 21
416.5871406155
 31
0.0
  0
LINE
  5
11A
330
1F
100
AcDbEntity
  8
0
  6
Continuous
 62
     7
370
    25
100
AcDbLine
 10
567.1152875732
 20
416.9976685096
 30
0.0
 11
567.1152875732
 21
416.3562872029
 31
0.0
  0
ARC
  5
11B
330
1F
100
AcDbEntity
  8
0
  6
Continuous
 62
     7
370
    25
100
AcDbCircle
 10
571.416653401
 20
426.4179680628
 30
0.0
 40
10.9425394543746
100
AcDbArc
 50
245.2142537232
 51
246.8533053489
  0
LINE
  5
11C
330
1F
100
AcDbEntity
  8
0
  6
Continuous
 62
     7
370
    25
100
AcDbLine
 10
566.829253755
 20
417.1248169598
 30
0.0
 11
566.829253755
 21
416.4834356531
 31
0.0
  0
LINE
  5
11D
330
1F
100
AcDbEntity
  8
0
  6
Continuous
 62
     7
370
    25
100
AcDbLine
 10
567.7560200635
 20
416.5871406155
 30
0.0
 11
567.1152875732
 21
416.3562872029
 31
0.0
  0
LINE
  5
11E
330
1F
100
AcDbEntity
  8
0
  6
Continuous
 62
     7
370
    25
100
AcDbLine
 10
575.75480396
 20
416.9976685096
 30
0.0
 11
575.75480396
 21
416.3562872029
 31
0.0
  0
LINE
  5
11F
330
1F
100
AcDbEntity
  8
0
  6
Continuous
 62
     7
370
    25
100
AcDbLine
 10
575.75480396
 20
416.3562872029
 30
0.0
 11
575.1140714697
 21
416.5871406155
 31
0.0
  0
LINE
  5
120
330
1F
100
AcDbEntity
  8
0
  6
Continuous
 62
     7
370
    25
100
AcDbLine
 10
576.0408377782
 20
417.1248169598
 30
0.0
 11
576.0408377782
 21
416.4834356531
 31
0.0
  0
ARC
  5
121
330
1F
100
AcDbEntity
  8
0
  6
Continuous
 62
     7
370
    25
100
AcDbCircle
 10
571.4534381321
 20
426.417968063
 30
0.0
 40
10.94253945460101
100
AcDbArc
 50
293.1466946512
 51
294.7857462768
  0
LINE
  5
122
330
1F
100
AcDbEntity
  8
0
  6
Continuous
 62
     7
370
    25
100
AcDbLine
 10
576.2565486765
 20
417.7815374158
 30
0.0
 11
576.2565486765
 21
417.0949973689
 31
0.0
  0
LINE
  5
123
330
1F
100
AcDbEntity
  8
0
  6
Continuous
 62
     7
370
    25
100
AcDbLine
 10
576.2565486765
 20
417.0949973689
 30
0.0
 11
576.0408377782
 21
416.4834356531
 31
0.0
  0
LINE
  5
124
330
1F
100
AcDbEntity
  8
0
  6
Continuous
 62
     7
370
    25
100
AcDbLine
 10
566.829253755
 20
416.4834356531
 30
0.0
 11
566.6135428566
 21
417.0949973689
 31
0.0
  0
LINE
  5
125
330
1F
100
AcDbEntity
  8
0
  6
Continuous
 62
     7
370
    25
100
AcDbLine
 10
566.6135428566
 20
417.7815374158
 30
0.0
 11
566.6135428566
 21
417.0949973689
 31
0.0
  0
LINE
  5
126
330
1F
100
AcDbEntity
  8
0
  6
Continuous
 62
     7
370
    25
100
AcDbLine
 10
576.9262938038
 20
417.5838186184
 30
0.0
 11
576.9262938038
 21
416.9424373118
 31
0.0
  0
LINE
  5
127
330
1F
100
AcDbEntity
  8
0
  6
Continuous
 62
     7
370
    25
100
AcDbLine
 10
576.9262938038
 20
416.9424373118
 30
0.0
 11
576.2565486765
 21
417.0949973689
 31
0.0
  0
LINE
  5
128
330
1F
100
AcDbEntity
  8
0
  6
Continuous
 62
     7
370
    25
100
AcDbLine
 10
566.6135428566
 20
417.0949973689
 30
0.0
 11
565.9437977293
 21
416.9424373118
 31
0.0
  0
LINE
  5
129
330
1F
100
AcDbEntity
  8
0
  6
Continuous
 62
     7
370
    25
100
AcDbLine
 10
565.9437977293
 20
417.5838186184
 30
0.0
 11
565.9437977293
 21
416.9424373118
 31
0.0
  0
LINE
  5
12A
330
1F
100
AcDbEntity
  8
0
  6
Continuous
 62
     7
370
    25
100
AcDbLine
 10
577.1947250202
 20
417.7440931041
 30
0.0
 11
577.1947250202
 21
417.1027117975
 31
0.0
  0
ARC
  5
12B
330
1F
100
AcDbEntity
  8
0
  6
Continuous
 62
     7
370
    25
100
AcDbCircle
 10
571.4718874082
 20
426.3825209979
 30
0.0
 40
10.90255608237672
100
AcDbArc
 50
300.0189854626
 51
301.6620420636
  0
ARC
  5
12C
330
1F
100
AcDbEntity
  8
0
  6
Continuous
 62
     7
370
    25
100
AcDbCircle
 10
571.3982041251
 20
426.382520998
 30
0.0
 40
10.90255608249352
100
AcDbArc
 50
238.3379579364
 51
239.9810145374
  0
LINE
  5
12D
330
1F
100
AcDbEntity
  8
0
  6
Continuous
 62
     7
370
    25
100
AcDbLine
 10
565.675366513
 20
417.7440931041
 30
0.0
 11
565.675366513
 21
417.1027117975
 31
0.0
  0
LINE
  5
12E
330
1F
100
AcDbEntity
  8
0
  6
Continuous
 62
     7
370
    25
100
AcDbLine
 10
565.675366513
 20
417.1027117975
 30
0.0
 11
565.5413740193
 21
417.7351662409
 31
0.0
  0
LINE
  5
12F
330
1F
100
AcDbEntity
  8
0
  6
Continuous
 62
     7
370
    25
100
AcDbLine
 10
565.5413740193
 20
418.4217062878
 30
0.0
 11
565.5413740193
 21
417.7351662409
 31
0.0
  0
LINE
  5
130
330
1F
100
AcDbEntity
  8
0
  6
Continuous
 62
     7
370
    25
100
AcDbLine
 10
577.3287175139
 20
418.4217062878
 30
0.0
 11
577.3287175139
 21
417.7351662409
 31
0.0
  0
LINE
  5
131
330
1F
100
AcDbEntity
  8
0
  6
Continuous
 62
     7
370
    25
100
AcDbLine
 10
577.3287175139
 20
417.7351662409
 30
0.0
 11
577.1947250202
 21
417.1027117975
 31
0.0
  0
LINE
  5
132
330
1F
100
AcDbEntity
  8
0
  6
Continuous
 62
     7
370
    25
100
AcDbLine
 10
578.0177088861
 20
418.3051640312
 30
0.0
 11
578.0177088861
 21
417.6637827245
 31
0.0
  0
LINE
  5
133
330
1F
100
AcDbEntity
  8
0
  6
Continuous
 62
     7
370
    25
100
AcDbLine
 10
578.0177088861
 20
417.6637827245
 30
0.0
 11
577.3287175139
 21
417.7351662409
 31
0.0
  0
LINE
  5
134
330
1F
100
AcDbEntity
  8
0
  6
Continuous
 62
     7
370
    25
100
AcDbLine
 10
565.5413740193
 20
417.7351662409
 30
0.0
 11
564.8523826471
 21
417.6637827245
 31
0.0
  0
LINE
  5
135
330
1F
100
AcDbEntity
  8
0
  6
Continuous
 62
     7
370
    25
100
AcDbLine
 10
564.8523826471
 20
418.3051640312
 30
0.0
 11
564.8523826471
 21
417.6637827245
 31
0.0
  0
LINE
  5
136
330
1F
100
AcDbEntity
  8
0
  6
Continuous
 62
     7
370
    25
100
AcDbLine
 10
578.264623169
 20
418.4962273894
 30
0.0
 11
578.264623169
 21
417.8548460828
 31
0.0
  0
ARC
  5
137
330
1F
100
AcDbEntity
  8
0
  6
Continuous
 62
     7
370
    25
100
AcDbCircle
 10
571.4974621869
 20
426.3450808471
 30
0.0
 40
10.85718905202459
100
AcDbArc
 50
306.9090466333
 51
308.5566772192
  0
ARC
  5
138
330
1F
100
AcDbEntity
  8
0
  6
Continuous
 62
     7
370
    25
100
AcDbCircle
 10
571.3726293465
 20
426.3450808475
 30
0.0
 40
10.85718905251406
100
AcDbArc
 50
231.4433227809
 51
233.0909533667
  0
LINE
  5
139
330
1F
100
AcDbEntity
  8
0
  6
Continuous
 62
     7
370
    25
100
AcDbLine
 10
564.6054683642
 20
418.4962273894
 30
0.0
 11
564.6054683642
 21
417.8548460828
 31
0.0
  0
LINE
  5
13A
330
1F
100
AcDbEntity
  8
0
  6
Continuous
 62
     7
370
    25
100
AcDbLine
 10
564.6054683642
 20
417.8548460828
 30
0.0
 11
564.5551481873
 21
418.4983121278
 31
0.0
  0
LINE
  5
13B
330
1F
100
AcDbEntity
  8
0
  6
Continuous
 62
     7
370
    25
100
AcDbLine
 10
564.5551481873
 20
419.1848521747
 30
0.0
 11
564.5551481873
 21
418.4983121278
 31
0.0
  0
LINE
  5
13C
330
1F
100
AcDbEntity
  8
0
  6
Continuous
 62
     7
370
    25
100
AcDbLine
 10
578.3149433458
 20
419.1848521747
 30
0.0
 11
578.3149433458
 21
418.4983121278
 31
0.0
  0
LINE
  5
13D
330
1F
100
AcDbEntity
  8
0
  6
Continuous
 62
     7
370
    25
100
AcDbLine
 10
578.3149433458
 20
418.4983121278
 30
0.0
 11
578.264623169
 21
417.8548460828
 31
0.0
  0
LINE
  5
13E
330
1F
100
AcDbEntity
  8
0
  6
Continuous
 62
     7
370
    25
100
AcDbLine
 10
579.2349307005
 20
419.3702520042
 30
0.0
 11
579.2349307005
 21
418.7288706975
 31
0.0
  0
ARC
  5
13F
330
1F
100
AcDbEntity
  8
0
  6
Continuous
 62
     7
370
    25
100
AcDbCircle
 10
571.5291272135
 20
426.3089141917
 30
0.0
 40
10.80909185609191
100
AcDbArc
 50
313.8188594745
 51
315.4713742231
  0
LINE
  5
140
330
1F
100
AcDbEntity
  8
0
  6
Continuous
 62
     7
370
    25
100
AcDbLine
 10
579.0131339172
 20
419.1511859074
 30
0.0
 11
579.0131339172
 21
418.5098046007
 31
0.0
  0
LINE
  5
141
330
1F
100
AcDbEntity
  8
0
  6
Continuous
 62
     7
370
    25
100
AcDbLine
 10
563.856957616
 20
419.1511859074
 30
0.0
 11
563.856957616
 21
418.5098046007
 31
0.0
  0
ARC
  5
142
330
1F
100
AcDbEntity
  8
0
  6
Continuous
 62
     7
370
    25
100
AcDbCircle
 10
571.3409643199
 20
426.308914192
 30
0.0
 40
10.80909185649811
100
AcDbArc
 50
224.528625777
 51
226.1811405255
  0
LINE
  5
143
330
1F
100
AcDbEntity
  8
0
  6
Continuous
 62
     7
370
    25
100
AcDbLine
 10
563.6351608327
 20
419.3702520042
 30
0.0
 11
563.6351608327
 21
418.7288706975
 31
0.0
  0
LINE
  5
144
330
1F
100
AcDbEntity
  8
0
  6
Continuous
 62
     7
370
    25
100
AcDbLine
 10
579.0131339172
 20
418.5098046007
 30
0.0
 11
578.3149433458
 21
418.4983121278
 31
0.0
  0
LINE
  5
145
330
1F
100
AcDbEntity
  8
0
  6
Continuous
 62
     7
370
    25
100
AcDbLine
 10
564.5551481873
 20
418.4983121278
 30
0.0
 11
563.856957616
 21
418.5098046007
 31
0.0
  0
LINE
  5
146
330
1F
100
AcDbEntity
  8
0
  6
Continuous
 62
     7
370
    25
100
AcDbLine
 10
563.639000022
 20
419.3774218927
 30
0.0
 11
562.9720381745
 21
419.4681660363
 31
0.0
  0
LINE
  5
147
330
1F
100
AcDbEntity
  8
0
  6
Continuous
 62
     7
370
    25
100
AcDbLine
 10
562.9720381745
 20
420.1095473429
 30
0.0
 11
562.9720381745
 21
419.4681660363
 31
0.0
  0
LINE
  5
148
330
1F
100
AcDbEntity
  8
0
  6
Continuous
 62
     7
370
    25
100
AcDbLine
 10
579.8980533587
 20
420.1095473429
 30
0.0
 11
579.8980533587
 21
419.4681660363
 31
0.0
  0
LINE
  5
149
330
1F
100
AcDbEntity
  8
0
  6
Continuous
 62
     7
370
    25
100
AcDbLine
 10
579.8980533587
 20
419.4681660363
 30
0.0
 11
579.2310915112
 21
419.3774218927
 31
0.0
  0
ARC
  5
14A
330
1F
100
AcDbEntity
  8
0
  6
Continuous
 62
     7
370
    25
100
AcDbCircle
 10
571.3052429355
 20
426.2768544564
 30
0.0
 40
10.76106591332689
100
AcDbArc
 50
217.5932917526
 51
219.2507197047
  0
LINE
  5
14B
330
1F
100
AcDbEntity
  8
0
  6
Continuous
 62
     7
370
    25
100
AcDbLine
 10
562.7785931874
 20
420.3534217013
 30
0.0
 11
562.7785931874
 21
419.7120403947
 31
0.0
  0
LINE
  5
14C
330
1F
100
AcDbEntity
  8
0
  6
Continuous
 62
     7
370
    25
100
AcDbLine
 10
580.0914983457
 20
420.3534217013
 30
0.0
 11
580.0914983457
 21
419.7120403947
 31
0.0
  0
ARC
  5
14D
330
1F
100
AcDbEntity
  8
0
  6
Continuous
 62
     7
370
    25
100
AcDbCircle
 10
571.5648485979
 20
426.2768544562
 30
0.0
 40
10.76106591306082
100
AcDbArc
 50
320.7492802953
 51
322.4067082474
  0
LINE
  5
14E
330
1F
100
AcDbEntity
  8
0
  6
Continuous
 62
     7
370
    25
100
AcDbLine
 10
580.6595630925
 20
421.1662732702
 30
0.0
 11
580.6595630925
 21
420.5248919635
 31
0.0
  0
LINE
  5
14F
330
1F
100
AcDbEntity
  8
0
  6
Continuous
 62
     7
370
    25
100
AcDbLine
 10
580.6595630925
 20
420.5248919635
 30
0.0
 11
580.0874331121
 21
420.3768669975
 31
0.0
  0
LINE
  5
150
330
1F
100
AcDbEntity
  8
0
  6
Continuous
 62
     7
370
    25
100
AcDbLine
 10
562.7826584211
 20
420.3768669975
 30
0.0
 11
562.2105284407
 21
420.5248919635
 31
0.0
  0
LINE
  5
151
330
1F
100
AcDbEntity
  8
0
  6
Continuous
 62
     7
370
    25
100
AcDbLine
 10
562.2105284407
 20
421.1662732702
 30
0.0
 11
562.2105284407
 21
420.5248919635
 31
0.0
  0
ARC
  5
152
330
1F
100
AcDbEntity
  8
0
  6
Continuous
 62
     7
370
    25
100
AcDbCircle
 10
571.2682637349
 20
426.2509608847
 30
0.0
 40
10.71589632036987
100
AcDbArc
 50
210.6379463504
 51
212.3000287598
  0
LINE
  5
153
330
1F
100
AcDbEntity
  8
0
  6
Continuous
 62
     7
370
    25
100
AcDbLine
 10
562.0482561134
 20
421.4313996528
 30
0.0
 11
562.0482561134
 21
420.7900183462
 31
0.0
  0
LINE
  5
154
330
1F
100
AcDbEntity
  8
0
  6
Continuous
 62
     7
370
    25
100
AcDbLine
 10
580.8218354198
 20
421.4313996528
 30
0.0
 11
580.8218354198
 21
420.7900183462
 31
0.0
  0
ARC
  5
155
330
1F
100
AcDbEntity
  8
0
  6
Continuous
 62
     7
370
    25
100
AcDbCircle
 10
571.6018277975
 20
426.2509608852
 30
0.0
 40
10.71589632129365
100
AcDbArc
 50
327.6999712403
 51
329.3620536495
  0
LINE
  5
156
330
1F
100
AcDbEntity
  8
0
  6
Continuous
 62
     7
370
    25
100
AcDbLine
 10
581.2865585918
 20
422.3059542455
 30
0.0
 11
581.2865585918
 21
421.6645729388
 31
0.0
  0
LINE
  5
157
330
1F
100
AcDbEntity
  8
0
  6
Continuous
 62
     7
370
    25
100
AcDbLine
 10
581.2865585918
 20
421.6645729388
 30
0.0
 11
580.8075644991
 21
421.4785574435
 31
0.0
  0
LINE
  5
158
330
1F
100
AcDbEntity
  8
0
  6
Continuous
 62
     7
370
    25
100
AcDbLine
 10
562.0625270341
 20
421.4785574435
 30
0.0
 11
561.5835329413
 21
421.6645729388
 31
0.0
  0
LINE
  5
159
330
1F
100
AcDbEntity
  8
0
  6
Continuous
 62
     7
370
    25
100
AcDbLine
 10
561.5835329413
 20
422.3059542455
 30
0.0
 11
561.5835329413
 21
421.6645729388
 31
0.0
  0
LINE
  5
15A
330
1F
100
AcDbEntity
  8
0
  6
Continuous
 62
     7
370
    25
100
AcDbLine
 10
581.4152919635
 20
422.5884665127
 30
0.0
 11
581.4152919635
 21
421.947085206
 31
0.0
  0
ARC
  5
15B
330
1F
100
AcDbEntity
  8
0
  6
Continuous
 62
     7
370
    25
100
AcDbCircle
 10
571.6368384504
 20
426.2322816366
 30
0.0
 40
10.67619134127399
100
AcDbArc
 50
334.6693994505
 51
336.3356003093
  0
ARC
  5
15C
330
1F
100
AcDbEntity
  8
0
  6
Continuous
 62
     7
370
    25
100
AcDbCircle
 10
571.2332530816
 20
426.232281636
 30
0.0
 40
10.67619133999181
100
AcDbArc
 50
203.6643996906
 51
205.3306005496
  0
LINE
  5
15D
330
1F
100
AcDbEntity
  8
0
  6
Continuous
 62
     7
370
    25
100
AcDbLine
 10
561.4547995697
 20
422.5884665127
 30
0.0
 11
561.4547995697
 21
421.947085206
 31
0.0
  0
LINE
  5
15E
330
1F
100
AcDbEntity
  8
0
  6
Continuous
 62
     7
370
    25
100
AcDbLine
 10
581.7698968505
 20
423.5119711539
 30
0.0
 11
581.7698968505
 21
422.8705898472
 31
0.0
  0
LINE
  5
15F
330
1F
100
AcDbEntity
  8
0
  6
Continuous
 62
     7
370
    25
100
AcDbLine
 10
581.7698968505
 20
422.8705898472
 30
0.0
 11
581.3815394184
 21
422.6649019796
 31
0.0
  0
LINE
  5
160
330
1F
100
AcDbEntity
  8
0
  6
Continuous
 62
     7
370
    25
100
AcDbLine
 10
561.4885521148
 20
422.6649019796
 30
0.0
 11
561.1001946827
 21
422.8705898472
 31
0.0
  0
LINE
  5
161
330
1F
100
AcDbEntity
  8
0
  6
Continuous
 62
     7
370
    25
100
AcDbLine
 10
561.1001946827
 20
423.5119711539
 30
0.0
 11
561.1001946827
 21
422.8705898472
 31
0.0
  0
LINE
  5
162
330
1F
100
AcDbEntity
  8
0
  6
Continuous
 62
     7
370
    25
100
AcDbLine
 10
581.8632140441
 20
423.8077496407
 30
0.0
 11
581.8632140441
 21
423.166368334
 31
0.0
  0
ARC
  5
163
330
1F
100
AcDbEntity
  8
0
  6
Continuous
 62
     7
370
    25
100
AcDbCircle
 10
571.6666226574
 20
426.2207513476
 30
0.0
 40
10.64423466016083
100
AcDbArc
 50
341.654909332
 51
343.3244435255
  0
ARC
  5
164
330
1F
100
AcDbEntity
  8
0
  6
Continuous
 62
     7
370
    25
100
AcDbCircle
 10
571.2034688758
 20
426.2207513476
 30
0.0
 40
10.64423466014003
100
AcDbArc
 50
196.6755564745
 51
198.345090668
  0
LINE
  5
165
330
1F
100
AcDbEntity
  8
0
  6
Continuous
 62
     7
370
    25
100
AcDbLine
 10
561.0068774891
 20
423.8077496407
 30
0.0
 11
561.0068774891
 21
423.166368334
 31
0.0
  0
LINE
  5
166
330
1F
100
AcDbEntity
  8
0
  6
Continuous
 62
     7
370
    25
100
AcDbLine
 10
561.0714193728
 20
423.9160259419
 30
0.0
 11
560.7675618248
 21
424.1253562465
 31
0.0
  0
LINE
  5
167
330
1F
100
AcDbEntity
  8
0
  6
Continuous
 62
     7
370
    25
100
AcDbLine
 10
560.7675618248
 20
424.7667375532
 30
0.0
 11
560.7675618248
 21
424.1253562465
 31
0.0
  0
LINE
  5
168
330
1F
100
AcDbEntity
  8
0
  6
Continuous
 62
     7
370
    25
100
AcDbLine
 10
582.1025297084
 20
424.7667375532
 30
0.0
 11
582.1025297084
 21
424.1253562465
 31
0.0
  0
LINE
  5
169
330
1F
100
AcDbEntity
  8
0
  6
Continuous
 62
     7
370
    25
100
AcDbLine
 10
582.1025297084
 20
424.1253562465
 30
0.0
 11
581.7986721604
 21
423.9160259419
 31
0.0
  0
LINE
  5
16A
330
1F
100
AcDbEntity
  8
0
  6
Continuous
 62
     7
370
    25
100
AcDbLine
 10
582.159069949
 20
425.0714691432
 30
0.0
 11
582.159069949
 21
424.4300878365
 31
0.0
  0
ARC
  5
16B
330
1F
100
AcDbEntity
  8
0
  6
Continuous
 62
     7
370
    25
100
AcDbCircle
 10
571.6882955591
 20
426.215235983
 30
0.0
 40
10.62185813444957
100
AcDbArc
 50
348.6528677481
 51
350.3247459358
  0
LINE
  5
16C
330
1F
100
AcDbEntity
  8
0
  6
Continuous
 62
     7
370
    25
100
AcDbLine
 10
560.7110215842
 20
425.0714691432
 30
0.0
 11
560.7110215842
 21
424.4300878365
 31
0.0
  0
ARC
  5
16D
330
1F
100
AcDbEntity
  8
0
  6
Continuous
 62
     7
370
    25
100
AcDbCircle
 10
571.1817959741
 20
426.215235983
 30
0.0
 40
10.62185813446432
100
AcDbArc
 50
189.6752540642
 51
191.3471322519
  0
LINE
  5
16E
330
1F
100
AcDbEntity
  8
0
  6
Continuous
 62
     7
370
    25
100
AcDbLine
 10
560.818832321
 20
425.210691446
 30
0.0
 11
560.590484904
 21
425.4105748171
 31
0.0
  0
LINE
  5
16F
330
1F
100
AcDbEntity
  8
0
  6
Continuous
 62
     7
370
    25
100
AcDbLine
 10
560.590484904
 20
426.0519561238
 30
0.0
 11
560.590484904
 21
425.4105748171
 31
0.0
  0
LINE
  5
170
330
1F
100
AcDbEntity
  8
0
  6
Continuous
 62
     7
370
    25
100
AcDbLine
 10
582.2796066292
 20
426.0519561238
 30
0.0
 11
582.2796066292
 21
425.4105748171
 31
0.0
  0
LINE
  5
171
330
1F
100
AcDbEntity
  8
0
  6
Continuous
 62
     7
370
    25
100
AcDbLine
 10
582.2796066292
 20
425.4105748171
 30
0.0
 11
582.0512592122
 21
425.210691446
 31
0.0
  0
LINE
  5
172
330
1F
100
AcDbEntity
  8
0
  6
Continuous
 62
     7
370
    25
100
AcDbLine
 10
560.5715461003
 20
426.3611971442
 30
0.0
 11
560.5715461003
 21
425.7198158376
 31
0.0
  0
ARC
  5
173
330
1F
100
AcDbEntity
  8
0
  6
Continuous
 62
     7
370
    25
100
AcDbCircle
 10
571.1703856369
 20
426.213718611
 30
0.0
 40
10.61034115718112
100
AcDbArc
 50
182.6680361771
 51
184.3411240064
  0
LINE
  5
174
330
1F
100
AcDbEntity
  8
0
  6
Continuous
 62
     7
370
    25
100
AcDbLine
 10
582.2985454329
 20
426.3611971442
 30
0.0
 11
582.2985454329
 21
425.7198158376
 31
0.0
  0
ARC
  5
175
330
1F
100
AcDbEntity
  8
0
  6
Continuous
 62
     7
370
    25
100
AcDbCircle
 10
571.6997058965
 20
426.213718611
 30
0.0
 40
10.61034115699829
100
AcDbArc
 50
355.6588759936
 51
357.3319638229
  0
LINE
  5
176
330
1F
100
AcDbEntity
  8
0
  6
Continuous
 62
     7
370
    25
100
AcDbLine
 10
582.2985454329
 20
427.3488854848
 30
0.0
 11
582.2985454329
 21
426.7075041782
 31
0.0
  0
LINE
  5
177
330
1F
100
AcDbEntity
  8
0
  6
Continuous
 62
     7
370
    25
100
AcDbLine
 10
582.2985454329
 20
426.7075041782
 30
0.0
 11
582.1347546127
 21
426.5267799425
 31
0.0
  0
LINE
  5
178
330
1F
100
AcDbEntity
  8
0
  6
Continuous
 62
     7
370
    25
100
AcDbLine
 10
560.7353369205
 20
426.5267799425
 30
0.0
 11
560.5715461003
 21
426.7075041782
 31
0.0
  0
LINE
  5
179
330
1F
100
AcDbEntity
  8
0
  6
Continuous
 62
     7
370
    25
100
AcDbLine
 10
560.5715461003
 20
427.3488854848
 30
0.0
 11
560.5715461003
 21
426.7075041782
 31
0.0
  0
LINE
  5
17A
330
1F
100
AcDbEntity
  8
0
  6
Continuous
 62
     7
370
    25
100
AcDbLine
 10
560.822233488
 20
427.841791641
 30
0.0
 11
560.7110215842
 21
427.9972321792
 31
0.0
  0
LINE
  5
17B
330
1F
100
AcDbEntity
  8
0
  6
Continuous
 62
     7
370
    25
100
AcDbLine
 10
560.7110215842
 20
428.6386134858
 30
0.0
 11
560.7110215842
 21
427.9972321792
 31
0.0
  0
LINE
  5
17C
330
1F
100
AcDbEntity
  8
0
  6
Continuous
 62
     7
370
    25
100
AcDbLine
 10
582.159069949
 20
428.6386134858
 30
0.0
 11
582.159069949
 21
427.9972321792
 31
0.0
  0
LINE
  5
17D
330
1F
100
AcDbEntity
  8
0
  6
Continuous
 62
     7
370
    25
100
AcDbLine
 10
582.159069949
 20
427.9972321792
 30
0.0
 11
582.0478580452
 21
427.841791641
 31
0.0
  0
LINE
  5
17E
330
1F
100
AcDbEntity
  8
0
  6
Continuous
 62
     7
370
    25
100
AcDbLine
 10
561.077575218
 20
429.1333460042
 30
0.0
 11
561.0068774891
 21
429.2609516817
 31
0.0
  0
LINE
  5
17F
330
1F
100
AcDbEntity
  8
0
  6
Continuous
 62
     7
370
    25
100
AcDbLine
 10
561.0068774891
 20
429.9023329883
 30
0.0
 11
561.0068774891
 21
429.2609516817
 31
0.0
  0
LINE
  5
180
330
1F
100
AcDbEntity
  8
0
  6
Continuous
 62
     7
370
    25
100
AcDbLine
 10
581.8632140441
 20
429.9023329883
 30
0.0
 11
581.8632140441
 21
429.2609516817
 31
0.0
  0
LINE
  5
181
330
1F
100
AcDbEntity
  8
0
  6
Continuous
 62
     7
370
    25
100
AcDbLine
 10
581.8632140441
 20
429.2609516817
 30
0.0
 11
581.7925163152
 21
429.1333460042
 31
0.0
  0
LINE
  5
182
330
1F
100
AcDbEntity
  8
0
  6
Continuous
 62
     7
370
    25
100
AcDbLine
 10
561.496249978
 20
430.3796686211
 30
0.0
 11
561.4547995697
 21
430.4802348097
 31
0.0
  0
LINE
  5
183
330
1F
100
AcDbEntity
  8
0
  6
Continuous
 62
     7
370
    25
100
AcDbLine
 10
561.4547995697
 20
431.1216161163
 30
0.0
 11
561.4547995697
 21
430.4802348097
 31
0.0
  0
LINE
  5
184
330
1F
100
AcDbEntity
  8
0
  6
Continuous
 62
     7
370
    25
100
AcDbLine
 10
581.4152919635
 20
431.1216161163
 30
0.0
 11
581.4152919635
 21
430.4802348097
 31
0.0
  0
LINE
  5
185
330
1F
100
AcDbEntity
  8
0
  6
Continuous
 62
     7
370
    25
100
AcDbLine
 10
581.4152919635
 20
430.4802348097
 30
0.0
 11
581.3738415552
 21
430.3796686211
 31
0.0
  0
ARC
  5
186
330
1F
100
AcDbEntity
  8
0
  6
Continuous
 62
     7
370
    25
100
AcDbCircle
 10
571.4350457666
 20
567.0863660397
 30
0.0
 40
8.600000000000136
100
AcDbArc
 50
0.0
 51
180.0
  0
SPLINE
  5
187
330
1F
100
AcDbEntity
  8
0
  6
Continuous
 62
     7
370
    25
100
AcDbSpline
210
0.0
220
0.0
230
1.0
 70
     8
 71
     3
 72
    18
 73
    14
 74
     0
 42
0.00000001
 43
0.00000001
 40
0.0
 40
0.0
 40
0.0
 40
0.0
 40
0.0705093946359295
 40
0.1778721506410481
 40
0.2852333544672588
 40
0.392593500235984
 40
0.4999535169517791
 40
0.5671492071779102
 40
0.6745109183226167
 40
0.7818743002180325
 40
0.8892391987388709
 40
0.9966047458765736
 40
1.0
 40
1.0
 40
1.0
 40
1.0
 10
562.9450418096526
 20
431.0668492042602
 30
0.0
 10
562.9422815903481
 20
430.4386562032882
 30
0.0
 10
562.9353184594567
 20
428.8539306404397
 30
0.0
 10
564.0271140066174
 20
426.4777047511844
 30
0.0
 10
565.9536188881794
 20
424.3083232709963
 30
0.0
 10
568.5348492410301
 20
422.9005825385128
 30
0.0
 10
571.0755814545488
 20
422.4749959873272
 30
0.0
 10
573.6056038917454
 20
422.7387438293435
 30
0.0
 10
575.9964035388406
 20
423.678694126752
 30
0.0
 10
578.2385327137871
 20
425.5886150176693
 30
0.0
 10
579.6031323170271
 20
428.1038362717356
 30
0.0
 10
580.1859515480448
 20
430.0619607480751
 30
0.0
 10
580.0251165508278
 20
431.029160326256
 30
0.0
 10
580.0201863256825
 20
431.0588087968214
 30
0.0
  0
ARC
  5
188
330
1F
100
AcDbEntity
  8
0
  6
Continuous
 62
     7
370
    25
100
AcDbCircle
 10
571.4350457666
 20
430.7070857058
 30
0.0
 40
9.568254915365857
100
AcDbArc
 50
154.0014950983
 51
25.9985049017
  0
ARC
  5
189
330
1F
100
AcDbEntity
  8
0
  6
Continuous
 62
     7
370
    25
100
AcDbCircle
 10
571.4350457666
 20
427.1810774624
 30
0.0
 40
9.600434944197303
100
AcDbArc
 50
180.5453942889
 51
359.4546057111
  0
LINE
  5
18A
330
1F
100
AcDbEntity
  8
0
  6
Continuous
 62
     7
370
    25
100
AcDbLine
 10
570.8526523694
 20
575.6017670574
 30
0.0
 11
569.3292685357
 21
575.4245734163
 31
0.0
  0
SPLINE
  5
18B
330
1F
100
AcDbEntity
  8
0
  6
Continuous
 62
     7
370
    25
100
AcDbSpline
210
0.0
220
0.0
230
1.0
 70
     8
 71
     3
 72
    10
 73
     6
 74
     0
 42
0.00000001
 43
0.00000001
 40
0.0
 40
0.0
 40
0.0
 40
0.0
 40
0.5
 40
0.5
 40
1.0
 40
1.0
 40
1.0
 40
1.0
 10
571.4350457665906
 20
575.9089413723347
 30
0.0
 10
571.6637234634843
 20
575.9089413723347
 30
0.0
 10
571.8923726433974
 20
575.8985783063079
 30
0.0
 10
572.3475187757293
 20
575.8558630242228
 30
0.0
 10
572.5744276426276
 20
575.8254811732492
 30
0.0
 10
572.7977674482738
 20
575.7758236213848
 30
0.0
  0
SPLINE
  5
18C
330
1F
100
AcDbEntity
  8
0
  6
Continuous
 62
     7
370
    25
100
AcDbSpline
210
0.0
220
0.0
230
1.0
 70
     8
 71
     3
 72
    11
 73
     7
 74
     0
 42
0.00000001
 43
0.00000001
 40
0.0
 40
0.0
 40
0.0
 40
0.0
 40
0.28391405986545
 40
0.5710677472020885
 40
0.8555463529557892
 40
1.0
 40
1.0
 40
1.0
 40
1.0
 10
571.4350457665906
 20
575.8820288029963
 30
0.0
 10
572.0282260692517
 20
575.848043412083
 30
0.0
 10
573.2213552129292
 20
575.7796848368301
 30
0.0
 10
574.9244520738235
 20
575.2100858934461
 30
0.0
 10
576.2669785950634
 20
574.5191966527328
 30
0.0
 10
576.9288158385395
 20
573.9153770185899
 30
0.0
 10
577.1517060570909
 20
573.7120256787457
 30
0.0
  0
SPLINE
  5
18D
330
1F
100
AcDbEntity
  8
0
  6
Continuous
 62
     7
370
    25
100
AcDbSpline
210
0.0
220
0.0
230
1.0
 70
     8
 71
     3
 72
    10
 73
     6
 74
     0
 42
0.00000001
 43
0.00000001
 40
0.0
 40
0.0
 40
0.0
 40
0.0
 40
0.3597479548178879
 40
0.7167084101993856
 40
1.0
 40
1.0
 40
1.0
 40
1.0
 10
572.7977674482734
 20
575.7758236213849
 30
0.0
 10
573.4470873258805
 20
575.6256037426523
 30
0.0
 10
574.7406958397252
 20
575.3263279607474
 30
0.0
 10
576.4226925959596
 20
574.4601525154116
 30
0.0
 10
577.2431590364889
 20
573.597354410006
 30
0.0
 10
577.6061898835821
 20
573.2155931195946
 30
0.0
  0
LINE
  5
18E
330
1F
100
AcDbEntity
  8
0
  6
Continuous
 62
     7
370
    25
100
AcDbLine
 10
572.5426386755
 20
575.7708134452
 30
0.0
 11
572.7977674483
 21
575.7758236214
 31
0.0
  0
ARC
  5
18F
330
1F
100
AcDbEntity
  8
0
  6
Continuous
 62
     7
370
    25
100
AcDbCircle
 10
571.4350457666
 20
567.0863660397
 30
0.0
 40
12.74977327051852
100
AcDbArc
 50
90.0
 51
227.5829738662
  0
ARC
  5
190
330
1F
100
AcDbEntity
  8
0
  6
Continuous
 62
     7
370
    25
100
AcDbCircle
 10
571.4350457666
 20
567.0863660397
 30
0.0
 40
12.74977327051852
100
AcDbArc
 50
312.4170261338
 51
90.0
  0
LINE
  5
191
330
1F
100
AcDbEntity
  8
0
  6
Continuous
 62
     7
370
    25
100
AcDbLine
 10
571.4350457666
 20
575.6863660397
 30
0.0
 11
571.4350457666
 21
575.9089413723
 31
0.0
  0
LINE
  5
192
330
1F
100
AcDbEntity
  8
0
  6
Continuous
 62
     7
370
    25
100
AcDbLine
 10
572.7977674483
 20
575.7758236214
 30
0.0
 11
574.3875127512
 21
575.1270568925
 31
0.0
  0
SPLINE
  5
193
330
1F
100
AcDbEntity
  8
0
  6
Continuous
 62
     7
370
    25
100
AcDbSpline
210
0.0
220
0.0
230
1.0
 70
     8
 71
     3
 72
     9
 73
     5
 74
     0
 42
0.00000001
 43
0.00000001
 40
0.0
 40
0.0
 40
0.0
 40
0.0
 40
0.4820646589301315
 40
1.0
 40
1.0
 40
1.0
 40
1.0
 10
574.7452234505582
 20
574.9810770302843
 30
0.0
 10
575.0051323834788
 20
574.8935739896356
 30
0.0
 10
575.5442902082765
 20
574.7120567615467
 30
0.0
 10
575.9721352382822
 20
574.3363074651757
 30
0.0
 10
576.1937312998233
 20
574.141693625203
 30
0.0
  0
ARC
  5
194
330
1F
100
AcDbEntity
  8
0
  6
Continuous
 62
     7
370
    25
100
AcDbCircle
 10
571.4350457666
 20
567.0863660397
 30
0.0
 40
13.74977327051855
100
AcDbArc
 50
308.7163150072
 51
90.0
  0
ARC
  5
195
330
1F
100
AcDbEntity
  8
0
  6
Continuous
 62
     7
370
    25
100
AcDbCircle
 10
571.4350457666
 20
567.0863660397
 30
0.0
 40
13.74977327051852
100
AcDbArc
 50
90.0
 51
231.2836849928
  0
SPLINE
  5
196
330
1F
100
AcDbEntity
  8
0
  6
Continuous
 62
     7
370
    25
100
AcDbSpline
210
0.0
220
0.0
230
1.0
 70
     8
 71
     3
 72
    14
 73
    10
 74
     0
 42
0.00000001
 43
0.00000001
 40
0.0
 40
0.0
 40
0.0
 40
0.0
 40
0.25
 40
0.25
 40
0.5
 40
0.5
 40
0.75
 40
0.75
 40
1.0
 40
1.0
 40
1.0
 40
1.0
 10
584.7794683583057
 20
563.7723577892441
 30
0.0
 10
584.9145965455275
 20
564.3164746103372
 30
0.0
 10
585.0245111022216
 20
564.8639079162423
 30
0.0
 10
585.1750211792574
 20
565.967892434773
 30
0.0
 10
585.2153777374559
 20
566.5244750793784
 30
0.0
 10
585.2153777374559
 20
567.6482570001114
 30
0.0
 10
585.175021179257
 20
568.2048396447166
 30
0.0
 10
585.0245111022214
 20
569.3088241632474
 30
0.0
 10
584.9145965455275
 20
569.8562574691525
 30
0.0
 10
584.7794683583057
 20
570.4003742902456
 30
0.0
  0
SPLINE
  5
197
330
1F
100
AcDbEntity
  8
0
  6
Continuous
 62
     7
370
    25
100
AcDbSpline
210
0.0
220
0.0
230
1.0
 70
     8
 71
     3
 72
     9
 73
     5
 74
     0
 42
0.00000001
 43
0.00000001
 40
0.0
 40
0.0
 40
0.0
 40
0.0
 40
0.9975880820317635
 40
0.9999999999999999
 40
0.9999999999999999
 40
0.9999999999999999
 40
0.9999999999999999
 10
558.0906231748755
 20
563.7723577892441
 30
0.0
 10
557.8003673813304
 20
564.8770272060777
 30
0.0
 10
557.5094098220201
 20
565.9843674367104
 30
0.0
 10
557.6554155614907
 20
567.0917076673433
 30
0.0
 10
557.6557677153572
 20
567.0943784811425
 30
0.0
  0
ARC
  5
198
330
1F
100
AcDbEntity
  8
0
  6
Continuous
 62
     7
370
    25
100
AcDbCircle
 10
673.0350457666
 20
567.0863660397
 30
0.0
 40
17.60000000000011
100
AcDbArc
 50
152.0468131166
 51
172.4536811623
  0
ARC
  5
199
330
1F
100
AcDbEntity
  8
0
  6
Continuous
 62
     7
370
    25
100
AcDbCircle
 10
673.0350457666
 20
567.0863660397
 30
0.0
 40
17.6000000000001
100
AcDbArc
 50
187.8102228181
 51
207.9531868834
  0
ARC
  5
19A
330
1F
100
AcDbEntity
  8
0
  6
Continuous
 62
     7
370
    25
100
AcDbCircle
 10
673.0350457666
 20
567.0863660397
 30
0.0
 40
17.60000000000004
100
AcDbArc
 50
207.9531868834
 51
231.9924929284
  0
ARC
  5
19B
330
1F
100
AcDbEntity
  8
0
  6
Continuous
 62
     7
370
    25
100
AcDbCircle
 10
673.0350457666
 20
567.0863660397
 30
0.0
 40
17.60000000000007
100
AcDbArc
 50
248.3107843106
 51
292.4196525364
  0
ARC
  5
19C
330
1F
100
AcDbEntity
  8
0
  6
Continuous
 62
     7
370
    25
100
AcDbCircle
 10
673.0350457666
 20
567.0863660397
 30
0.0
 40
17.60000000000009
100
AcDbArc
 50
307.8652637525
 51
329.914091969
  0
ARC
  5
19D
330
1F
100
AcDbEntity
  8
0
  6
Continuous
 62
     7
370
    25
100
AcDbCircle
 10
673.0350457666
 20
567.0863660397
 30
0.0
 40
17.60000000000024
100
AcDbArc
 50
33.2632868335
 51
52.8954303431
  0
ARC
  5
19E
330
1F
100
AcDbEntity
  8
0
  6
Continuous
 62
     7
370
    25
100
AcDbCircle
 10
673.0350457666
 20
567.0863660397
 30
0.0
 40
17.60000000000026
100
AcDbArc
 50
67.789523653
 51
111.9953421583
  0
ARC
  5
19F
330
1F
100
AcDbEntity
  8
0
  6
Continuous
 62
     7
370
    25
100
AcDbCircle
 10
673.0350457666
 20
567.0863660397
 30
0.0
 40
17.60000000000014
100
AcDbArc
 50
128.298975068
 51
152.0468131166
  0
ARC
  5
1A0
330
1F
100
AcDbEntity
  8
0
  6
Continuous
 62
     7
370
    25
100
AcDbCircle
 10
469.8350457666
 20
567.0863660397
 30
0.0
 40
17.60000000000019
100
AcDbArc
 50
7.8478988557
 51
27.9531868834
  0
ARC
  5
1A1
330
1F
100
AcDbEntity
  8
0
  6
Continuous
 62
     7
370
    25
100
AcDbCircle
 10
469.8350457666
 20
567.0863660397
 30
0.0
 40
17.60000000000011
100
AcDbArc
 50
332.0468131166
 51
352.7457677016
  0
ARC
  5
1A2
330
1F
100
AcDbEntity
  8
0
  6
Continuous
 62
     7
370
    25
100
AcDbCircle
 10
469.8350457666
 20
567.0863660397
 30
0.0
 40
17.60000000000012
100
AcDbArc
 50
308.3152687225
 51
332.0468131166
  0
ARC
  5
1A3
330
1F
100
AcDbEntity
  8
0
  6
Continuous
 62
     7
370
    25
100
AcDbCircle
 10
469.8350457666
 20
567.0863660397
 30
0.0
 40
17.60000000000009
100
AcDbArc
 50
247.8802919913
 51
291.9938329468
  0
ARC
  5
1A4
330
1F
100
AcDbEntity
  8
0
  6
Continuous
 62
     7
370
    25
100
AcDbCircle
 10
469.8350457666
 20
567.0863660397
 30
0.0
 40
17.60000000000008
100
AcDbArc
 50
211.5427743269
 51
232.6678471898
  0
ARC
  5
1A5
330
1F
100
AcDbEntity
  8
0
  6
Continuous
 62
     7
370
    25
100
AcDbCircle
 10
469.8350457666
 20
567.0863660397
 30
0.0
 40
17.60000000000015
100
AcDbArc
 50
127.7047285123
 51
148.4572256731
  0
ARC
  5
1A6
330
1F
100
AcDbEntity
  8
0
  6
Continuous
 62
     7
370
    25
100
AcDbCircle
 10
469.8350457666
 20
567.0863660397
 30
0.0
 40
17.6000000000002
100
AcDbArc
 50
68.3188522089
 51
112.5151342592
  0
ARC
  5
1A7
330
1F
100
AcDbEntity
  8
0
  6
Continuous
 62
     7
370
    25
100
AcDbCircle
 10
469.8350457666
 20
567.0863660397
 30
0.0
 40
17.60000000000019
100
AcDbArc
 50
27.9531868834
 51
52.0010553627
  0
LWPOLYLINE
  5
1A8
330
1F
100
AcDbEntity
  8
0
  6
Continuous
 62
     7
370
    25
100
AcDbPolyline
 90
        9
 70
   128
 43
0.0
 10
492.4483162067
 20
574.2863660398
 10
491.2699344583
 20
573.9480149045
 10
490.1219230935
 20
573.7420942788
 10
489.0338697614
 20
573.6739113464
 10
488.0338168152
 20
573.7452233832
 10
487.1475385777
 20
573.9541924669
 10
486.3978770611
 20
574.2954328462
 10
485.8041532604
 20
574.7601497469
 10
485.3816691942
 20
575.3363660398
  0
SPLINE
  5
1A9
330
1F
100
AcDbEntity
  8
0
  6
Continuous
 62
     7
370
    25
100
AcDbSpline
210
0.0
220
0.0
230
1.0
 70
     8
 71
     3
 72
    26
 73
    22
 74
     0
 42
0.00000001
 43
0.00000001
 40
0.0
 40
0.0
 40
0.0
 40
0.0
 40
0.1250000000000003
 40
0.1250000000000003
 40
0.1875
 40
0.1875
 40
0.2499999999999997
 40
0.2499999999999997
 40
0.3749999999999996
 40
0.3749999999999996
 40
0.4374999999999996
 40
0.4374999999999996
 40
0.4999999999999997
 40
0.4999999999999997
 40
0.6249999999999998
 40
0.6249999999999998
 40
0.7499999999999998
 40
0.7499999999999998
 40
0.8749999999999999
 40
0.8749999999999999
 40
1.0
 40
1.0
 40
1.0
 40
1.0
 10
492.4483162067463
 20
574.2863660397546
 30
0.0
 10
492.8410913643475
 20
573.8422694967056
 30
0.0
 10
493.1650281219453
 20
573.349248810383
 30
0.0
 10
493.55590081444
 20
572.5282847136272
 30
0.0
 10
493.6705769614178
 20
572.2400544798928
 30
0.0
 10
493.8675247224344
 20
571.6452432884101
 30
0.0
 10
493.9498657046453
 20
571.3388949227227
 30
0.0
 10
494.1550678153393
 20
570.4063409695384
 30
0.0
 10
494.2382972668362
 20
569.7621640142966
 30
0.0
 10
494.3164118013489
 20
568.76575159468
 30
0.0
 10
494.334425138607
 20
568.4289701610062
 30
0.0
 10
494.3577465547526
 20
567.7591015240387
 30
0.0
 10
494.363212684658
 20
567.4243016304255
 30
0.0
 10
494.3633210923228
 20
566.4202926984989
 30
0.0
 10
494.3429807134076
 20
565.7495815827946
 30
0.0
 10
494.2390989527873
 20
564.4171474733521
 30
0.0
 10
494.1559414133067
 20
563.7718304552343
 30
0.0
 10
493.8828180107931
 20
562.5276773717238
 30
0.0
 10
493.689100413126
 20
561.9251253968367
 30
0.0
 10
493.1659071506807
 20
560.8244220336468
 30
0.0
 10
492.8410191977003
 20
560.3303809865904
 30
0.0
 10
492.4483162067548
 20
559.8863660397449
 30
0.0
  0
LWPOLYLINE
  5
1AA
330
1F
100
AcDbEntity
  8
0
  6
Continuous
 62
     7
370
    25
100
AcDbPolyline
 90
        9
 70
   128
 43
0.0
 10
485.3816691942
 20
558.8363660397
 10
485.8041532604
 20
559.4125823326
 10
486.3978770611
 20
559.8772992333
 10
487.1475385778
 20
560.2185396126
 10
488.0338168152
 20
560.4275086963
 10
489.0338697614
 20
560.4988207331
 10
490.1219230935
 20
560.4306378007
 10
491.2699344583
 20
560.224717175
 10
492.4483162068
 20
559.8863660397
  0
LWPOLYLINE
  5
1AB
330
1F
100
AcDbEntity
  8
0
  6
Continuous
 62
     7
370
    25
100
AcDbPolyline
 90
        9
 70
   128
 43
0.0
 10
657.488422339
 20
558.8363660397
 10
657.0659382728
 20
559.4125823326
 10
656.472214472
 20
559.8772992333
 10
655.7225529554
 20
560.2185396126
 10
654.836274718
 20
560.4275086963
 10
653.8362217718
 20
560.4988207331
 10
652.7481684397
 20
560.4306378007
 10
651.6001570749
 20
560.224717175
 10
650.4217753264
 20
559.8863660397
  0
LWPOLYLINE
  5
1AC
330
1F
100
AcDbEntity
  8
0
  6
Continuous
 62
     7
370
    25
100
AcDbPolyline
 90
        9
 70
   128
 43
0.0
 10
650.4217753264
 20
574.2863660397
 10
651.6001570749
 20
573.9480149045
 10
652.7481684397
 20
573.7420942788
 10
653.8362217718
 20
573.6739113464
 10
654.836274718
 20
573.7452233832
 10
655.7225529554
 20
573.9541924669
 10
656.472214472
 20
574.2954328462
 10
657.0659382728
 20
574.7601497469
 10
657.488422339
 20
575.3363660397
  0
SPLINE
  5
1AD
330
1F
100
AcDbEntity
  8
0
  6
Continuous
 62
     7
370
    25
100
AcDbSpline
210
0.0
220
0.0
230
1.0
 70
     8
 71
     3
 72
    30
 73
    26
 74
     0
 42
0.00000001
 43
0.00000001
 40
0.0
 40
0.0
 40
0.0
 40
0.0
 40
0.1250000000000007
 40
0.1250000000000007
 40
0.1875000000000002
 40
0.1875000000000002
 40
0.2499999999999997
 40
0.2499999999999997
 40
0.3749999999999995
 40
0.3749999999999995
 40
0.4999999999999993
 40
0.4999999999999993
 40
0.5624999999999992
 40
0.5624999999999992
 40
0.6249999999999991
 40
0.6249999999999991
 40
0.7499999999999992
 40
0.7499999999999992
 40
0.8124999999999994
 40
0.8124999999999994
 40
0.8749999999999997
 40
0.8749999999999997
 40
0.9374999999999999
 40
0.9374999999999999
 40
1.0
 40
1.0
 40
1.0
 40
1.0
 10
650.4217753264264
 20
559.8863660397449
 30
0.0
 10
650.0286626983453
 20
560.3308441483568
 30
0.0
 10
649.7035071392639
 20
560.8254526800022
 30
0.0
 10
649.3109004186344
 20
561.6520178866266
 30
0.0
 10
649.197219561181
 20
561.9392276912145
 30
0.0
 10
649.0028623040334
 20
562.526981475571
 30
0.0
 10
648.9215037720118
 20
562.8289197862994
 30
0.0
 10
648.7165127305738
 20
563.7578696703885
 30
0.0
 10
648.6314608577617
 20
564.4126286972897
 30
0.0
 10
648.5271769386441
 20
565.7472535630901
 30
0.0
 10
648.5068142282762
 20
566.4178410722222
 30
0.0
 10
648.5068567309322
 20
567.4225478764406
 30
0.0
 10
648.512308253756
 20
567.7575805741665
 30
0.0
 10
648.5356135003963
 20
568.4279151716682
 30
0.0
 10
648.553625260018
 20
568.7649311913535
 30
0.0
 10
648.6317661015829
 20
569.7620555652604
 30
0.0
 10
648.7150503389397
 20
570.4066797514207
 30
0.0
 10
648.9204612903551
 20
571.3398558955422
 30
0.0
 10
649.0031244204343
 20
571.6470595917232
 30
0.0
 10
649.1996419676618
 20
572.2403065323206
 30
0.0
 10
649.3127273303618
 20
572.5246421004754
 30
0.0
 10
649.5714969100585
 20
573.0692729289742
 30
0.0
 10
649.7171736531086
 20
573.3295695567539
 30
0.0
 10
650.0436685924157
 20
573.8267016427135
 30
0.0
 10
650.2251323857555
 20
574.0640290398688
 30
0.0
 10
650.4217753264259
 20
574.2863660397452
 30
0.0
  0
CIRCLE
  5
1AE
330
1F
100
AcDbEntity
  8
0
  6
Continuous
 62
     7
370
    25
100
AcDbCircle
 10
673.0350457666
 20
567.0863660397
 30
0.0
 40
5.328914336627463
  0
CIRCLE
  5
1AF
330
1F
100
AcDbEntity
  8
0
  6
Continuous
 62
     7
370
    25
100
AcDbCircle
 10
673.0350457666
 20
567.0863660397
 30
0.0
 40
5.925127771161556
  0
CIRCLE
  5
1B0
330
1F
100
AcDbEntity
  8
0
  6
Continuous
 62
     7
370
    25
100
AcDbCircle
 10
673.0350457666
 20
567.0863660397
 30
0.0
 40
5.074569253689106
  0
CIRCLE
  5
1B1
330
1F
100
AcDbEntity
  8
0
  6
Continuous
 62
     7
370
    25
100
AcDbCircle
 10
673.0350457666
 20
567.0863660397
 30
0.0
 40
7.149999999999977
  0
LINE
  5
1B2
330
1F
100
AcDbEntity
  8
0
  6
Continuous
 62
     7
370
    25
100
AcDbLine
 10
470.998403376
 20
564.6849916265
 30
0.0
 11
469.8284728074
 21
564.4180413226
 31
0.0
  0
LINE
  5
1B3
330
1F
100
AcDbEntity
  8
0
  6
Continuous
 62
     7
370
    25
100
AcDbLine
 10
470.7203301428
 20
565.9036693021
 30
0.0
 11
470.998403376
 21
564.6849916265
 31
0.0
  0
SPLINE
  5
1B4
330
1F
100
AcDbEntity
  8
0
  6
Continuous
 62
     7
370
    25
100
AcDbSpline
210
0.0
220
0.0
230
1.0
 70
     8
 71
     3
 72
    12
 73
     8
 74
     0
 42
0.00000001
 43
0.00000001
 40
0.0
 40
0.0
 40
0.0
 40
0.0
 40
0.2133534395476119
 40
0.4267919313634478
 40
0.6383539739091497
 40
0.849095035192757
 40
0.9999999999999999
 40
0.9999999999999999
 40
0.9999999999999999
 40
0.9999999999999999
 10
471.2846928081685
 20
566.8017198473508
 30
0.0
 10
471.2050934572395
 20
566.7752473848884
 30
0.0
 10
471.0458630235034
 20
566.7222919068504
 30
0.0
 10
470.8559766062365
 20
566.5482887717197
 30
0.0
 10
470.7328152195145
 20
566.3279758782645
 30
0.0
 10
470.6894089627049
 20
566.1016730950813
 30
0.0
 10
470.7112263468988
 20
565.9619654637104
 30
0.0
 10
470.7203301427555
 20
565.9036693020652
 30
0.0
  0
LINE
  5
1B5
330
1F
100
AcDbEntity
  8
0
  6
Continuous
 62
     7
370
    25
100
AcDbLine
 10
472.5033704838
 20
567.0797930806
 30
0.0
 11
471.2846928082
 21
566.8017198474
 31
0.0
  0
LINE
  5
1B6
330
1F
100
AcDbEntity
  8
0
  6
Continuous
 62
     7
370
    25
100
AcDbLine
 10
472.2364201799
 20
568.2497236491
 30
0.0
 11
472.5033704838
 21
567.0797930806
 31
0.0
  0
LINE
  5
1B7
330
1F
100
AcDbEntity
  8
0
  6
Continuous
 62
     7
370
    25
100
AcDbLine
 10
471.0177425043
 20
567.9716504159
 30
0.0
 11
472.2364201799
 21
568.2497236491
 31
0.0
  0
LINE
  5
1B8
330
1F
100
AcDbEntity
  8
0
  6
Continuous
 62
     7
370
    25
100
AcDbLine
 10
469.8416187258
 20
569.7546907569
 30
0.0
 11
470.119691959
 21
568.5360130813
 31
0.0
  0
LINE
  5
1B9
330
1F
100
AcDbEntity
  8
0
  6
Continuous
 62
     7
370
    25
100
AcDbLine
 10
468.6716881572
 20
569.487740453
 30
0.0
 11
469.8416187258
 21
569.7546907569
 31
0.0
  0
LINE
  5
1BA
330
1F
100
AcDbEntity
  8
0
  6
Continuous
 62
     7
370
    25
100
AcDbLine
 10
468.9497613904
 20
568.2690627774
 30
0.0
 11
468.6716881572
 21
569.487740453
 31
0.0
  0
LINE
  5
1BB
330
1F
100
AcDbEntity
  8
0
  6
Continuous
 62
     7
370
    25
100
AcDbLine
 10
467.1667210494
 20
567.0929389989
 30
0.0
 11
468.385398725
 21
567.3710122321
 31
0.0
  0
LINE
  5
1BC
330
1F
100
AcDbEntity
  8
0
  6
Continuous
 62
     7
370
    25
100
AcDbLine
 10
467.4336713533
 20
565.9230084304
 30
0.0
 11
467.1667210494
 21
567.0929389989
 31
0.0
  0
LINE
  5
1BD
330
1F
100
AcDbEntity
  8
0
  6
Continuous
 62
     7
370
    25
100
AcDbLine
 10
468.6523490289
 20
566.2010816636
 30
0.0
 11
467.4336713533
 21
565.9230084304
 31
0.0
  0
SPLINE
  5
1BE
330
1F
100
AcDbEntity
  8
0
  6
Continuous
 62
     7
370
    25
100
AcDbSpline
210
0.0
220
0.0
230
1.0
 70
     8
 71
     3
 72
    12
 73
     8
 74
     0
 42
0.00000001
 43
0.00000001
 40
0.0
 40
0.0
 40
0.0
 40
0.0
 40
0.2133534395476155
 40
0.4267919313634422
 40
0.6383539739091563
 40
0.8490950351927579
 40
0.9999999999999999
 40
0.9999999999999999
 40
0.9999999999999999
 40
0.9999999999999999
 10
469.5503995741966
 20
565.6367189981669
 30
0.0
 10
469.5239271117342
 20
565.716318349096
 30
0.0
 10
469.4709716336962
 20
565.8755487828321
 30
0.0
 10
469.2969684985654
 20
566.065435200099
 30
0.0
 10
469.0766556051103
 20
566.188596586821
 30
0.0
 10
468.8503528219271
 20
566.2320028436305
 30
0.0
 10
468.7106451905561
 20
566.2101854594368
 30
0.0
 10
468.6523490289109
 20
566.20108166358
 30
0.0
  0
LINE
  5
1BF
330
1F
100
AcDbEntity
  8
0
  6
Continuous
 62
     7
370
    25
100
AcDbLine
 10
469.8284728074
 20
564.4180413226
 30
0.0
 11
469.5503995742
 21
565.6367189982
 31
0.0
  0
CIRCLE
  5
1C0
330
1F
100
AcDbEntity
  8
0
  6
Continuous
 62
     7
370
    25
100
AcDbCircle
 10
469.8350457666
 20
567.0863660397
 30
0.0
 40
4.197433366238889
  0
SPLINE
  5
1C1
330
1F
100
AcDbEntity
  8
0
  6
Continuous
 62
     7
370
    25
100
AcDbSpline
210
0.0
220
0.0
230
1.0
 70
     8
 71
     3
 72
    12
 73
     8
 74
     0
 42
0.00000001
 43
0.00000001
 40
0.0
 40
0.0
 40
0.0
 40
0.0
 40
0.2133534395476159
 40
0.4267919313634425
 40
0.6383539739091564
 40
0.849095035192758
 40
1.0
 40
1.0
 40
1.0
 40
1.0
 10
470.1196919589847
 20
568.5360130813227
 30
0.0
 10
470.1461644214471
 20
568.4564137303938
 30
0.0
 10
470.199119899485
 20
568.2971832966575
 30
0.0
 10
470.3731230346158
 20
568.1072968793907
 30
0.0
 10
470.5934359280709
 20
567.9841354926687
 30
0.0
 10
470.8197387112542
 20
567.9407292358592
 30
0.0
 10
470.9594463426251
 20
567.962546620053
 30
0.0
 10
471.0177425042704
 20
567.9716504159098
 30
0.0
  0
SPLINE
  5
1C2
330
1F
100
AcDbEntity
  8
0
  6
Continuous
 62
     7
370
    25
100
AcDbSpline
210
0.0
220
0.0
230
1.0
 70
     8
 71
     3
 72
    12
 73
     8
 74
     0
 42
0.00000001
 43
0.00000001
 40
0.0
 40
0.0
 40
0.0
 40
0.0
 40
0.213353439547612
 40
0.426791931363448
 40
0.63835397390915
 40
0.8490950351927569
 40
1.0
 40
1.0
 40
1.0
 40
1.0
 10
468.3853987250127
 20
567.3710122321389
 30
0.0
 10
468.4649980759417
 20
567.3974846946013
 30
0.0
 10
468.6242285096779
 20
567.4504401726392
 30
0.0
 10
468.8141149269448
 20
567.6244433077701
 30
0.0
 10
468.9372763136668
 20
567.8447562012252
 30
0.0
 10
468.9806825704763
 20
568.0710589844083
 30
0.0
 10
468.9588651862825
 20
568.2107666157794
 30
0.0
 10
468.9497613904257
 20
568.2690627774247
 30
0.0
  0
CIRCLE
  5
1C3
330
1F
100
AcDbEntity
  8
0
  6
Continuous
 62
     7
370
    25
100
AcDbCircle
 10
469.8350457666
 20
567.0863660397
 30
0.0
 40
4.500000000000057
  0
LINE
  5
1C4
330
1F
100
AcDbEntity
  8
0
  6
Continuous
 62
     7
370
    25
100
AcDbLine
 10
673.0284728074
 20
569.7546907569
 30
0.0
 11
674.198403376
 21
569.487740453
 31
0.0
  0
LINE
  5
1C5
330
1F
100
AcDbEntity
  8
0
  6
Continuous
 62
     7
370
    25
100
AcDbLine
 10
672.7503995742
 20
568.5360130813
 30
0.0
 11
673.0284728074
 21
569.7546907569
 31
0.0
  0
SPLINE
  5
1C6
330
1F
100
AcDbEntity
  8
0
  6
Continuous
 62
     7
370
    25
100
AcDbSpline
210
0.0
220
0.0
230
1.0
 70
     8
 71
     3
 72
    12
 73
     8
 74
     0
 42
0.00000001
 43
0.00000001
 40
0.0
 40
0.0
 40
0.0
 40
0.0
 40
0.2133534395476135
 40
0.4267919313634461
 40
0.638353973909149
 40
0.8490950351927548
 40
0.9999999999999999
 40
0.9999999999999999
 40
0.9999999999999999
 40
0.9999999999999999
 10
671.852349028911
 20
567.9716504159098
 30
0.0
 10
671.935552903065
 20
567.9609750581685
 30
0.0
 10
672.1019938201761
 20
567.939620087009
 30
0.0
 10
672.348563185843
 20
568.0140344029196
 30
0.0
 10
672.5550993883895
 20
568.1591181554197
 30
0.0
 10
672.692372501977
 20
568.3441942076055
 30
0.0
 10
672.7333152773234
 20
568.4795378800223
 30
0.0
 10
672.7503995741966
 20
568.5360130813227
 30
0.0
  0
LINE
  5
1C7
330
1F
100
AcDbEntity
  8
0
  6
Continuous
 62
     7
370
    25
100
AcDbLine
 10
670.6336713533
 20
568.2497236491
 30
0.0
 11
671.8523490289
 21
567.9716504159
 31
0.0
  0
LINE
  5
1C8
330
1F
100
AcDbEntity
  8
0
  6
Continuous
 62
     7
370
    25
100
AcDbLine
 10
670.3667210494
 20
567.0797930806
 30
0.0
 11
670.6336713533
 21
568.2497236491
 31
0.0
  0
LINE
  5
1C9
330
1F
100
AcDbEntity
  8
0
  6
Continuous
 62
     7
370
    25
100
AcDbLine
 10
671.585398725
 20
566.8017198474
 30
0.0
 11
670.3667210494
 21
567.0797930806
 31
0.0
  0
LINE
  5
1CA
330
1F
100
AcDbEntity
  8
0
  6
Continuous
 62
     7
370
    25
100
AcDbLine
 10
671.8716881572
 20
564.6849916265
 30
0.0
 11
672.1497613904
 21
565.9036693021
 31
0.0
  0
LINE
  5
1CB
330
1F
100
AcDbEntity
  8
0
  6
Continuous
 62
     7
370
    25
100
AcDbLine
 10
673.0416187258
 20
564.4180413226
 30
0.0
 11
671.8716881572
 21
564.6849916265
 31
0.0
  0
LINE
  5
1CC
330
1F
100
AcDbEntity
  8
0
  6
Continuous
 62
     7
370
    25
100
AcDbLine
 10
673.319691959
 20
565.6367189982
 30
0.0
 11
673.0416187258
 21
564.4180413226
 31
0.0
  0
SPLINE
  5
1CD
330
1F
100
AcDbEntity
  8
0
  6
Continuous
 62
     7
370
    25
100
AcDbSpline
210
0.0
220
0.0
230
1.0
 70
     8
 71
     3
 72
    12
 73
     8
 74
     0
 42
0.00000001
 43
0.00000001
 40
0.0
 40
0.0
 40
0.0
 40
0.0
 40
0.2133534395476136
 40
0.4267919313634463
 40
0.6383539739091494
 40
0.8490950351927551
 40
1.0
 40
1.0
 40
1.0
 40
1.0
 10
674.2177425042704
 20
566.20108166358
 30
0.0
 10
674.1345386301164
 20
566.2117570213211
 30
0.0
 10
673.9680977130052
 20
566.2331119924809
 30
0.0
 10
673.7215283473384
 20
566.15869767657
 30
0.0
 10
673.5149921447919
 20
566.01361392407
 30
0.0
 10
673.3777190312044
 20
565.8285378718841
 30
0.0
 10
673.336776255858
 20
565.6931941994673
 30
0.0
 10
673.3196919589847
 20
565.6367189981669
 30
0.0
  0
LINE
  5
1CE
330
1F
100
AcDbEntity
  8
0
  6
Continuous
 62
     7
370
    25
100
AcDbLine
 10
675.4364201799
 20
565.9230084304
 30
0.0
 11
674.2177425043
 21
566.2010816636
 31
0.0
  0
LINE
  5
1CF
330
1F
100
AcDbEntity
  8
0
  6
Continuous
 62
     7
370
    25
100
AcDbLine
 10
675.7033704838
 20
567.0929389989
 30
0.0
 11
675.4364201799
 21
565.9230084304
 31
0.0
  0
LINE
  5
1D0
330
1F
100
AcDbEntity
  8
0
  6
Continuous
 62
     7
370
    25
100
AcDbLine
 10
674.4846928082
 20
567.3710122321
 30
0.0
 11
675.7033704838
 21
567.0929389989
 31
0.0
  0
SPLINE
  5
1D1
330
1F
100
AcDbEntity
  8
0
  6
Continuous
 62
     7
370
    25
100
AcDbSpline
210
0.0
220
0.0
230
1.0
 70
     8
 71
     3
 72
    12
 73
     8
 74
     0
 42
0.00000001
 43
0.00000001
 40
0.0
 40
0.0
 40
0.0
 40
0.0
 40
0.2133534395476131
 40
0.4267919313634476
 40
0.6383539739091537
 40
0.8490950351927532
 40
1.0
 40
1.0
 40
1.0
 40
1.0
 10
673.9203301427557
 20
568.2690627774247
 30
0.0
 10
673.9096547850144
 20
568.1858589032705
 30
0.0
 10
673.8882998138548
 20
568.0194179861594
 30
0.0
 10
673.9627141297655
 20
567.7728486204926
 30
0.0
 10
674.1077978822655
 20
567.566312417946
 30
0.0
 10
674.2928739344513
 20
567.4290393043585
 30
0.0
 10
674.4282176068682
 20
567.3880965290122
 30
0.0
 10
674.4846928081686
 20
567.3710122321389
 30
0.0
  0
LINE
  5
1D2
330
1F
100
AcDbEntity
  8
0
  6
Continuous
 62
     7
370
    25
100
AcDbLine
 10
674.198403376
 20
569.487740453
 30
0.0
 11
673.9203301428
 21
568.2690627774
 31
0.0
  0
CIRCLE
  5
1D3
330
1F
100
AcDbEntity
  8
0
  6
Continuous
 62
     7
370
    25
100
AcDbCircle
 10
673.0350457666
 20
567.0863660397
 30
0.0
 40
4.197433366238944
  0
SPLINE
  5
1D4
330
1F
100
AcDbEntity
  8
0
  6
Continuous
 62
     7
370
    25
100
AcDbSpline
210
0.0
220
0.0
230
1.0
 70
     8
 71
     3
 72
    12
 73
     8
 74
     0
 42
0.00000001
 43
0.00000001
 40
0.0
 40
0.0
 40
0.0
 40
0.0
 40
0.2133534395476132
 40
0.4267919313634478
 40
0.638353973909154
 40
0.8490950351927532
 40
1.0
 40
1.0
 40
1.0
 40
1.0
 10
672.1497613904259
 20
565.9036693020652
 30
0.0
 10
672.160436748167
 20
565.9868731762192
 30
0.0
 10
672.1817917193267
 20
566.1533140933302
 30
0.0
 10
672.1073774034159
 20
566.3998834589971
 30
0.0
 10
671.9622936509157
 20
566.6064196615437
 30
0.0
 10
671.77721759873
 20
566.7436927751312
 30
0.0
 10
671.6418739263131
 20
566.7846355504776
 30
0.0
 10
671.5853987250127
 20
566.8017198473508
 30
0.0
  0
CIRCLE
  5
1D5
330
1F
100
AcDbEntity
  8
0
  6
Continuous
 62
     7
370
    25
100
AcDbCircle
 10
673.0350457666
 20
567.0863660397
 30
0.0
 40
4.500000000000057
  0
CIRCLE
  5
1D6
330
1F
100
AcDbEntity
  8
0
  6
Continuous
 62
     7
370
    25
100
AcDbCircle
 10
469.8350457666
 20
567.0863660397
 30
0.0
 40
5.074569253689219
  0
CIRCLE
  5
1D7
330
1F
100
AcDbEntity
  8
0
  6
Continuous
 62
     7
370
    25
100
AcDbCircle
 10
469.8350457666
 20
567.0863660397
 30
0.0
 40
5.32891433662769
  0
CIRCLE
  5
1D8
330
1F
100
AcDbEntity
  8
0
  6
Continuous
 62
     7
370
    25
100
AcDbCircle
 10
469.8350457666
 20
567.0863660397
 30
0.0
 40
5.925127771161328
  0
CIRCLE
  5
1D9
330
1F
100
AcDbEntity
  8
0
  6
Continuous
 62
     7
370
    25
100
AcDbCircle
 10
469.8350457666
 20
567.0863660397
 30
0.0
 40
7.149999999999977
  0
SPLINE
  5
1DA
330
1F
100
AcDbEntity
  8
0
  6
Continuous
 62
     7
370
    25
100
AcDbSpline
210
0.0
220
0.0
230
1.0
 70
     8
 71
     3
 72
    11
 73
     7
 74
     0
 42
0.00000001
 43
0.00000001
 40
0.0
 40
0.0
 40
0.0
 40
0.0
 40
0.2200386424382255
 40
0.6637869905998169
 40
0.8890365590789576
 40
1.0
 40
1.0
 40
1.0
 40
1.0
 10
679.7126359111826
 20
573.1066843466957
 30
0.0
 10
679.916857374184
 20
572.841665735437
 30
0.0
 10
680.5329289370676
 20
572.0421884051323
 30
0.0
 10
681.0564782880848
 20
570.7790191346044
 30
0.0
 10
681.308107487846
 20
569.6124493212803
 30
0.0
 10
681.2874002931236
 20
569.1011695226209
 30
0.0
 10
681.2805661090975
 20
568.9324271951485
 30
0.0
  0
SPLINE
  5
1DB
330
1F
100
AcDbEntity
  8
0
  6
Continuous
 62
     7
370
    25
100
AcDbSpline
210
0.0
220
0.0
230
1.0
 70
     8
 71
     3
 72
     9
 73
     5
 74
     0
 42
0.00000001
 43
0.00000001
 40
0.0
 40
0.0
 40
0.0
 40
0.0
 40
0.9209630919903056
 40
1.0
 40
1.0
 40
1.0
 40
1.0
 10
681.3526782744299
 20
572.7863610710623
 30
0.0
 10
680.838256736557
 20
572.843188129981
 30
0.0
 10
680.2796876230423
 20
572.9048920781769
 30
0.0
 10
679.7541711113729
 20
573.0919035390648
 30
0.0
 10
679.7126359111826
 20
573.1066843466957
 30
0.0
  0
SPLINE
  5
1DC
330
1F
100
AcDbEntity
  8
0
  6
Continuous
 62
     7
370
    25
100
AcDbSpline
210
0.0
220
0.0
230
1.0
 70
     8
 71
     3
 72
    10
 73
     6
 74
     0
 42
0.00000001
 43
0.00000001
 40
0.0
 40
0.0
 40
0.0
 40
0.0
 40
0.2596150688488836
 40
0.629760644481066
 40
0.9999999999999999
 40
0.9999999999999999
 40
0.9999999999999999
 40
0.9999999999999999
 10
728.5278392283672
 20
570.1948035020732
 30
0.0
 10
724.4500190096442
 20
570.4945576391717
 30
0.0
 10
714.5582561762787
 20
571.2216855343357
 30
0.0
 10
698.8286834936056
 20
572.0475324042259
 30
0.0
 10
687.178505232341
 20
572.5400640534915
 30
0.0
 10
681.3526782744299
 20
572.7863610710623
 30
0.0
  0
SPLINE
  5
1DD
330
1F
100
AcDbEntity
  8
0
  6
Continuous
 62
     7
370
    25
100
AcDbSpline
210
0.0
220
0.0
230
1.0
 70
     8
 71
     3
 72
    11
 73
     7
 74
     0
 42
0.00000001
 43
0.00000001
 40
0.0
 40
0.0
 40
0.0
 40
0.0
 40
0.061464119541392
 40
0.4999988937835377
 40
0.9375097801832794
 40
1.0
 40
1.0
 40
1.0
 40
1.0
 10
728.5278392283669
 20
564.4687711550713
 30
0.0
 10
728.5395084245692
 20
564.5852281275234
 30
0.0
 10
728.6344351108387
 20
565.5325833948546
 30
0.0
 10
728.718137938105
 20
567.3298275933029
 30
0.0
 10
728.6345680145846
 20
569.1290256175437
 30
0.0
 10
728.5396963095394
 20
570.0764004419767
 30
0.0
 10
728.5278392283672
 20
570.1948035020732
 30
0.0
  0
SPLINE
  5
1DE
330
1F
100
AcDbEntity
  8
0
  6
Continuous
 62
     7
370
    25
100
AcDbSpline
210
0.0
220
0.0
230
1.0
 70
     8
 71
     3
 72
    10
 73
     6
 74
     0
 42
0.00000001
 43
0.00000001
 40
0.0
 40
0.0
 40
0.0
 40
0.0
 40
0.2594618540778875
 40
0.6296073956705976
 40
1.0
 40
1.0
 40
1.0
 40
1.0
 10
681.3526782744299
 20
561.8772135860842
 30
0.0
 10
685.4355465125253
 20
562.0445978956096
 30
0.0
 10
695.3429914715899
 20
562.4507708938374
 30
0.0
 10
711.0742880330594
 20
563.237554251568
 30
0.0
 10
722.7086949832707
 20
564.0582742494094
 30
0.0
 10
728.5278392283669
 20
564.4687711550713
 30
0.0
  0
SPLINE
  5
1DF
330
1F
100
AcDbEntity
  8
0
  6
Continuous
 62
     7
370
    25
100
AcDbSpline
210
0.0
220
0.0
230
1.0
 70
     8
 71
     3
 72
     9
 73
     5
 74
     0
 42
0.00000001
 43
0.00000001
 40
0.0
 40
0.0
 40
0.0
 40
0.0
 40
0.0790369080192139
 40
1.0
 40
1.0
 40
1.0
 40
1.0
 10
679.7126359111834
 20
561.5568903104507
 30
0.0
 10
679.7541711113787
 20
561.5716711180835
 30
0.0
 10
680.279687623048
 20
561.7586825789714
 30
0.0
 10
680.8382567365625
 20
561.8203865271666
 30
0.0
 10
681.3526782744299
 20
561.8772135860842
 30
0.0
  0
SPLINE
  5
1E0
330
1F
100
AcDbEntity
  8
0
  6
Continuous
 62
     7
370
    25
100
AcDbSpline
210
0.0
220
0.0
230
1.0
 70
     8
 71
     3
 72
    11
 73
     7
 74
     0
 42
0.00000001
 43
0.00000001
 40
0.0
 40
0.0
 40
0.0
 40
0.0
 40
0.0728838064943292
 40
0.4140719411596028
 40
0.9209668754550567
 40
1.0
 40
1.0
 40
1.0
 40
1.0
 10
681.2805661090938
 20
565.7311474620126
 30
0.0
 10
681.2882812582315
 20
565.6207010277736
 30
0.0
 10
681.3321130355961
 20
564.9932259874427
 30
0.0
 10
680.987621324158
 20
563.6102339569776
 30
0.0
 10
680.3479319746718
 20
562.3403024392001
 30
0.0
 10
679.7881432252389
 20
561.650001773027
 30
0.0
 10
679.7126359111834
 20
561.5568903104507
 30
0.0
  0
SPLINE
  5
1E1
330
1F
100
AcDbEntity
  8
0
  6
Continuous
 62
     7
370
    25
100
AcDbSpline
210
0.0
220
0.0
230
1.0
 70
     8
 71
     3
 72
    10
 73
     6
 74
     0
 42
0.00000001
 43
0.00000001
 40
0.0
 40
0.0
 40
0.0
 40
0.0
 40
0.3880207377811385
 40
0.9790637766506849
 40
1.0
 40
1.0
 40
1.0
 40
1.0
 10
681.2805661090974
 20
568.9324271951485
 30
0.0
 10
681.2072515783382
 20
568.5215873332928
 30
0.0
 10
681.0222624930148
 20
567.4849457634446
 30
0.0
 10
681.117969418846
 20
566.3911764418732
 30
0.0
 10
681.2751875700937
 20
565.7529805731538
 30
0.0
 10
681.2805661090938
 20
565.7311474620126
 30
0.0
  0
ARC
  5
1E2
330
1F
100
AcDbEntity
  8
0
  6
Continuous
 62
     7
370
    25
100
AcDbCircle
 10
673.0350457666
 20
567.3317873286
 30
0.0
 40
8.39944365426445
100
AcDbArc
 50
10.985757993
 51
349.0142420071
  0
SPLINE
  5
1E3
330
1F
100
AcDbEntity
  8
0
  6
Continuous
 62
     7
370
    25
100
AcDbSpline
210
0.0
220
0.0
230
1.0
 70
     8
 71
     3
 72
     9
 73
     5
 74
     0
 42
0.00000001
 43
0.00000001
 40
0.0
 40
0.0
 40
0.0
 40
0.0
 40
0.681792342127431
 40
1.0
 40
1.0
 40
1.0
 40
1.0
 10
679.7126359111834
 20
561.5568903104507
 30
0.0
 10
679.5703723505403
 20
561.3669799553455
 30
0.0
 10
679.3617112203799
 20
561.0884342114722
 30
0.0
 10
679.1322853864995
 20
560.855529838529
 30
0.0
 10
679.059280329245
 20
560.7814178835066
 30
0.0
  0
ARC
  5
1E4
330
1F
100
AcDbEntity
  8
0
  6
Continuous
 62
     7
370
    25
100
AcDbCircle
 10
673.0350457666
 20
567.3317873286
 30
0.0
 40
8.899367501836373
100
AcDbArc
 50
47.3959191961
 51
312.6040808039
  0
LINE
  5
1E5
330
1F
100
AcDbEntity
  8
0
  6
Continuous
 62
     7
370
    25
100
AcDbLine
 10
679.0592803292
 20
573.8821567736
 30
0.0
 11
679.7126359112
 21
573.1066843467
 31
0.0
  0
SPLINE
  5
1E6
330
1F
100
AcDbEntity
  8
0
  6
Continuous
 62
     7
370
    25
100
AcDbSpline
210
0.0
220
0.0
230
1.0
 70
     8
 71
     3
 72
    10
 73
     6
 74
     0
 42
0.00000001
 43
0.00000001
 40
0.0
 40
0.0
 40
0.0
 40
0.0
 40
0.3702896688583046
 40
0.7405318123903298
 40
0.9999999999999999
 40
0.9999999999999999
 40
0.9999999999999999
 40
0.9999999999999999
 10
728.5393586915454
 20
564.0259115742381
 30
0.0
 10
722.7192948453269
 20
563.7057205597118
 30
0.0
 10
711.0799141368234
 20
563.0653796260062
 30
0.0
 10
695.3610457300487
 20
562.196145294143
 30
0.0
 10
685.4638719140388
 20
561.6474042925338
 30
0.0
 10
681.3858035935747
 20
561.421299008702
 30
0.0
  0
ARC
  5
1E7
330
1F
100
AcDbEntity
  8
0
  6
Continuous
 62
     7
370
    25
100
AcDbCircle
 10
688.6008928009
 20
562.1746853754
 30
0.0
 40
7.254316183255093
100
AcDbArc
 50
182.3501399448
 51
185.9611177314
  0
ARC
  5
1E8
330
1F
100
AcDbEntity
  8
0
  6
Continuous
 62
     7
370
    25
100
AcDbCircle
 10
724.2788361503
 20
564.1366683982
 30
0.0
 40
4.261961918962063
100
AcDbArc
 50
358.5108705387
 51
4.4691613064
  0
SPLINE
  5
1E9
330
1F
100
AcDbEntity
  8
0
  6
Continuous
 62
     7
370
    25
100
AcDbSpline
210
0.0
220
0.0
230
1.0
 70
     8
 71
     3
 72
    10
 73
     6
 74
     0
 42
0.00000001
 43
0.00000001
 40
0.0
 40
0.0
 40
0.0
 40
0.0
 40
0.3702717503651152
 40
0.7405122151371749
 40
1.0
 40
1.0
 40
1.0
 40
1.0
 10
681.3858035935746
 20
573.2422756484444
 30
0.0
 10
687.2054756552438
 20
572.9197471627765
 30
0.0
 10
698.8443280535407
 20
572.2747174430335
 30
0.0
 10
714.5634676374954
 20
571.4059029555544
 30
0.0
 10
724.460965061194
 20
570.8618480447877
 30
0.0
 10
728.5393586915419
 20
570.6376630829085
 30
0.0
  0
ARC
  5
1EA
330
1F
100
AcDbEntity
  8
0
  6
Continuous
 62
     7
370
    25
100
AcDbCircle
 10
724.2788361475
 20
570.5269062589
 30
0.0
 40
4.261961921776881
100
AcDbArc
 50
355.530838696
 51
1.4891294598
  0
ARC
  5
1EB
330
1F
100
AcDbEntity
  8
0
  6
Continuous
 62
     7
370
    25
100
AcDbCircle
 10
688.6008928012
 20
572.4888892817
 30
0.0
 40
7.254316183595209
100
AcDbArc
 50
174.0388822687
 51
177.6498600551
  0
SPLINE
  5
1EC
330
1F
100
AcDbEntity
  8
0
  6
Continuous
 62
     7
370
    25
100
AcDbSpline
210
0.0
220
0.0
230
1.0
 70
     8
 71
     3
 72
    12
 73
     8
 74
     0
 42
0.00000001
 43
0.00000001
 40
0.0
 40
0.0
 40
0.0
 40
0.0
 40
0.1224290494151348
 40
0.3423522449770467
 40
0.5614228816909441
 40
0.7807229538533574
 40
1.0
 40
1.0
 40
1.0
 40
1.0
 10
730.4635666612146
 20
570.084129132417
 30
0.0
 10
730.4545625853506
 20
570.0864878168579
 30
0.0
 10
730.4293842016195
 20
570.0930834811827
 30
0.0
 10
730.2133965179748
 20
570.1100914489219
 30
0.0
 10
729.7774983882457
 20
570.1356024230763
 30
0.0
 10
729.1935727748156
 20
570.1651546056356
 30
0.0
 10
728.7497426432475
 20
570.1849208825146
 30
0.0
 10
728.5278392283672
 20
570.1948035020732
 30
0.0
  0
SPLINE
  5
1ED
330
1F
100
AcDbEntity
  8
0
  6
Continuous
 62
     7
370
    25
100
AcDbSpline
210
0.0
220
0.0
230
1.0
 70
     8
 71
     3
 72
    11
 73
     7
 74
     0
 42
0.00000001
 43
0.00000001
 40
0.0
 40
0.0
 40
0.0
 40
0.0
 40
0.0800485240044433
 40
0.5000005853538798
 40
0.9209248322279645
 40
1.0
 40
1.0
 40
1.0
 40
1.0
 10
730.4635666612146
 20
570.084129132417
 30
0.0
 10
730.4632804168004
 20
569.9378847073164
 30
0.0
 10
730.4614924715958
 20
569.0244100484832
 30
0.0
 10
730.4602567747659
 20
567.3300004607247
 30
0.0
 10
730.4614944728607
 20
565.63737360887
 30
0.0
 10
730.4632836948289
 20
564.7239102332262
 30
0.0
 10
730.4635666612147
 20
564.579445524735
 30
0.0
  0
SPLINE
  5
1EE
330
1F
100
AcDbEntity
  8
0
  6
Continuous
 62
     7
370
    25
100
AcDbSpline
210
0.0
220
0.0
230
1.0
 70
     8
 71
     3
 72
    12
 73
     8
 74
     0
 42
0.00000001
 43
0.00000001
 40
0.0
 40
0.0
 40
0.0
 40
0.0
 40
0.1130367476169362
 40
0.3328594693548023
 40
0.5544127937945006
 40
0.7774207483513244
 40
1.0
 40
1.0
 40
1.0
 40
1.0
 10
728.5278392283669
 20
564.4687711550713
 30
0.0
 10
728.6419100683538
 20
564.4737864007727
 30
0.0
 10
728.9778146309618
 20
564.4885548018285
 30
0.0
 10
729.5118824873564
 20
564.5141470059378
 30
0.0
 10
730.0284081252436
 20
564.5420222688089
 30
0.0
 10
730.3853028423981
 20
564.5654641423994
 30
0.0
 10
730.4374954599166
 20
564.5747880541591
 30
0.0
 10
730.4635666612147
 20
564.579445524735
 30
0.0
  0
SPLINE
  5
1EF
330
1F
100
AcDbEntity
  8
0
  6
Continuous
 62
     7
370
    25
100
AcDbSpline
210
0.0
220
0.0
230
1.0
 70
     8
 71
     3
 72
     9
 73
     5
 74
     0
 42
0.00000001
 43
0.00000001
 40
0.0
 40
0.0
 40
0.0
 40
0.0
 40
0.500010612381544
 40
1.0
 40
1.0
 40
1.0
 40
1.0
 10
678.559672480402
 20
574.3139884628861
 30
0.0
 10
678.9893938472229
 20
574.0261479247928
 30
0.0
 10
679.8488183397835
 20
573.4504790670414
 30
0.0
 10
680.8734824250618
 20
573.3116758059547
 30
0.0
 10
681.3858035935746
 20
573.2422756484444
 30
0.0
  0
SPLINE
  5
1F0
330
1F
100
AcDbEntity
  8
0
  6
Continuous
 62
     7
370
    25
100
AcDbSpline
210
0.0
220
0.0
230
1.0
 70
     8
 71
     3
 72
     9
 73
     5
 74
     0
 42
0.00000001
 43
0.00000001
 40
0.0
 40
0.0
 40
0.0
 40
0.0
 40
0.9838702326459385
 40
1.0
 40
1.0
 40
1.0
 40
1.0
 10
679.059280329245
 20
573.8821567736398
 30
0.0
 10
678.8979395143103
 20
574.0269891866587
 30
0.0
 10
678.7339536454618
 20
574.1741960115156
 30
0.0
 10
678.5624389721798
 20
574.3117694355622
 30
0.0
 10
678.559672480402
 20
574.3139884628861
 30
0.0
  0
SPLINE
  5
1F1
330
1F
100
AcDbEntity
  8
0
  6
Continuous
 62
     7
370
    25
100
AcDbSpline
210
0.0
220
0.0
230
1.0
 70
     8
 71
     3
 72
     9
 73
     5
 74
     0
 42
0.00000001
 43
0.00000001
 40
0.0
 40
0.0
 40
0.0
 40
0.0
 40
0.5055561057107305
 40
1.0
 40
1.0
 40
1.0
 40
1.0
 10
681.3858035935747
 20
561.421299008702
 30
0.0
 10
680.8677440762416
 20
561.3506429744319
 30
0.0
 10
679.8430120801663
 20
561.2108839378545
 30
0.0
 10
678.9842715114047
 20
560.6345506630588
 30
0.0
 10
678.559672480402
 20
560.3495861942604
 30
0.0
  0
SPLINE
  5
1F2
330
1F
100
AcDbEntity
  8
0
  6
Continuous
 62
     7
370
    25
100
AcDbSpline
210
0.0
220
0.0
230
1.0
 70
     8
 71
     3
 72
     9
 73
     5
 74
     0
 42
0.00000001
 43
0.00000001
 40
0.0
 40
0.0
 40
0.0
 40
0.0
 40
0.0161297673533178
 40
0.9999999999999999
 40
0.9999999999999999
 40
0.9999999999999999
 40
0.9999999999999999
 10
678.559672480402
 20
560.3495861942604
 30
0.0
 10
678.5624389721798
 20
560.3518052215842
 30
0.0
 10
678.7339536454659
 20
560.4893786456339
 30
0.0
 10
678.8979395143123
 20
560.6365854704891
 30
0.0
 10
679.059280329245
 20
560.7814178835066
 30
0.0
  0
SPLINE
  5
1F3
330
1F
100
AcDbEntity
  8
0
  6
Continuous
 62
     7
370
    25
100
AcDbSpline
210
0.0
220
0.0
230
1.0
 70
     8
 71
     3
 72
    12
 73
     8
 74
     0
 42
0.00000001
 43
0.00000001
 40
0.0
 40
0.0
 40
0.0
 40
0.0
 40
0.2230315344150434
 40
0.4461337558340359
 40
0.6675099896777019
 40
0.8870667292265005
 40
1.0
 40
1.0
 40
1.0
 40
1.0
 10
729.9912123961301
 20
564.0802824536864
 30
0.0
 10
729.9716786100042
 20
564.0821727009812
 30
0.0
 10
729.9326048467677
 20
564.0859537946607
 30
0.0
 10
729.6650156647115
 20
564.07901095839
 30
0.0
 10
729.2774865808864
 20
564.0634221359
 30
0.0
 10
728.8767644684233
 20
564.0440848558359
 30
0.0
 10
728.6249050461655
 20
564.0305192546595
 30
0.0
 10
728.5393586915454
 20
564.0259115742381
 30
0.0
  0
ARC
  5
1F4
330
1F
100
AcDbEntity
  8
0
  6
Continuous
 62
     7
370
    25
100
AcDbCircle
 10
729.9634667736
 20
564.5796121101
 30
0.0
 40
0.5000999153473011
100
AcDbArc
 50
273.1804119247
 51
359.9809145383
  0
SPLINE
  5
1F5
330
1F
100
AcDbEntity
  8
0
  6
Continuous
 62
     7
370
    25
100
AcDbSpline
210
0.0
220
0.0
230
1.0
 70
     8
 71
     3
 72
    12
 73
     8
 74
     0
 42
0.00000001
 43
0.00000001
 40
0.0
 40
0.0
 40
0.0
 40
0.0
 40
0.2190444340109334
 40
0.4380981679380241
 40
0.6571027493691853
 40
0.8772791087290019
 40
1.0
 40
1.0
 40
1.0
 40
1.0
 10
728.5393586915419
 20
570.6376630829085
 30
0.0
 10
728.7057764323129
 20
570.6288342699588
 30
0.0
 10
729.0386189794119
 20
570.6111762692166
 30
0.0
 10
729.476777422055
 20
570.5916577798075
 30
0.0
 10
729.8037432488147
 20
570.5803519961752
 30
0.0
 10
729.9655871258288
 20
570.5785281280985
 30
0.0
 10
729.984458458241
 20
570.5820365574233
 30
0.0
 10
729.9912123961301
 20
570.5832922034599
 30
0.0
  0
ARC
  5
1F6
330
1F
100
AcDbEntity
  8
0
  6
Continuous
 62
     7
370
    25
100
AcDbCircle
 10
729.9634667736
 20
570.0839625471
 30
0.0
 40
0.500099915347029
100
AcDbArc
 50
0.0190854623
 51
86.8195880753
  0
LINE
  5
1F7
330
1F
100
AcDbEntity
  8
0
  6
Continuous
 62
     7
370
    25
100
AcDbLine
 10
681.3858035936
 20
561.4212990087
 30
0.0
 11
681.4127897753
 21
561.3500087333
 31
0.0
  0
LINE
  5
1F8
330
1F
100
AcDbEntity
  8
0
  6
Continuous
 62
     7
370
    25
100
AcDbLine
 10
729.9959027568
 20
564.0758440006
 30
0.0
 11
729.9912123961
 21
564.0802824537
 31
0.0
  0
ELLIPSE
  5
1F9
330
1F
100
AcDbEntity
  8
0
  6
Continuous
 62
     7
370
    25
100
AcDbEllipse
 10
728.4961312141
 20
563.9925515506
 30
0.0
 11
1.499999304622747
 21
0.08287263343879657
 31
0.0
210
0.0
220
0.0
230
1.0
 40
0.0174284859
 41
5.396717970287536
 42
6.29967570319542
  0
LINE
  5
1FA
330
1F
100
AcDbEntity
  8
0
  6
Continuous
 62
     7
370
    25
100
AcDbLine
 10
725.980516545
 20
563.7837919626
 30
0.0
 11
729.4454797545
 21
564.0246832416
 31
0.0
  0
LINE
  5
1FB
330
1F
100
AcDbEntity
  8
0
  6
Continuous
 62
     7
370
    25
100
AcDbLine
 10
725.980516545
 20
563.7838903538
 30
0.0
 11
725.980516545
 21
563.7837919626
 31
0.0
  0
ELLIPSE
  5
1FC
330
1F
100
AcDbEntity
  8
0
  6
Continuous
 62
     7
370
    25
100
AcDbEllipse
 10
716.5310301241
 20
563.4542443024
 30
0.0
 11
14.4999932780205
 21
0.8011021232407529
 31
0.0
210
0.0
220
0.0
230
1.0
 40
0.0174284859
 41
4.685109492442209
 42
5.421234828998124
  0
ELLIPSE
  5
1FD
330
1F
100
AcDbEntity
  8
0
  6
Continuous
 62
     7
370
    25
100
AcDbEllipse
 10
715.2100202085
 20
562.5039607531
 30
0.0
 11
35.70262504606012
 21
1.972514619921981
 31
0.0
210
0.0
220
0.0
230
1.0
 40
0.0174284859
 41
1.543516838852417
 42
2.025717338718007
  0
ELLIPSE
  5
1FE
330
1F
100
AcDbEntity
  8
0
  6
Continuous
 62
     7
370
    25
100
AcDbEllipse
 10
696.1897927365
 20
562.1315646933
 30
0.0
 11
7.499996523114078
 21
0.4143631671934145
 31
0.0
210
0.0
220
0.0
230
1.0
 40
0.0174284859
 41
4.976419334597816
 42
5.167309992308083
  0
LINE
  5
1FF
330
1F
100
AcDbEntity
  8
0
  6
Continuous
 62
     7
370
    25
100
AcDbLine
 10
698.1344451375
 20
562.2639091445
 30
0.0
 11
698.1540633949
 21
562.1135186
 31
0.0
  0
SPLINE
  5
200
330
1F
100
AcDbEntity
  8
0
  6
Continuous
 62
     7
370
    25
100
AcDbSpline
210
0.0
220
0.0
230
1.0
 70
     8
 71
     3
 72
    10
 73
     6
 74
     0
 42
0.00000001
 43
0.00000001
 40
0.0
 40
0.0
 40
0.0
 40
0.0
 40
0.0186368637457253
 40
0.3939469944633057
 40
1.0
 40
1.0
 40
1.0
 40
1.0
 10
697.9506738518444
 20
562.263422777298
 30
0.0
 10
697.953130059093
 20
562.2635105277774
 30
0.0
 10
698.0050494955701
 20
562.2653654019703
 30
0.0
 10
698.109048344048
 20
562.2680453833485
 30
0.0
 10
698.1247490013973
 20
562.2654883019509
 30
0.0
 10
698.1344451375409
 20
562.263909144543
 30
0.0
  0
LINE
  5
201
330
1F
100
AcDbEntity
  8
0
  6
Continuous
 62
     7
370
    25
100
AcDbLine
 10
681.4127897753
 20
561.3500087333
 30
0.0
 11
697.9506738518
 21
562.2634227773
 31
0.0
  0
LINE
  5
202
330
1F
100
AcDbEntity
  8
0
  6
Continuous
 62
     7
370
    25
100
AcDbLine
 10
697.9527395838
 20
572.4163555287
 30
0.0
 11
681.4188311603
 21
573.3295499909
 31
0.0
  0
SPLINE
  5
203
330
1F
100
AcDbEntity
  8
0
  6
Continuous
 62
     7
370
    25
100
AcDbSpline
210
0.0
220
0.0
230
1.0
 70
     8
 71
     3
 72
    11
 73
     7
 74
     0
 42
0.00000001
 43
0.00000001
 40
0.0
 40
0.0
 40
0.0
 40
0.0
 40
0.4177469294495291
 40
0.8392770662410922
 40
0.9817832068819584
 40
1.0
 40
1.0
 40
1.0
 40
1.0
 10
698.1364450244128
 20
572.4150060833899
 30
0.0
 10
698.1318079963809
 20
572.4139228922063
 30
0.0
 10
698.1224919463796
 20
572.4117467002233
 30
0.0
 10
698.0469954806292
 20
572.4129488771146
 30
0.0
 10
697.9767352800575
 20
572.4154194044546
 30
0.0
 10
697.9551824433997
 20
572.4162602274115
 30
0.0
 10
697.9527395837697
 20
572.41635552867
 30
0.0
  0
LINE
  5
204
330
1F
100
AcDbEntity
  8
0
  6
Continuous
 62
     7
370
    25
100
AcDbLine
 10
698.1540633949
 20
572.5500560572
 30
0.0
 11
698.1364450244
 21
572.4150060834
 31
0.0
  0
ELLIPSE
  5
205
330
1F
100
AcDbEntity
  8
0
  6
Continuous
 62
     7
370
    25
100
AcDbEllipse
 10
696.1897927365
 20
572.5320099638
 30
0.0
 11
7.499996523114078
 21
-0.4143631671934145
 31
0.0
210
0.0
220
0.0
230
1.0
 40
0.0174284859
 41
1.115875314871696
 42
1.306765972581835
  0
ELLIPSE
  5
206
330
1F
100
AcDbEntity
  8
0
  6
Continuous
 62
     7
370
    25
100
AcDbEllipse
 10
715.2100202085
 20
572.1596139041
 30
0.0
 11
35.70262504606012
 21
-1.972514619921981
 31
0.0
210
0.0
220
0.0
230
1.0
 40
0.0174284859
 41
4.257467968461667
 42
4.739668468327174
  0
ELLIPSE
  5
207
330
1F
100
AcDbEntity
  8
0
  6
Continuous
 62
     7
370
    25
100
AcDbEllipse
 10
716.5310301241
 20
571.2093303548
 30
0.0
 11
14.4999932780205
 21
-0.8011021232406391
 31
0.0
210
0.0
220
0.0
230
1.0
 40
0.0174284859
 41
0.8619504781818906
 42
1.598075814737366
  0
LINE
  5
208
330
1F
100
AcDbEntity
  8
0
  6
Continuous
 62
     7
370
    25
100
AcDbLine
 10
725.980516545
 20
570.8797826945
 30
0.0
 11
725.980516545
 21
570.8796843033
 31
0.0
  0
LINE
  5
209
330
1F
100
AcDbEntity
  8
0
  6
Continuous
 62
     7
370
    25
100
AcDbLine
 10
729.4454797545
 20
570.6388914156
 30
0.0
 11
725.980516545
 21
570.8797826945
 31
0.0
  0
ELLIPSE
  5
20A
330
1F
100
AcDbEntity
  8
0
  6
Continuous
 62
     7
370
    25
100
AcDbEllipse
 10
728.4961312141
 20
570.6710231065
 30
0.0
 11
1.499999304622747
 21
-0.08287263343868288
 31
0.0
210
0.0
220
0.0
230
1.0
 40
0.0174284859
 41
6.266694911160209
 42
7.169652644072968
  0
LINE
  5
20B
330
1F
100
AcDbEntity
  8
0
  6
Continuous
 62
     7
370
    25
100
AcDbLine
 10
729.9912123961
 20
570.5832922035
 30
0.0
 11
729.9959027568
 21
570.5877306565
 31
0.0
  0
LINE
  5
20C
330
1F
100
AcDbEntity
  8
0
  6
Continuous
 62
     7
370
    25
100
AcDbLine
 10
681.4188311603
 20
573.3295499909
 30
0.0
 11
681.3858035936
 21
573.2422756484
 31
0.0
  0
SPLINE
  5
20D
330
1F
100
AcDbEntity
  8
0
  6
Continuous
 62
     7
370
    25
100
AcDbSpline
210
0.0
220
0.0
230
1.0
 70
     8
 71
     3
 72
     9
 73
     5
 74
     0
 42
0.00000001
 43
0.00000001
 40
0.0
 40
0.0
 40
0.0
 40
0.0
 40
0.5001021276704695
 40
1.0
 40
1.0
 40
1.0
 40
1.0
 10
678.5928913464575
 20
560.2838947473001
 30
0.0
 10
679.0218391221648
 20
560.5704203813887
 30
0.0
 10
679.8795594796154
 20
561.1433546246865
 30
0.0
 10
680.9017826082304
 20
561.2811334111406
 30
0.0
 10
681.4127897752712
 20
561.3500087333412
 30
0.0
  0
LINE
  5
20E
330
1F
100
AcDbEntity
  8
0
  6
Continuous
 62
     7
370
    25
100
AcDbLine
 10
678.5928913465
 20
560.2838947473
 30
0.0
 11
678.5596724804
 21
560.3495861943
 31
0.0
  0
SPLINE
  5
20F
330
1F
100
AcDbEntity
  8
0
  6
Continuous
 62
     7
370
    25
100
AcDbSpline
210
0.0
220
0.0
230
1.0
 70
     8
 71
     3
 72
     9
 73
     5
 74
     0
 42
0.00000001
 43
0.00000001
 40
0.0
 40
0.0
 40
0.0
 40
0.0
 40
0.400722737156528
 40
1.0
 40
1.0
 40
1.0
 40
1.0
 10
681.4188311603228
 20
573.3295499908846
 30
0.0
 10
681.0101450369136
 20
573.3779572529503
 30
0.0
 10
679.9902724778738
 20
573.4987571416941
 30
0.0
 10
679.1211964340479
 20
574.0588644150478
 30
0.0
 10
678.6003789213011
 20
574.3945239687218
 30
0.0
  0
LINE
  5
210
330
1F
100
AcDbEntity
  8
0
  6
Continuous
 62
     7
370
    25
100
AcDbLine
 10
678.5596724804
 20
574.3139884629
 30
0.0
 11
678.6003789213
 21
574.3945239687
 31
0.0
  0
ARC
  5
211
330
1F
100
AcDbEntity
  8
0
  6
Continuous
 62
     7
370
    25
100
AcDbCircle
 10
673.0350457666
 20
567.3317873286
 30
0.0
 40
8.975658044222143
100
AcDbArc
 50
245.1648853947
 51
308.2586979829
  0
LWPOLYLINE
  5
212
330
1F
100
AcDbEntity
  8
0
  6
Continuous
 62
     7
370
    25
100
AcDbPolyline
 90
        3
 70
   128
 43
0.0
 10
669.0997323423
 20
559.0811276053
 10
669.2043139065
 20
559.1473800165
 10
669.2651944492
 20
559.1861959828
  0
ARC
  5
213
330
1F
100
AcDbEntity
  8
0
  6
Continuous
 62
     7
370
    25
100
AcDbCircle
 10
673.0350457666
 20
567.3317873286
 30
0.0
 40
9.14112015109216
100
AcDbArc
 50
115.4997164176
 51
244.500279429
  0
LWPOLYLINE
  5
214
330
1F
100
AcDbEntity
  8
0
  6
Continuous
 62
     7
370
    25
100
AcDbPolyline
 90
        3
 70
   128
 43
0.0
 10
669.2489015388
 20
575.487784745
 10
669.2043139065
 20
575.5161946406
 10
669.099732342
 20
575.5824470521
  0
ARC
  5
215
330
1F
100
AcDbEntity
  8
0
  6
Continuous
 62
     7
370
    25
100
AcDbCircle
 10
673.0350457666
 20
567.3317873286
 30
0.0
 40
8.991950954660663
100
AcDbArc
 50
51.762407147
 51
114.9014811666
  0
LINE
  5
216
330
1F
100
AcDbEntity
  8
0
  6
Continuous
 62
     7
370
    25
100
AcDbLine
 10
730.4682570219
 20
570.0885675855
 30
0.0
 11
730.4635666612
 21
570.0841291324
 31
0.0
  0
LINE
  5
217
330
1F
100
AcDbEntity
  8
0
  6
Continuous
 62
     7
370
    25
100
AcDbLine
 10
730.4682570219
 20
564.5750070717
 30
0.0
 11
730.4682570219
 21
570.0885675855
 31
0.0
  0
LINE
  5
218
330
1F
100
AcDbEntity
  8
0
  6
Continuous
 62
     7
370
    25
100
AcDbLine
 10
730.4635666612
 20
564.5794455247
 30
0.0
 11
730.4682570219
 21
564.5750070717
 31
0.0
  0
ARC
  5
219
330
1F
100
AcDbEntity
  8
0
  6
Continuous
 62
     7
370
    25
100
AcDbCircle
 10
729.9681571343
 20
570.0884010001
 30
0.0
 40
0.5000999153469543
100
AcDbArc
 50
0.0190854617
 51
86.8195880753
  0
ARC
  5
21A
330
1F
100
AcDbEntity
  8
0
  6
Continuous
 62
     7
370
    25
100
AcDbCircle
 10
729.9681571343
 20
564.575173657
 30
0.0
 40
0.5000999153471877
100
AcDbArc
 50
273.1804119247
 51
359.9809145383
  0
LINE
  5
21B
330
1F
100
AcDbEntity
  8
0
  6
Continuous
 62
     7
370
    25
100
AcDbLine
 10
729.4454797545
 20
570.6388914156
 30
0.0
 11
729.4525874853
 21
570.6385243789
 31
0.0
  0
LINE
  5
21C
330
1F
100
AcDbEntity
  8
0
  6
Continuous
 62
     7
370
    25
100
AcDbLine
 10
729.4454797545
 20
564.0246832416
 30
0.0
 11
729.4525874853
 21
564.0250502782
 31
0.0
  0
SPLINE
  5
21D
330
1F
100
AcDbEntity
  8
0
  6
Continuous
 62
     7
370
    25
100
AcDbSpline
210
0.0
220
0.0
230
1.0
 70
     8
 71
     3
 72
    12
 73
     8
 74
     0
 42
0.00000001
 43
0.00000001
 40
0.0
 40
0.0
 40
0.0
 40
0.0
 40
0.1662426524176545
 40
0.3368059756191297
 40
0.6054181071254586
 40
0.8801435087136193
 40
1.0
 40
1.0
 40
1.0
 40
1.0
 10
679.1571050139013
 20
555.6551269469022
 30
0.0
 10
678.5194234933651
 20
555.8106121223852
 30
0.0
 10
677.2274870165645
 20
556.1256235557405
 30
0.0
 10
675.0433006342151
 20
556.788588660739
 30
0.0
 10
672.6813262906553
 20
557.6407835775444
 30
0.0
 10
670.7157887287628
 20
558.4834122561565
 30
0.0
 10
669.6020137439672
 20
559.0212703488517
 30
0.0
 10
669.2636982658097
 20
559.1846477996789
 30
0.0
  0
LINE
  5
21E
330
1F
100
AcDbEntity
  8
0
  6
Continuous
 62
     7
370
    25
100
AcDbLine
 10
679.1571050139
 20
555.6551269469
 30
0.0
 11
679.141246937
 21
555.5856534153
 31
0.0
  0
ARC
  5
21F
330
1F
100
AcDbEntity
  8
0
  6
Continuous
 62
     7
370
    25
100
AcDbCircle
 10
689.8630251734
 20
602.5572882276
 30
0.0
 40
48.17977797259065
100
AcDbArc
 50
244.4718479123
 51
257.1419190681
  0
LWPOLYLINE
  5
220
330
1F
100
AcDbEntity
  8
0
  6
Continuous
 62
     7
370
    25
100
AcDbPolyline
 90
        3
 70
   128
 43
0.0
 10
669.2636982658
 20
559.1846477997
 10
669.2043104155
 20
559.1471240961
 10
669.0997323426
 20
559.0811260662
  0
SPLINE
  5
221
330
1F
100
AcDbEntity
  8
0
  6
Continuous
 62
     7
370
    25
100
AcDbSpline
210
0.0
220
0.0
230
1.0
 70
     8
 71
     3
 72
    11
 73
     7
 74
     0
 42
0.00000001
 43
0.00000001
 40
0.0
 40
0.0
 40
0.0
 40
0.0
 40
0.1345990676765959
 40
0.4126978815969493
 40
0.6969472592954598
 40
1.0
 40
1.0
 40
1.0
 40
1.0
 10
669.2644158427668
 20
559.1853893657529
 30
0.0
 10
669.693721863015
 20
558.9945054805917
 30
0.0
 10
671.0100287897393
 20
558.4092311811719
 30
0.0
 10
673.3858388406226
 20
557.7867632971482
 30
0.0
 10
676.4395282255035
 20
557.4102606146479
 30
0.0
 10
678.6305581338643
 20
557.3831192863152
 30
0.0
 10
679.7611476514023
 20
557.36911413687
 30
0.0
  0
ARC
  5
222
330
1F
100
AcDbEntity
  8
0
  6
Continuous
 62
     7
370
    25
100
AcDbCircle
 10
675.2686166584
 20
557.9889381814
 30
0.0
 40
4.53508727252402
100
AcDbArc
 50
329.0284626407
 51
352.1446266983
  0
LINE
  5
223
330
1F
100
AcDbEntity
  8
0
  6
Continuous
 62
     7
370
    25
100
AcDbLine
 10
669.2636982658
 20
559.1846477997
 30
0.0
 11
669.2644158428
 21
559.1853893658
 31
0.0
  0
LINE
  5
224
330
1F
100
AcDbEntity
  8
0
  6
Continuous
 62
     7
370
    25
100
AcDbLine
 10
678.5928913465
 20
560.2838947473
 30
0.0
 11
680.7907632666
 21
557.4967778729
 31
0.0
  0
ARC
  5
225
330
1F
100
AcDbEntity
  8
0
  6
Continuous
 62
     7
370
    25
100
AcDbCircle
 10
673.0350457666
 20
567.3317873286
 30
0.0
 40
12.52511736202738
100
AcDbArc
 50
307.8583068702
 51
308.2586979829
  0
LINE
  5
226
330
1F
100
AcDbEntity
  8
0
  6
Continuous
 62
     7
370
    25
100
AcDbLine
 10
679.7611476514
 20
557.3691141369
 30
0.0
 11
680.7218460003
 21
557.4428203906
 31
0.0
  0
LINE
  5
227
330
1F
100
AcDbEntity
  8
0
  6
Continuous
 62
     7
370
    25
100
AcDbLine
 10
669.2651944492
 20
559.1861959828
 30
0.0
 11
669.2644158428
 21
559.1853893658
 31
0.0
  0
LINE
  5
228
330
1F
100
AcDbEntity
  8
0
  6
Continuous
 62
     7
370
    25
100
AcDbLine
 10
683.7086163271
 20
557.9219418776
 30
0.0
 11
681.608533811
 21
557.8059509289
 31
0.0
  0
LINE
  5
229
330
1F
100
AcDbEntity
  8
0
  6
Continuous
 62
     7
370
    25
100
AcDbLine
 10
681.4127897753
 20
561.3500087333
 30
0.0
 11
681.608533811
 21
557.8059509289
 31
0.0
  0
SPLINE
  5
22A
330
1F
100
AcDbEntity
  8
0
  6
Continuous
 62
     7
370
    25
100
AcDbSpline
210
0.0
220
0.0
230
1.0
 70
     8
 71
     3
 72
    16
 73
    12
 74
     0
 42
0.00000001
 43
0.00000001
 40
0.0
 40
0.0
 40
0.0
 40
0.0
 40
0.2861254310575669
 40
0.7591203623085425
 40
0.8520758313858449
 40
0.9266344548631255
 40
0.9604862301433736
 40
0.9835335436569232
 40
0.9930756629548352
 40
0.9972242292023619
 40
1.0
 40
1.0
 40
1.0
 40
1.0
 10
685.1492846891502
 20
558.446085559588
 30
0.0
 10
686.377431526274
 20
558.9761528689401
 30
0.0
 10
689.6358321113581
 20
560.3824762650673
 30
0.0
 10
693.4334135659656
 20
561.4002882679516
 30
0.0
 10
696.2310752158701
 20
561.9622084857232
 30
0.0
 10
697.0962081547644
 20
562.1167110016162
 30
0.0
 10
697.6217943234985
 20
562.2052316674465
 30
0.0
 10
697.8554565822126
 20
562.2443410510953
 30
0.0
 10
697.9331067293733
 20
562.2586610200648
 30
0.0
 10
697.9491883844084
 20
562.2623947586878
 30
0.0
 10
697.9502487723303
 20
562.2631286007709
 30
0.0
 10
697.9506738518444
 20
562.263422777298
 30
0.0
  0
LINE
  5
22B
330
1F
100
AcDbEntity
  8
0
  6
Continuous
 62
     7
370
    25
100
AcDbLine
 10
683.7086163271
 20
557.9219418776
 30
0.0
 11
685.1492846892
 21
558.4460855596
 31
0.0
  0
ARC
  5
22C
330
1F
100
AcDbEntity
  8
0
  6
Continuous
 62
     7
370
    25
100
AcDbCircle
 10
690.9527174803
 20
562.0551879404
 30
0.0
 40
6.834138728217288
100
AcDbArc
 50
211.8771071303
 51
226.9488007428
  0
SPLINE
  5
22D
330
1F
100
AcDbEntity
  8
0
  6
Continuous
 62
     7
370
    25
100
AcDbSpline
210
0.0
220
0.0
230
1.0
 70
     8
 71
     3
 72
    10
 73
     6
 74
     0
 42
0.00000001
 43
0.00000001
 40
0.0
 40
0.0
 40
0.0
 40
0.0
 40
0.5975855365574454
 40
0.9790563563181981
 40
1.0
 40
1.0
 40
1.0
 40
1.0
 10
698.0606991715322
 20
562.2542958799587
 30
0.0
 10
698.0632183108854
 20
562.258035177685
 30
0.0
 10
698.0673455516661
 20
562.2641614692086
 30
0.0
 10
697.9929744251106
 20
562.2645380280651
 30
0.0
 10
697.9527664730062
 20
562.2634779490646
 30
0.0
 10
697.9506738518444
 20
562.263422777298
 30
0.0
  0
SPLINE
  5
22E
330
1F
100
AcDbEntity
  8
0
  6
Continuous
 62
     7
370
    25
100
AcDbSpline
210
0.0
220
0.0
230
1.0
 70
     8
 71
     3
 72
    14
 73
    10
 74
     0
 42
0.00000001
 43
0.00000001
 40
0.0
 40
0.0
 40
0.0
 40
0.0
 40
0.0129036569231464
 40
0.0519665716781148
 40
0.1318891824261205
 40
0.2280032005552168
 40
0.4679440229400844
 40
0.7079115564493632
 40
1.0
 40
1.0
 40
1.0
 40
1.0
 10
698.0606991715322
 20
562.2542958799587
 30
0.0
 10
698.0272305950677
 20
562.2464509058974
 30
0.0
 10
697.8924434422352
 20
562.2148570399648
 30
0.0
 10
697.4531699972426
 20
562.1124749926711
 30
0.0
 10
696.6417425790166
 20
561.910073483854
 30
0.0
 10
694.9882653971961
 20
561.4430228030878
 30
0.0
 10
692.6439753249524
 20
560.6055657436975
 30
0.0
 10
689.4988811484552
 20
559.1606255033472
 30
0.0
 10
687.4255824742627
 20
557.8052546205524
 30
0.0
 10
686.2873815915156
 20
557.0611822134027
 30
0.0
  0
LWPOLYLINE
  5
22F
330
1F
100
AcDbEntity
  8
0
  6
Continuous
 62
     7
370
    25
100
AcDbPolyline
 90
        4
 70
   128
 43
0.0
 10
698.0802259856
 20
562.1032003037
 10
698.0779813499
 20
562.1205584506
 10
698.069006316
 20
562.1899911967
 10
698.0606991715
 20
562.25429588
  0
LINE
  5
230
330
1F
100
AcDbEntity
  8
0
  6
Continuous
 62
     7
370
    25
100
AcDbLine
 10
696.2921017018
 20
561.6736728004
 30
0.0
 11
698.0802259856
 21
562.1032003037
 31
0.0
  0
ARC
  5
231
330
1F
100
AcDbEntity
  8
0
  6
Continuous
 62
     7
370
    25
100
AcDbCircle
 10
704.4776601004
 20
531.2479792066
 30
0.0
 40
31.50755777528331
100
AcDbArc
 50
105.0579972479
 51
125.1719294169
  0
LINE
  5
232
330
1F
100
AcDbEntity
  8
0
  6
Continuous
 62
     7
370
    25
100
AcDbLine
 10
686.2873815915
 20
557.0611822134
 30
0.0
 11
686.3283014777
 21
557.0031142004
 31
0.0
  0
SPLINE
  5
233
330
1F
100
AcDbEntity
  8
0
  6
Continuous
 62
     7
370
    25
100
AcDbSpline
210
0.0
220
0.0
230
1.0
 70
     8
 71
     3
 72
     9
 73
     5
 74
     0
 42
0.00000001
 43
0.00000001
 40
0.0
 40
0.0
 40
0.0
 40
0.0
 40
0.4998978730609624
 40
1.0
 40
1.0
 40
1.0
 40
1.0
 10
681.6085338109764
 20
557.8059509288972
 30
0.0
 10
681.4603388950807
 20
557.785984590895
 30
0.0
 10
681.1638885121487
 20
557.7460437568203
 30
0.0
 10
680.9151552833721
 20
557.5798778142498
 30
0.0
 10
680.7907632666205
 20
557.4967778729454
 30
0.0
  0
ARC
  5
234
330
1F
100
AcDbEntity
  8
0
  6
Continuous
 62
     7
370
    25
100
AcDbCircle
 10
698.1620344864
 20
561.7645944401
 30
0.0
 40
0.5000763403827696
100
AcDbArc
 50
93.16262964
 51
101.6913635617
  0
SPLINE
  5
235
330
1F
100
AcDbEntity
  8
0
  6
Continuous
 62
     7
370
    25
100
AcDbSpline
210
0.0
220
0.0
230
1.0
 70
     8
 71
     3
 72
    12
 73
     8
 74
     0
 42
0.00000001
 43
0.00000001
 40
0.0
 40
0.0
 40
0.0
 40
0.0
 40
0.0460726725321159
 40
0.2494576442748312
 40
0.4755636088397377
 40
0.7057929889265024
 40
1.0
 40
1.0
 40
1.0
 40
1.0
 10
669.2476672921194
 20
575.4890590886756
 30
0.0
 10
669.376002701295
 20
575.551563788015
 30
0.0
 10
670.0708668602522
 20
575.8899916281283
 30
0.0
 10
671.4236658297743
 20
576.5055750442688
 30
0.0
 10
673.4315344738559
 20
577.3130343495233
 30
0.0
 10
675.9268062888614
 20
578.1861544670512
 30
0.0
 10
677.8657524769961
 20
578.6835041066943
 30
0.0
 10
678.9534946174326
 20
578.9625155433607
 30
0.0
  0
LINE
  5
236
330
1F
100
AcDbEntity
  8
0
  6
Continuous
 62
     7
370
    25
100
AcDbLine
 10
679.4069546953
 20
577.0149130141
 30
0.0
 11
678.9534946174
 21
578.9625155434
 31
0.0
  0
SPLINE
  5
237
330
1F
100
AcDbEntity
  8
0
  6
Continuous
 62
     7
370
    25
100
AcDbSpline
210
0.0
220
0.0
230
1.0
 70
     8
 71
     3
 72
    13
 73
     9
 74
     0
 42
0.00000001
 43
0.00000001
 40
0.0
 40
0.0
 40
0.0
 40
0.0
 40
0.2574896950994368
 40
0.4890886589321025
 40
0.7206004760683485
 40
0.9447506334961274
 40
0.9460032291293288
 40
1.0
 40
1.0
 40
1.0
 40
1.0
 10
679.4069546953197
 20
577.0149130141467
 30
0.0
 10
678.4882291193317
 20
577.0429759782614
 30
0.0
 10
676.7431563321936
 20
577.0962801599269
 30
0.0
 10
674.2485910862802
 20
576.9317160410889
 30
0.0
 10
671.9329412802794
 20
576.5183420460787
 30
0.0
 10
670.4558326786753
 20
576.0187848595154
 30
0.0
 10
669.5845712341346
 20
575.6445420045854
 30
0.0
 10
669.4145248253117
 20
575.5655615861003
 30
0.0
 10
669.2483336532564
 20
575.4883717859256
 30
0.0
  0
LINE
  5
238
330
1F
100
AcDbEntity
  8
0
  6
Continuous
 62
     7
370
    25
100
AcDbLine
 10
669.2483336533
 20
575.4883717859
 30
0.0
 11
669.2476672921
 21
575.4890590887
 31
0.0
  0
ARC
  5
239
330
1F
100
AcDbEntity
  8
0
  6
Continuous
 62
     7
370
    25
100
AcDbCircle
 10
689.8630251734
 20
532.1062864296
 30
0.0
 40
48.10950076354634
100
AcDbArc
 50
102.8580809319
 51
103.1066633214
  0
LWPOLYLINE
  5
23A
330
1F
100
AcDbEntity
  8
0
  6
Continuous
 62
     7
370
    25
100
AcDbPolyline
 90
        3
 70
   128
 43
0.0
 10
669.2476672921
 20
575.4890590887
 10
669.2043104155
 20
575.516450561
 10
669.0997323423
 20
575.5824485911
  0
ARC
  5
23B
330
1F
100
AcDbEntity
  8
0
  6
Continuous
 62
     7
370
    25
100
AcDbCircle
 10
689.8630251734
 20
532.1062864296
 30
0.0
 40
48.17977797259061
100
AcDbArc
 50
102.8580809319
 51
115.5281512988
  0
LINE
  5
23C
330
1F
100
AcDbEntity
  8
0
  6
Continuous
 62
     7
370
    25
100
AcDbLine
 10
679.1568862089
 20
579.0094062852
 30
0.0
 11
679.141246937
 21
579.0779212418
 31
0.0
  0
LINE
  5
23D
330
1F
100
AcDbEntity
  8
0
  6
Continuous
 62
     7
370
    25
100
AcDbLine
 10
685.5122740111
 20
575.7070286067
 30
0.0
 11
686.6417494286
 21
577.3572003963
 31
0.0
  0
SPLINE
  5
23E
330
1F
100
AcDbEntity
  8
0
  6
Continuous
 62
     7
370
    25
100
AcDbSpline
210
0.0
220
0.0
230
1.0
 70
     8
 71
     3
 72
    14
 73
    10
 74
     0
 42
0.00000001
 43
0.00000001
 40
0.0
 40
0.0
 40
0.0
 40
0.0
 40
0.2256458607195977
 40
0.4518169308148963
 40
0.815776144776343
 40
0.8946140573305373
 40
0.9637846180221654
 40
0.9940799143125669
 40
0.9999999999999999
 40
0.9999999999999999
 40
0.9999999999999999
 40
0.9999999999999999
 10
686.6417494285884
 20
577.3572003963035
 30
0.0
 10
687.4874969756595
 20
576.8121766738022
 30
0.0
 10
689.1809606170633
 20
575.7208606410751
 30
0.0
 10
692.3611827171156
 20
574.1554195562729
 30
0.0
 10
695.0324607802821
 20
573.202040722037
 30
0.0
 10
696.9829892675332
 20
572.680592575908
 30
0.0
 10
697.6270657779751
 20
572.5252119012658
 30
0.0
 10
697.9550166742018
 20
572.4496618404213
 30
0.0
 10
698.0475540068005
 20
572.4281410662762
 30
0.0
 10
698.0626809751866
 20
572.424623090763
 30
0.0
  0
SPLINE
  5
23F
330
1F
100
AcDbEntity
  8
0
  6
Continuous
 62
     7
370
    25
100
AcDbSpline
210
0.0
220
0.0
230
1.0
 70
     8
 71
     3
 72
    11
 73
     7
 74
     0
 42
0.00000001
 43
0.00000001
 40
0.0
 40
0.0
 40
0.0
 40
0.0
 40
0.019556121229571
 40
0.168189199674442
 40
0.5898876540792781
 40
1.0
 40
1.0
 40
1.0
 40
1.0
 10
697.9527395837697
 20
572.41635552867
 30
0.0
 10
697.9546982969177
 20
572.4162974149542
 30
0.0
 10
697.9715438867403
 20
572.4157976175136
 30
0.0
 10
698.0234444504998
 20
572.4149512001001
 30
0.0
 10
698.0727290825653
 20
572.4170404986221
 30
0.0
 10
698.0659990974888
 20
572.4221191398057
 30
0.0
 10
698.0626809751867
 20
572.424623090763
 30
0.0
  0
SPLINE
  5
240
330
1F
100
AcDbEntity
  8
0
  6
Continuous
 62
     7
370
    25
100
AcDbSpline
210
0.0
220
0.0
230
1.0
 70
     8
 71
     3
 72
    17
 73
    13
 74
     0
 42
0.00000001
 43
0.00000001
 40
0.0
 40
0.0
 40
0.0
 40
0.0
 40
0.0068263121770685
 40
0.0088448507297254
 40
0.0223990310416126
 40
0.0309593028397538
 40
0.0563218912149143
 40
0.1198824177066684
 40
0.1957460556357056
 40
0.5558621944880031
 40
0.77803360979772
 40
1.0
 40
1.0
 40
1.0
 40
1.0
 10
697.9527395837697
 20
572.41635552867
 30
0.0
 10
697.949119438608
 20
572.4173937117151
 30
0.0
 10
697.9444288175605
 20
572.4187388851889
 30
0.0
 10
697.9008961048573
 20
572.4263288732637
 30
0.0
 10
697.8263641824249
 20
572.4380803800703
 30
0.0
 10
697.6595319369229
 20
572.4637992752936
 30
0.0
 10
697.2779558198555
 20
572.5223138543157
 30
0.0
 10
696.5950548531213
 20
572.631510838903
 30
0.0
 10
694.4900555362035
 20
572.998683071327
 30
0.0
 10
691.6771209544173
 20
573.6328607552923
 30
0.0
 10
688.2783367398507
 20
574.6458010471509
 30
0.0
 10
686.434011125087
 20
575.3533949678375
 30
0.0
 10
685.5122740110963
 20
575.7070286066647
 30
0.0
  0
LINE
  5
241
330
1F
100
AcDbEntity
  8
0
  6
Continuous
 62
     7
370
    25
100
AcDbLine
 10
681.4188311603
 20
573.3295499909
 30
0.0
 11
681.5621929893
 21
575.9251979603
 31
0.0
  0
LINE
  5
242
330
1F
100
AcDbEntity
  8
0
  6
Continuous
 62
     7
370
    25
100
AcDbLine
 10
681.5621929893
 20
575.9251979603
 30
0.0
 11
685.5122740111
 21
575.7070286067
 31
0.0
  0
LINE
  5
243
330
1F
100
AcDbEntity
  8
0
  6
Continuous
 62
     7
370
    25
100
AcDbLine
 10
678.6003789213
 20
574.3945239687
 30
0.0
 11
680.2093359146
 21
576.4363854697
 31
0.0
  0
LINE
  5
244
330
1F
100
AcDbEntity
  8
0
  6
Continuous
 62
     7
370
    25
100
AcDbLine
 10
669.2483336533
 20
575.4883717859
 30
0.0
 11
669.2489015388
 21
575.487784745
 31
0.0
  0
ARC
  5
245
330
1F
100
AcDbEntity
  8
0
  6
Continuous
 62
     7
370
    25
100
AcDbCircle
 10
673.0350457666
 20
567.3317873286
 30
0.0
 40
11.5915549620674
100
AcDbArc
 50
51.762407147
 51
56.6533814372
  0
LWPOLYLINE
  5
246
330
1F
100
AcDbEntity
  8
0
  6
Continuous
 62
     7
370
    25
100
AcDbPolyline
 90
        4
 70
   128
 43
0.0
 10
698.0626809752
 20
572.4246230908
 10
698.0649232215
 20
572.4419813458
 10
698.0738957044
 20
572.5114142074
 10
698.0802259856
 20
572.5603743534
  0
ARC
  5
247
330
1F
100
AcDbEntity
  8
0
  6
Continuous
 62
     7
370
    25
100
AcDbCircle
 10
704.4776601004
 20
603.4155954506
 30
0.0
 40
31.57783498432761
100
AcDbArc
 50
234.8280705831
 51
235.6099480104
  0
LINE
  5
248
330
1F
100
AcDbEntity
  8
0
  6
Continuous
 62
     7
370
    25
100
AcDbLine
 10
686.2878195629
 20
577.603013954
 30
0.0
 11
686.3283014777
 21
577.6604604568
 31
0.0
  0
ARC
  5
249
330
1F
100
AcDbEntity
  8
0
  6
Continuous
 62
     7
370
    25
100
AcDbCircle
 10
704.4776601004
 20
603.4155954506
 30
0.0
 40
31.50755777528349
100
AcDbArc
 50
234.8280705831
 51
254.9420027521
  0
LINE
  5
24A
330
1F
100
AcDbEntity
  8
0
  6
Continuous
 62
     7
370
    25
100
AcDbLine
 10
698.0802259856
 20
572.5603743534
 30
0.0
 11
696.2921017018
 21
572.9899018567
 31
0.0
  0
LINE
  5
24B
330
1F
100
AcDbEntity
  8
0
  6
Continuous
 62
     7
370
    25
100
AcDbLine
 10
698.1540633949
 20
562.1135186
 30
0.0
 11
698.0802259856
 21
562.1032003037
 31
0.0
  0
SPLINE
  5
24C
330
1F
100
AcDbEntity
  8
0
  6
Continuous
 62
     7
370
    25
100
AcDbSpline
210
0.0
220
0.0
230
1.0
 70
     8
 71
     3
 72
    10
 73
     6
 74
     0
 42
0.00000001
 43
0.00000001
 40
0.0
 40
0.0
 40
0.0
 40
0.0
 40
0.0490769085761659
 40
0.599580584366531
 40
1.0
 40
1.0
 40
1.0
 40
1.0
 10
680.2093359145596
 20
576.436385469698
 30
0.0
 10
680.2282834529286
 20
576.4217627340968
 30
0.0
 10
680.4597686148352
 20
576.2431143919075
 30
0.0
 10
680.9056423896525
 20
576.0090623984863
 30
0.0
 10
681.3676489665369
 20
575.9500480254687
 30
0.0
 10
681.5621929892906
 20
575.9251979603365
 30
0.0
  0
ARC
  5
24D
330
1F
100
AcDbEntity
  8
0
  6
Continuous
 62
     7
370
    25
100
AcDbCircle
 10
698.1640343761
 20
572.9143207878
 30
0.0
 40
0.5000763405298944
100
AcDbArc
 50
258.306520338
 51
266.8373700344
  0
SPLINE
  5
24E
330
1F
100
AcDbEntity
  8
0
  6
Continuous
 62
     7
370
    25
100
AcDbSpline
210
0.0
220
0.0
230
1.0
 70
     8
 71
     3
 72
     9
 73
     5
 74
     0
 42
0.00000001
 43
0.00000001
 40
0.0
 40
0.0
 40
0.0
 40
0.0
 40
0.8458911907785723
 40
1.0
 40
1.0
 40
1.0
 40
1.0
 10
698.0802259855973
 20
572.5603743534493
 30
0.0
 10
698.1010665817083
 20
572.5565595464569
 30
0.0
 10
698.1257040248432
 20
572.5520497382996
 30
0.0
 10
698.1502765520195
 20
572.5503222745486
 30
0.0
 10
698.1540633949221
 20
572.550056057167
 30
0.0
  0
LINE
  5
24F
330
1F
100
AcDbEntity
  8
0
  6
Continuous
 62
     7
370
    25
100
AcDbLine
 10
716.1494835926
 20
571.4838002039
 30
0.0
 11
716.1490255728
 21
571.4838252904
 31
0.0
  0
LINE
  5
250
330
1F
100
AcDbEntity
  8
0
  6
Continuous
 62
     7
370
    25
100
AcDbLine
 10
686.2873815915
 20
557.0611822134
 30
0.0
 11
684.4486407422
 21
556.0642159777
 31
0.0
  0
LINE
  5
251
330
1F
100
AcDbEntity
  8
0
  6
Continuous
 62
     7
370
    25
100
AcDbLine
 10
683.7086163271
 20
557.9219418776
 30
0.0
 11
684.4486407422
 21
556.0642159777
 31
0.0
  0
LINE
  5
252
330
1F
100
AcDbEntity
  8
0
  6
Continuous
 62
     7
370
    25
100
AcDbLine
 10
680.7218460003
 20
557.4428203906
 30
0.0
 11
680.6000122537
 21
555.4468398816
 31
0.0
  0
LINE
  5
253
330
1F
100
AcDbEntity
  8
0
  6
Continuous
 62
     7
370
    25
100
AcDbLine
 10
680.6000122537
 20
555.4468398816
 30
0.0
 11
679.1571050139
 21
555.6551269469
 31
0.0
  0
ARC
  5
254
330
1F
100
AcDbEntity
  8
0
  6
Continuous
 62
     7
370
    25
100
AcDbCircle
 10
681.1440609718
 20
564.3598928528
 30
0.0
 40
6.929946387144411
100
AcDbArc
 50
266.5070253286
 51
291.7198462835
  0
ARC
  5
255
330
1F
100
AcDbEntity
  8
0
  6
Continuous
 62
     7
370
    25
100
AcDbCircle
 10
704.4776601004
 20
603.4155954506
 30
0.0
 40
33.57753037464038
100
AcDbArc
 50
234.8280705831
 51
235.6099480104
  0
ARC
  5
256
330
1F
100
AcDbEntity
  8
0
  6
Continuous
 62
     7
370
    25
100
AcDbCircle
 10
689.8630251734
 20
532.1062864296
 30
0.0
 40
46.10980537323358
100
AcDbArc
 50
102.8580809319
 51
103.1066633214
  0
ARC
  5
257
330
1F
100
AcDbEntity
  8
0
  6
Continuous
 62
     7
370
    25
100
AcDbCircle
 10
681.1440609718
 20
570.3036818044
 30
0.0
 40
6.929946387144299
100
AcDbArc
 50
54.8280705831
 51
102.8580809319
  0
LINE
  5
258
330
1F
100
AcDbEntity
  8
0
  6
Continuous
 62
     7
370
    25
100
AcDbLine
 10
679.6018922139
 20
577.0598547189
 30
0.0
 11
679.1568862089
 21
579.0094062852
 31
0.0
  0
ARC
  5
259
330
1F
100
AcDbEntity
  8
0
  6
Continuous
 62
     7
370
    25
100
AcDbCircle
 10
681.1440609718
 20
570.3036818044
 30
0.0
 40
8.929641777457059
100
AcDbArc
 50
54.8280705831
 51
102.8580809319
  0
LINE
  5
25A
330
1F
100
AcDbEntity
  8
0
  6
Continuous
 62
     7
370
    25
100
AcDbLine
 10
685.1359312117
 20
575.9684085336
 30
0.0
 11
686.2878195629
 21
577.603013954
 31
0.0
  0
ARC
  5
25B
330
1F
100
AcDbEntity
  8
0
  6
Continuous
 62
     7
370
    25
100
AcDbCircle
 10
681.1440609718
 20
564.3598928528
 30
0.0
 40
8.929641777457107
100
AcDbArc
 50
266.5070253286
 51
291.7198462835
  0
ARC
  5
25C
330
1F
100
AcDbEntity
  8
0
  6
Continuous
 62
     7
370
    25
100
AcDbCircle
 10
681.1440609718
 20
564.3598928528
 30
0.0
 40
8.999918986501363
100
AcDbArc
 50
257.1419190681
 51
305.1719294169
  0
ARC
  5
25D
330
1F
100
AcDbEntity
  8
0
  6
Continuous
 62
     7
370
    25
100
AcDbCircle
 10
681.1440609718
 20
570.3036818044
 30
0.0
 40
8.999918986501244
100
AcDbArc
 50
54.8280705831
 51
102.8580809319
  0
SPLINE
  5
25E
330
1F
100
AcDbEntity
  8
0
  6
Continuous
 62
     7
370
    25
100
AcDbSpline
210
0.0
220
0.0
230
1.0
 70
     8
 71
     3
 72
    11
 73
     7
 74
     0
 42
0.00000001
 43
0.00000001
 40
0.0
 40
0.0
 40
0.0
 40
0.0
 40
0.2200386424382255
 40
0.6637869905998169
 40
0.8890365590789576
 40
1.0
 40
1.0
 40
1.0
 40
1.0
 10
463.1574556219987
 20
561.3114690216222
 30
0.0
 10
462.9532341589972
 20
561.576487632881
 30
0.0
 10
462.3371625961137
 20
562.3759649631858
 30
0.0
 10
461.8136132450965
 20
563.6391342337135
 30
0.0
 10
461.5619840453354
 20
564.8057040470378
 30
0.0
 10
461.5826912400577
 20
565.3169838456972
 30
0.0
 10
461.5895254240838
 20
565.4857261731695
 30
0.0
  0
SPLINE
  5
25F
330
1F
100
AcDbEntity
  8
0
  6
Continuous
 62
     7
370
    25
100
AcDbSpline
210
0.0
220
0.0
230
1.0
 70
     8
 71
     3
 72
     9
 73
     5
 74
     0
 42
0.00000001
 43
0.00000001
 40
0.0
 40
0.0
 40
0.0
 40
0.0
 40
0.9209630919903056
 40
1.0
 40
1.0
 40
1.0
 40
1.0
 10
461.5174132587514
 20
561.6317922972557
 30
0.0
 10
462.0318347966243
 20
561.5749652383372
 30
0.0
 10
462.5904039101391
 20
561.5132612901413
 30
0.0
 10
463.1159204218084
 20
561.3262498292532
 30
0.0
 10
463.1574556219988
 20
561.3114690216222
 30
0.0
  0
SPLINE
  5
260
330
1F
100
AcDbEntity
  8
0
  6
Continuous
 62
     7
370
    25
100
AcDbSpline
210
0.0
220
0.0
230
1.0
 70
     8
 71
     3
 72
    10
 73
     6
 74
     0
 42
0.00000001
 43
0.00000001
 40
0.0
 40
0.0
 40
0.0
 40
0.0
 40
0.2596150688488836
 40
0.629760644481066
 40
0.9999999999999999
 40
0.9999999999999999
 40
0.9999999999999999
 40
0.9999999999999999
 10
414.3422523048142
 20
564.2233498662448
 30
0.0
 10
418.4200725235373
 20
563.9235957291464
 30
0.0
 10
428.3118353569025
 20
563.1964678339823
 30
0.0
 10
444.0414080395757
 20
562.3706209640922
 30
0.0
 10
455.6915863008404
 20
561.8780893148264
 30
0.0
 10
461.5174132587514
 20
561.6317922972557
 30
0.0
  0
SPLINE
  5
261
330
1F
100
AcDbEntity
  8
0
  6
Continuous
 62
     7
370
    25
100
AcDbSpline
210
0.0
220
0.0
230
1.0
 70
     8
 71
     3
 72
    11
 73
     7
 74
     0
 42
0.00000001
 43
0.00000001
 40
0.0
 40
0.0
 40
0.0
 40
0.0
 40
0.061464119541392
 40
0.4999988937835378
 40
0.9375097801832794
 40
1.0
 40
1.0
 40
1.0
 40
1.0
 10
414.3422523048144
 20
569.9493822132467
 30
0.0
 10
414.330583108612
 20
569.8329252407947
 30
0.0
 10
414.2356564223426
 20
568.8855699734635
 30
0.0
 10
414.1519535950765
 20
567.0883257750153
 30
0.0
 10
414.2355235185966
 20
565.2891277507745
 30
0.0
 10
414.3303952236419
 20
564.3417529263412
 30
0.0
 10
414.3422523048142
 20
564.2233498662448
 30
0.0
  0
SPLINE
  5
262
330
1F
100
AcDbEntity
  8
0
  6
Continuous
 62
     7
370
    25
100
AcDbSpline
210
0.0
220
0.0
230
1.0
 70
     8
 71
     3
 72
    10
 73
     6
 74
     0
 42
0.00000001
 43
0.00000001
 40
0.0
 40
0.0
 40
0.0
 40
0.0
 40
0.2594618540778875
 40
0.6296073956705976
 40
1.0
 40
1.0
 40
1.0
 40
1.0
 10
461.5174132587514
 20
572.540939782234
 30
0.0
 10
457.4345450206559
 20
572.3735554727084
 30
0.0
 10
447.5271000615913
 20
571.9673824744807
 30
0.0
 10
431.795803500122
 20
571.1805991167502
 30
0.0
 10
420.1613965499106
 20
570.3598791189087
 30
0.0
 10
414.3422523048144
 20
569.9493822132467
 30
0.0
  0
SPLINE
  5
263
330
1F
100
AcDbEntity
  8
0
  6
Continuous
 62
     7
370
    25
100
AcDbSpline
210
0.0
220
0.0
230
1.0
 70
     8
 71
     3
 72
     9
 73
     5
 74
     0
 42
0.00000001
 43
0.00000001
 40
0.0
 40
0.0
 40
0.0
 40
0.0
 40
0.0790369080192139
 40
1.0
 40
1.0
 40
1.0
 40
1.0
 10
463.1574556219979
 20
572.8612630578673
 30
0.0
 10
463.1159204218026
 20
572.8464822502347
 30
0.0
 10
462.5904039101334
 20
572.6594707893466
 30
0.0
 10
462.0318347966188
 20
572.5977668411514
 30
0.0
 10
461.5174132587514
 20
572.540939782234
 30
0.0
  0
SPLINE
  5
264
330
1F
100
AcDbEntity
  8
0
  6
Continuous
 62
     7
370
    25
100
AcDbSpline
210
0.0
220
0.0
230
1.0
 70
     8
 71
     3
 72
    11
 73
     7
 74
     0
 42
0.00000001
 43
0.00000001
 40
0.0
 40
0.0
 40
0.0
 40
0.0
 40
0.0728838064943292
 40
0.4140719411596029
 40
0.9209668754550567
 40
1.0
 40
1.0
 40
1.0
 40
1.0
 10
461.5895254240875
 20
568.6870059063053
 30
0.0
 10
461.5818102749499
 20
568.7974523405445
 30
0.0
 10
461.5379784975852
 20
569.4249273808755
 30
0.0
 10
461.8824702090233
 20
570.8079194113404
 30
0.0
 10
462.5221595585098
 20
572.077850929118
 30
0.0
 10
463.0819483079425
 20
572.768151595291
 30
0.0
 10
463.1574556219979
 20
572.8612630578673
 30
0.0
  0
SPLINE
  5
265
330
1F
100
AcDbEntity
  8
0
  6
Continuous
 62
     7
370
    25
100
AcDbSpline
210
0.0
220
0.0
230
1.0
 70
     8
 71
     3
 72
    10
 73
     6
 74
     0
 42
0.00000001
 43
0.00000001
 40
0.0
 40
0.0
 40
0.0
 40
0.0
 40
0.3880207377811389
 40
0.979063776650686
 40
1.0
 40
1.0
 40
1.0
 40
1.0
 10
461.5895254240838
 20
565.4857261731695
 30
0.0
 10
461.6628399548431
 20
565.8965660350252
 30
0.0
 10
461.8478290401664
 20
566.9332076048736
 30
0.0
 10
461.7521221143355
 20
568.0269769264447
 30
0.0
 10
461.5949039630876
 20
568.6651727951643
 30
0.0
 10
461.5895254240875
 20
568.6870059063053
 30
0.0
  0
ARC
  5
266
330
1F
100
AcDbEntity
  8
0
  6
Continuous
 62
     7
370
    25
100
AcDbCircle
 10
469.8350457666
 20
567.0863660397
 30
0.0
 40
8.399443654264505
100
AcDbArc
 50
190.985757993
 51
169.0142420071
  0
SPLINE
  5
267
330
1F
100
AcDbEntity
  8
0
  6
Continuous
 62
     7
370
    25
100
AcDbSpline
210
0.0
220
0.0
230
1.0
 70
     8
 71
     3
 72
     9
 73
     5
 74
     0
 42
0.00000001
 43
0.00000001
 40
0.0
 40
0.0
 40
0.0
 40
0.0
 40
0.6817923421274312
 40
1.0
 40
1.0
 40
1.0
 40
1.0
 10
463.1574556219979
 20
572.8612630578673
 30
0.0
 10
463.299719182641
 20
573.0511734129724
 30
0.0
 10
463.5083803128014
 20
573.329719156846
 30
0.0
 10
463.7378061466818
 20
573.5626235297889
 30
0.0
 10
463.8108112039363
 20
573.6367354848114
 30
0.0
  0
ARC
  5
268
330
1F
100
AcDbEntity
  8
0
  6
Continuous
 62
     7
370
    25
100
AcDbCircle
 10
469.8350457666
 20
567.0863660397
 30
0.0
 40
8.899367501836336
100
AcDbArc
 50
227.3959191961
 51
132.6040808039
  0
LINE
  5
269
330
1F
100
AcDbEntity
  8
0
  6
Continuous
 62
     7
370
    25
100
AcDbLine
 10
463.8108112039
 20
560.5359965947
 30
0.0
 11
463.157455622
 21
561.3114690216
 31
0.0
  0
SPLINE
  5
26A
330
1F
100
AcDbEntity
  8
0
  6
Continuous
 62
     7
370
    25
100
AcDbSpline
210
0.0
220
0.0
230
1.0
 70
     8
 71
     3
 72
    10
 73
     6
 74
     0
 42
0.00000001
 43
0.00000001
 40
0.0
 40
0.0
 40
0.0
 40
0.0
 40
0.3702896688583046
 40
0.7405318123903298
 40
0.9999999999999999
 40
0.9999999999999999
 40
0.9999999999999999
 40
0.9999999999999999
 10
414.3307328416359
 20
570.39224179408
 30
0.0
 10
420.1507966878544
 20
570.7124328086063
 30
0.0
 10
431.790177396358
 20
571.3527737423119
 30
0.0
 10
447.5090458031327
 20
572.2220080741752
 30
0.0
 10
457.4062196191425
 20
572.7707490757842
 30
0.0
 10
461.4842879396066
 20
572.9968543596161
 30
0.0
  0
ARC
  5
26B
330
1F
100
AcDbEntity
  8
0
  6
Continuous
 62
     7
370
    25
100
AcDbCircle
 10
454.2691987322
 20
572.2434679929
 30
0.0
 40
7.254316183327737
100
AcDbArc
 50
2.3501399448
 51
5.9611177313
  0
ARC
  5
26C
330
1F
100
AcDbEntity
  8
0
  6
Continuous
 62
     7
370
    25
100
AcDbCircle
 10
418.5912553828
 20
570.2814849701
 30
0.0
 40
4.26196191891074
100
AcDbArc
 50
178.5108705387
 51
184.4691613065
  0
SPLINE
  5
26D
330
1F
100
AcDbEntity
  8
0
  6
Continuous
 62
     7
370
    25
100
AcDbSpline
210
0.0
220
0.0
230
1.0
 70
     8
 71
     3
 72
    10
 73
     6
 74
     0
 42
0.00000001
 43
0.00000001
 40
0.0
 40
0.0
 40
0.0
 40
0.0
 40
0.3702717503651152
 40
0.7405122151371749
 40
1.0
 40
1.0
 40
1.0
 40
1.0
 10
461.4842879396066
 20
561.1758777198736
 30
0.0
 10
455.6646158779375
 20
561.4984062055416
 30
0.0
 10
444.0257634796406
 20
562.1434359252846
 30
0.0
 10
428.306623895686
 20
563.0122504127636
 30
0.0
 10
418.4091264719873
 20
563.5563053235304
 30
0.0
 10
414.3307328416394
 20
563.7804902854095
 30
0.0
  0
ARC
  5
26E
330
1F
100
AcDbEntity
  8
0
  6
Continuous
 62
     7
370
    25
100
AcDbCircle
 10
418.5912553857
 20
563.8912471094
 30
0.0
 40
4.26196192178327
100
AcDbArc
 50
175.530838696
 51
181.4891294598
  0
ARC
  5
26F
330
1F
100
AcDbEntity
  8
0
  6
Continuous
 62
     7
370
    25
100
AcDbCircle
 10
454.2691987322
 20
561.9292640866
 30
0.0
 40
7.2543161834128
100
AcDbArc
 50
354.0388822687
 51
357.6498600551
  0
SPLINE
  5
270
330
1F
100
AcDbEntity
  8
0
  6
Continuous
 62
     7
370
    25
100
AcDbSpline
210
0.0
220
0.0
230
1.0
 70
     8
 71
     3
 72
    12
 73
     8
 74
     0
 42
0.00000001
 43
0.00000001
 40
0.0
 40
0.0
 40
0.0
 40
0.0
 40
0.1224290494151349
 40
0.3423522449770471
 40
0.5614228816909413
 40
0.7807229538533572
 40
1.0
 40
1.0
 40
1.0
 40
1.0
 10
412.4065248719667
 20
564.3340242359011
 30
0.0
 10
412.4155289478308
 20
564.3316655514602
 30
0.0
 10
412.4407073315618
 20
564.3250698871353
 30
0.0
 10
412.6566950152065
 20
564.3080619193962
 30
0.0
 10
413.0925931449356
 20
564.2825509452417
 30
0.0
 10
413.6765187583658
 20
564.2529987626824
 30
0.0
 10
414.1203488899339
 20
564.2332324858033
 30
0.0
 10
414.3422523048142
 20
564.2233498662448
 30
0.0
  0
SPLINE
  5
271
330
1F
100
AcDbEntity
  8
0
  6
Continuous
 62
     7
370
    25
100
AcDbSpline
210
0.0
220
0.0
230
1.0
 70
     8
 71
     3
 72
    11
 73
     7
 74
     0
 42
0.00000001
 43
0.00000001
 40
0.0
 40
0.0
 40
0.0
 40
0.0
 40
0.0800485240044433
 40
0.5000005853538798
 40
0.9209248322279645
 40
1.0
 40
1.0
 40
1.0
 40
1.0
 10
412.4065248719667
 20
564.3340242359011
 30
0.0
 10
412.4068111163809
 20
564.4802686610018
 30
0.0
 10
412.4085990615854
 20
565.3937433198348
 30
0.0
 10
412.4098347584154
 20
567.0881529075933
 30
0.0
 10
412.4085970603205
 20
568.7807797594479
 30
0.0
 10
412.4068078383526
 20
569.6942431350918
 30
0.0
 10
412.4065248719667
 20
569.8387078435832
 30
0.0
  0
SPLINE
  5
272
330
1F
100
AcDbEntity
  8
0
  6
Continuous
 62
     7
370
    25
100
AcDbSpline
210
0.0
220
0.0
230
1.0
 70
     8
 71
     3
 72
    12
 73
     8
 74
     0
 42
0.00000001
 43
0.00000001
 40
0.0
 40
0.0
 40
0.0
 40
0.0
 40
0.1130367476169362
 40
0.3328594693548023
 40
0.5544127937945006
 40
0.7774207483513244
 40
1.0
 40
1.0
 40
1.0
 40
1.0
 10
414.3422523048144
 20
569.9493822132467
 30
0.0
 10
414.2281814648275
 20
569.9443669675453
 30
0.0
 10
413.8922769022196
 20
569.9295985664895
 30
0.0
 10
413.3582090458249
 20
569.9040063623803
 30
0.0
 10
412.8416834079377
 20
569.8761310995092
 30
0.0
 10
412.4847886907832
 20
569.8526892259187
 30
0.0
 10
412.4325960732648
 20
569.843365314159
 30
0.0
 10
412.4065248719667
 20
569.8387078435832
 30
0.0
  0
SPLINE
  5
273
330
1F
100
AcDbEntity
  8
0
  6
Continuous
 62
     7
370
    25
100
AcDbSpline
210
0.0
220
0.0
230
1.0
 70
     8
 71
     3
 72
     9
 73
     5
 74
     0
 42
0.00000001
 43
0.00000001
 40
0.0
 40
0.0
 40
0.0
 40
0.0
 40
0.500010612381544
 40
1.0
 40
1.0
 40
1.0
 40
1.0
 10
464.3104190527793
 20
560.104164905432
 30
0.0
 10
463.8806976859584
 20
560.3920054435251
 30
0.0
 10
463.0212731933978
 20
560.9676743012767
 30
0.0
 10
461.9966091081196
 20
561.1064775623635
 30
0.0
 10
461.4842879396066
 20
561.1758777198736
 30
0.0
  0
SPLINE
  5
274
330
1F
100
AcDbEntity
  8
0
  6
Continuous
 62
     7
370
    25
100
AcDbSpline
210
0.0
220
0.0
230
1.0
 70
     8
 71
     3
 72
     9
 73
     5
 74
     0
 42
0.00000001
 43
0.00000001
 40
0.0
 40
0.0
 40
0.0
 40
0.0
 40
0.9838702326459385
 40
1.0
 40
1.0
 40
1.0
 40
1.0
 10
463.8108112039363
 20
560.5359965946782
 30
0.0
 10
463.972152018871
 20
560.3911641816594
 30
0.0
 10
464.1361378877195
 20
560.2439573568024
 30
0.0
 10
464.3076525610014
 20
560.1063839327559
 30
0.0
 10
464.3104190527793
 20
560.104164905432
 30
0.0
  0
SPLINE
  5
275
330
1F
100
AcDbEntity
  8
0
  6
Continuous
 62
     7
370
    25
100
AcDbSpline
210
0.0
220
0.0
230
1.0
 70
     8
 71
     3
 72
     9
 73
     5
 74
     0
 42
0.00000001
 43
0.00000001
 40
0.0
 40
0.0
 40
0.0
 40
0.0
 40
0.5055561057107305
 40
1.0
 40
1.0
 40
1.0
 40
1.0
 10
461.4842879396066
 20
572.9968543596161
 30
0.0
 10
462.0023474569397
 20
573.0675103938861
 30
0.0
 10
463.027079453015
 20
573.2072694304635
 30
0.0
 10
463.8858200217766
 20
573.7836027052593
 30
0.0
 10
464.3104190527793
 20
574.0685671740578
 30
0.0
  0
SPLINE
  5
276
330
1F
100
AcDbEntity
  8
0
  6
Continuous
 62
     7
370
    25
100
AcDbSpline
210
0.0
220
0.0
230
1.0
 70
     8
 71
     3
 72
     9
 73
     5
 74
     0
 42
0.00000001
 43
0.00000001
 40
0.0
 40
0.0
 40
0.0
 40
0.0
 40
0.0161297673533178
 40
0.9999999999999999
 40
0.9999999999999999
 40
0.9999999999999999
 40
0.9999999999999999
 10
464.3104190527793
 20
574.0685671740578
 30
0.0
 10
464.3076525610015
 20
574.0663481467338
 30
0.0
 10
464.1361378877154
 20
573.9287747226842
 30
0.0
 10
463.972152018869
 20
573.781567897829
 30
0.0
 10
463.8108112039363
 20
573.6367354848114
 30
0.0
  0
SPLINE
  5
277
330
1F
100
AcDbEntity
  8
0
  6
Continuous
 62
     7
370
    25
100
AcDbSpline
210
0.0
220
0.0
230
1.0
 70
     8
 71
     3
 72
    12
 73
     8
 74
     0
 42
0.00000001
 43
0.00000001
 40
0.0
 40
0.0
 40
0.0
 40
0.0
 40
0.2230315344150378
 40
0.4461337558340359
 40
0.6675099896777023
 40
0.8870667292265011
 40
1.0
 40
1.0
 40
1.0
 40
1.0
 10
412.8788791370512
 20
570.3378709146316
 30
0.0
 10
412.8984129231771
 20
570.3359806673368
 30
0.0
 10
412.9374866864136
 20
570.3321995736575
 30
0.0
 10
413.2050758684697
 20
570.3391424099281
 30
0.0
 10
413.5926049522949
 20
570.354731232418
 30
0.0
 10
413.9933270647579
 20
570.3740685124822
 30
0.0
 10
414.2451864870158
 20
570.3876341136587
 30
0.0
 10
414.3307328416359
 20
570.39224179408
 30
0.0
  0
ARC
  5
278
330
1F
100
AcDbEntity
  8
0
  6
Continuous
 62
     7
370
    25
100
AcDbCircle
 10
412.9066247596
 20
569.8385412582
 30
0.0
 40
0.5000999153469704
100
AcDbArc
 50
93.1804119247
 51
179.9809145383
  0
SPLINE
  5
279
330
1F
100
AcDbEntity
  8
0
  6
Continuous
 62
     7
370
    25
100
AcDbSpline
210
0.0
220
0.0
230
1.0
 70
     8
 71
     3
 72
    12
 73
     8
 74
     0
 42
0.00000001
 43
0.00000001
 40
0.0
 40
0.0
 40
0.0
 40
0.0
 40
0.2190444340109334
 40
0.4380981679380241
 40
0.6571027493691853
 40
0.8772791087290019
 40
1.0
 40
1.0
 40
1.0
 40
1.0
 10
414.3307328416394
 20
563.7804902854095
 30
0.0
 10
414.1643151008685
 20
563.7893190983593
 30
0.0
 10
413.8314725537694
 20
563.8069770991016
 30
0.0
 10
413.3933141111263
 20
563.8264955885106
 30
0.0
 10
413.0663482843666
 20
563.8378013721428
 30
0.0
 10
412.9045044073525
 20
563.8396252402196
 30
0.0
 10
412.8856330749403
 20
563.8361168108947
 30
0.0
 10
412.8788791370512
 20
563.8348611648581
 30
0.0
  0
ARC
  5
27A
330
1F
100
AcDbEntity
  8
0
  6
Continuous
 62
     7
370
    25
100
AcDbCircle
 10
412.9066247596
 20
564.3341908213
 30
0.0
 40
0.5000999153469722
100
AcDbArc
 50
180.0190854623
 51
266.8195880753
  0
LINE
  5
27B
330
1F
100
AcDbEntity
  8
0
  6
Continuous
 62
     7
370
    25
100
AcDbLine
 10
461.4842879396
 20
572.9968543596
 30
0.0
 11
461.4573017579
 21
573.068144635
 31
0.0
  0
LINE
  5
27C
330
1F
100
AcDbEntity
  8
0
  6
Continuous
 62
     7
370
    25
100
AcDbLine
 10
412.8741887764
 20
570.3423093677
 30
0.0
 11
412.8788791371
 21
570.3378709146
 31
0.0
  0
ELLIPSE
  5
27D
330
1F
100
AcDbEntity
  8
0
  6
Continuous
 62
     7
370
    25
100
AcDbEllipse
 10
414.3739603191
 20
570.4256018177
 30
0.0
 11
1.499999304622804
 21
0.0828726334386829
 31
0.0
210
0.0
220
0.0
230
1.0
 40
0.0174284859
 41
2.255125316696336
 42
3.158083049615214
  0
LINE
  5
27E
330
1F
100
AcDbEntity
  8
0
  6
Continuous
 62
     7
370
    25
100
AcDbLine
 10
416.8895749881
 20
570.6343614057
 30
0.0
 11
413.4246117787
 21
570.3934701267
 31
0.0
  0
LINE
  5
27F
330
1F
100
AcDbEntity
  8
0
  6
Continuous
 62
     7
370
    25
100
AcDbLine
 10
416.8895749881
 20
570.6342630145
 30
0.0
 11
416.8895749881
 21
570.6343614057
 31
0.0
  0
ELLIPSE
  5
280
330
1F
100
AcDbEntity
  8
0
  6
Continuous
 62
     7
370
    25
100
AcDbEllipse
 10
426.3390614091
 20
570.963909066
 30
0.0
 11
14.49999327802044
 21
0.8011021232407529
 31
0.0
210
0.0
220
0.0
230
1.0
 40
0.0174284859
 41
1.543516838852435
 42
2.279642175407482
  0
ELLIPSE
  5
281
330
1F
100
AcDbEntity
  8
0
  6
Continuous
 62
     7
370
    25
100
AcDbEllipse
 10
427.6600713246
 20
571.9141926152
 30
0.0
 11
35.70262504606006
 21
1.972514619921981
 31
0.0
210
0.0
220
0.0
230
1.0
 40
0.0174284859
 41
4.685109492442207
 42
5.167309992307954
  0
ELLIPSE
  5
282
330
1F
100
AcDbEntity
  8
0
  6
Continuous
 62
     7
370
    25
100
AcDbEllipse
 10
446.6802987967
 20
572.286588675
 30
0.0
 11
7.499996523114021
 21
0.4143631671935282
 31
0.0
210
0.0
220
0.0
230
1.0
 40
0.0174284859
 41
1.834826681007908
 42
2.025717338717969
  0
LINE
  5
283
330
1F
100
AcDbEntity
  8
0
  6
Continuous
 62
     7
370
    25
100
AcDbLine
 10
444.7356463956
 20
572.1542442238
 30
0.0
 11
444.7160281383
 21
572.3046347683
 31
0.0
  0
SPLINE
  5
284
330
1F
100
AcDbEntity
  8
0
  6
Continuous
 62
     7
370
    25
100
AcDbSpline
210
0.0
220
0.0
230
1.0
 70
     8
 71
     3
 72
    10
 73
     6
 74
     0
 42
0.00000001
 43
0.00000001
 40
0.0
 40
0.0
 40
0.0
 40
0.0
 40
0.0186368637457253
 40
0.3939469944633057
 40
1.0
 40
1.0
 40
1.0
 40
1.0
 10
444.9194176813369
 20
572.1547305910201
 30
0.0
 10
444.9169614740882
 20
572.1546428405406
 30
0.0
 10
444.8650420376112
 20
572.1527879663478
 30
0.0
 10
444.7610431891333
 20
572.1501079849696
 30
0.0
 10
444.745342531784
 20
572.1526650663671
 30
0.0
 10
444.7356463956405
 20
572.154244223775
 30
0.0
  0
LINE
  5
285
330
1F
100
AcDbEntity
  8
0
  6
Continuous
 62
     7
370
    25
100
AcDbLine
 10
461.4573017579
 20
573.068144635
 30
0.0
 11
444.9194176813
 21
572.154730591
 31
0.0
  0
LINE
  5
286
330
1F
100
AcDbEntity
  8
0
  6
Continuous
 62
     7
370
    25
100
AcDbLine
 10
444.9173519494
 20
562.0017978396
 30
0.0
 11
461.4512603729
 21
561.0886033774
 31
0.0
  0
SPLINE
  5
287
330
1F
100
AcDbEntity
  8
0
  6
Continuous
 62
     7
370
    25
100
AcDbSpline
210
0.0
220
0.0
230
1.0
 70
     8
 71
     3
 72
    11
 73
     7
 74
     0
 42
0.00000001
 43
0.00000001
 40
0.0
 40
0.0
 40
0.0
 40
0.0
 40
0.4177469294495291
 40
0.8392770662410922
 40
0.9817832068819584
 40
1.0
 40
1.0
 40
1.0
 40
1.0
 10
444.7336465087686
 20
562.0031472849282
 30
0.0
 10
444.7382835368005
 20
562.0042304761118
 30
0.0
 10
444.7475995868018
 20
562.0064066680949
 30
0.0
 10
444.823096052552
 20
562.0052044912035
 30
0.0
 10
444.893356253124
 20
562.0027339638634
 30
0.0
 10
444.9149090897816
 20
562.0018931409065
 30
0.0
 10
444.9173519494116
 20
562.001797839648
 30
0.0
  0
LINE
  5
288
330
1F
100
AcDbEntity
  8
0
  6
Continuous
 62
     7
370
    25
100
AcDbLine
 10
444.7160281383
 20
561.8680973112
 30
0.0
 11
444.7336465088
 21
562.0031472849
 31
0.0
  0
ELLIPSE
  5
289
330
1F
100
AcDbEntity
  8
0
  6
Continuous
 62
     7
370
    25
100
AcDbEllipse
 10
446.6802987967
 20
561.8861434045
 30
0.0
 11
7.499996523114022
 21
-0.4143631671934145
 31
0.0
210
0.0
220
0.0
230
1.0
 40
0.0174284859
 41
4.257467968461604
 42
4.4483586261719
  0
ELLIPSE
  5
28A
330
1F
100
AcDbEntity
  8
0
  6
Continuous
 62
     7
370
    25
100
AcDbEllipse
 10
427.6600713246
 20
562.2585394643
 30
0.0
 11
35.70262504606001
 21
-1.972514619921981
 31
0.0
210
0.0
220
0.0
230
1.0
 40
0.0174284859
 41
1.11587531487187
 42
1.598075814737371
  0
ELLIPSE
  5
28B
330
1F
100
AcDbEntity
  8
0
  6
Continuous
 62
     7
370
    25
100
AcDbEllipse
 10
426.3390614091
 20
563.2088230135
 30
0.0
 11
14.49999327802044
 21
-0.8011021232406392
 31
0.0
210
0.0
220
0.0
230
1.0
 40
0.0174284859
 41
4.003543131771957
 42
4.739668468327164
  0
LINE
  5
28C
330
1F
100
AcDbEntity
  8
0
  6
Continuous
 62
     7
370
    25
100
AcDbLine
 10
416.8895749881
 20
563.5383706738
 30
0.0
 11
416.8895749881
 21
563.538469065
 31
0.0
  0
LINE
  5
28D
330
1F
100
AcDbEntity
  8
0
  6
Continuous
 62
     7
370
    25
100
AcDbLine
 10
413.4246117787
 20
563.7792619528
 30
0.0
 11
416.8895749881
 21
563.5383706738
 31
0.0
  0
ELLIPSE
  5
28E
330
1F
100
AcDbEntity
  8
0
  6
Continuous
 62
     7
370
    25
100
AcDbEllipse
 10
414.3739603191
 20
563.7471302618
 30
0.0
 11
1.499999304622804
 21
-0.0828726334386829
 31
0.0
210
0.0
220
0.0
230
1.0
 40
0.0174284859
 41
3.125102257569506
 42
4.028059990480771
  0
LINE
  5
28F
330
1F
100
AcDbEntity
  8
0
  6
Continuous
 62
     7
370
    25
100
AcDbLine
 10
412.8788791371
 20
563.8348611649
 30
0.0
 11
412.8741887764
 21
563.8304227118
 31
0.0
  0
LINE
  5
290
330
1F
100
AcDbEntity
  8
0
  6
Continuous
 62
     7
370
    25
100
AcDbLine
 10
461.4512603729
 20
561.0886033774
 30
0.0
 11
461.4842879396
 21
561.1758777199
 31
0.0
  0
SPLINE
  5
291
330
1F
100
AcDbEntity
  8
0
  6
Continuous
 62
     7
370
    25
100
AcDbSpline
210
0.0
220
0.0
230
1.0
 70
     8
 71
     3
 72
     9
 73
     5
 74
     0
 42
0.00000001
 43
0.00000001
 40
0.0
 40
0.0
 40
0.0
 40
0.0
 40
0.5001021276704695
 40
1.0
 40
1.0
 40
1.0
 40
1.0
 10
464.2772001867238
 20
574.1342586210178
 30
0.0
 10
463.8482524110165
 20
573.8477329869294
 30
0.0
 10
462.9905320535659
 20
573.2747987436317
 30
0.0
 10
461.9683089249508
 20
573.1370199571775
 30
0.0
 10
461.4573017579101
 20
573.0681446349769
 30
0.0
  0
LINE
  5
292
330
1F
100
AcDbEntity
  8
0
  6
Continuous
 62
     7
370
    25
100
AcDbLine
 10
464.2772001867
 20
574.134258621
 30
0.0
 11
464.3104190528
 21
574.0685671741
 31
0.0
  0
SPLINE
  5
293
330
1F
100
AcDbEntity
  8
0
  6
Continuous
 62
     7
370
    25
100
AcDbSpline
210
0.0
220
0.0
230
1.0
 70
     8
 71
     3
 72
     9
 73
     5
 74
     0
 42
0.00000001
 43
0.00000001
 40
0.0
 40
0.0
 40
0.0
 40
0.0
 40
0.400722737156528
 40
1.0
 40
1.0
 40
1.0
 40
1.0
 10
461.4512603728584
 20
561.0886033774335
 30
0.0
 10
461.8599464962677
 20
561.0401961153678
 30
0.0
 10
462.8798190553075
 20
560.919396226624
 30
0.0
 10
463.7488950991334
 20
560.3592889532704
 30
0.0
 10
464.2697126118803
 20
560.0236293995963
 30
0.0
  0
LINE
  5
294
330
1F
100
AcDbEntity
  8
0
  6
Continuous
 62
     7
370
    25
100
AcDbLine
 10
464.3104190528
 20
560.1041649054
 30
0.0
 11
464.2697126119
 21
560.0236293996
 31
0.0
  0
ARC
  5
295
330
1F
100
AcDbEntity
  8
0
  6
Continuous
 62
     7
370
    25
100
AcDbCircle
 10
469.8350457666
 20
567.0863660397
 30
0.0
 40
8.975658044222202
100
AcDbArc
 50
65.1648853947
 51
128.2586979829
  0
LWPOLYLINE
  5
296
330
1F
100
AcDbEntity
  8
0
  6
Continuous
 62
     7
370
    25
100
AcDbPolyline
 90
        3
 70
   128
 43
0.0
 10
473.7703591908
 20
575.337025763
 10
473.6657776267
 20
575.2707733518
 10
473.604897084
 20
575.2319573855
  0
ARC
  5
297
330
1F
100
AcDbEntity
  8
0
  6
Continuous
 62
     7
370
    25
100
AcDbCircle
 10
469.8350457666
 20
567.0863660397
 30
0.0
 40
9.14112015109221
100
AcDbArc
 50
295.4997164176
 51
64.5002794289
  0
LWPOLYLINE
  5
298
330
1F
100
AcDbEntity
  8
0
  6
Continuous
 62
     7
370
    25
100
AcDbPolyline
 90
        3
 70
   128
 43
0.0
 10
473.6211899944
 20
558.9303686233
 10
473.6657776267
 20
558.9019587277
 10
473.7703591911
 20
558.8357063163
  0
ARC
  5
299
330
1F
100
AcDbEntity
  8
0
  6
Continuous
 62
     7
370
    25
100
AcDbCircle
 10
469.8350457666
 20
567.0863660397
 30
0.0
 40
8.991950954660686
100
AcDbArc
 50
231.762407147
 51
294.9014811666
  0
LINE
  5
29A
330
1F
100
AcDbEntity
  8
0
  6
Continuous
 62
     7
370
    25
100
AcDbLine
 10
412.4018345113
 20
564.3295857828
 30
0.0
 11
412.406524872
 21
564.3340242359
 31
0.0
  0
LINE
  5
29B
330
1F
100
AcDbEntity
  8
0
  6
Continuous
 62
     7
370
    25
100
AcDbLine
 10
412.4018345113
 20
569.8431462967
 30
0.0
 11
412.4018345113
 21
564.3295857828
 31
0.0
  0
LINE
  5
29C
330
1F
100
AcDbEntity
  8
0
  6
Continuous
 62
     7
370
    25
100
AcDbLine
 10
412.406524872
 20
569.8387078436
 30
0.0
 11
412.4018345113
 21
569.8431462967
 31
0.0
  0
ARC
  5
29D
330
1F
100
AcDbEntity
  8
0
  6
Continuous
 62
     7
370
    25
100
AcDbCircle
 10
412.9019343989
 20
564.3297523682
 30
0.0
 40
0.5000999153469574
100
AcDbArc
 50
180.0190854617
 51
266.8195880753
  0
ARC
  5
29E
330
1F
100
AcDbEntity
  8
0
  6
Continuous
 62
     7
370
    25
100
AcDbCircle
 10
412.9019343989
 20
569.8429797113
 30
0.0
 40
0.5000999153467998
100
AcDbArc
 50
93.1804119247
 51
179.9809145383
  0
LINE
  5
29F
330
1F
100
AcDbEntity
  8
0
  6
Continuous
 62
     7
370
    25
100
AcDbLine
 10
413.4246117787
 20
570.3934701267
 30
0.0
 11
413.4175040479
 21
570.3931030901
 31
0.0
  0
LINE
  5
2A0
330
1F
100
AcDbEntity
  8
0
  6
Continuous
 62
     7
370
    25
100
AcDbLine
 10
413.4246117787
 20
563.7792619528
 30
0.0
 11
413.4175040479
 21
563.7796289894
 31
0.0
  0
SPLINE
  5
2A1
330
1F
100
AcDbEntity
  8
0
  6
Continuous
 62
     7
370
    25
100
AcDbSpline
210
0.0
220
0.0
230
1.0
 70
     8
 71
     3
 72
    11
 73
     7
 74
     0
 42
0.00000001
 43
0.00000001
 40
0.0
 40
0.0
 40
0.0
 40
0.0
 40
0.1345990676765959
 40
0.4126978815969493
 40
0.6969472592954598
 40
1.0
 40
1.0
 40
1.0
 40
1.0
 10
473.6056756904146
 20
575.2327640025652
 30
0.0
 10
473.1763696701663
 20
575.4236478877262
 30
0.0
 10
471.860062743442
 20
576.0089221871461
 30
0.0
 10
469.4842526925588
 20
576.6313900711698
 30
0.0
 10
466.4305633076777
 20
577.0078927536701
 30
0.0
 10
464.239533399317
 20
577.035034082003
 30
0.0
 10
463.1089438817791
 20
577.049039231448
 30
0.0
  0
ARC
  5
2A2
330
1F
100
AcDbEntity
  8
0
  6
Continuous
 62
     7
370
    25
100
AcDbCircle
 10
467.6014748748
 20
576.4292151869
 30
0.0
 40
4.535087272517062
100
AcDbArc
 50
149.0284626407
 51
172.1446266983
  0
SPLINE
  5
2A3
330
1F
100
AcDbEntity
  8
0
  6
Continuous
 62
     7
370
    25
100
AcDbSpline
210
0.0
220
0.0
230
1.0
 70
     8
 71
     3
 72
    12
 73
     8
 74
     0
 42
0.00000001
 43
0.00000001
 40
0.0
 40
0.0
 40
0.0
 40
0.0
 40
0.1662426524176545
 40
0.3368059756191297
 40
0.6054181071254586
 40
0.8801435087136193
 40
1.0
 40
1.0
 40
1.0
 40
1.0
 10
463.71298651928
 20
578.7630264214158
 30
0.0
 10
464.3506680398162
 20
578.6075412459328
 30
0.0
 10
465.6426045166168
 20
578.2925298125776
 30
0.0
 10
467.8267908989662
 20
577.6295647075791
 30
0.0
 10
470.188765242526
 20
576.7773697907736
 30
0.0
 10
472.1543028044185
 20
575.9347411121615
 30
0.0
 10
473.2680777892141
 20
575.3968830194665
 30
0.0
 10
473.6063932673716
 20
575.2335055686392
 30
0.0
  0
LINE
  5
2A4
330
1F
100
AcDbEntity
  8
0
  6
Continuous
 62
     7
370
    25
100
AcDbLine
 10
473.6063932674
 20
575.2335055686
 30
0.0
 11
473.6056756904
 21
575.2327640026
 31
0.0
  0
LINE
  5
2A5
330
1F
100
AcDbEntity
  8
0
  6
Continuous
 62
     7
370
    25
100
AcDbLine
 10
463.7129865193
 20
578.7630264214
 30
0.0
 11
463.7288445962
 21
578.832499953
 31
0.0
  0
ARC
  5
2A6
330
1F
100
AcDbEntity
  8
0
  6
Continuous
 62
     7
370
    25
100
AcDbCircle
 10
453.0070663597
 20
531.8608651407
 30
0.0
 40
48.17977797259064
100
AcDbArc
 50
64.4718479123
 51
77.1419190681
  0
LWPOLYLINE
  5
2A7
330
1F
100
AcDbEntity
  8
0
  6
Continuous
 62
     7
370
    25
100
AcDbPolyline
 90
        3
 70
   128
 43
0.0
 10
473.6063932674
 20
575.2335055686
 10
473.6657811177
 20
575.2710292722
 10
473.7703591905
 20
575.3370273021
  0
LINE
  5
2A8
330
1F
100
AcDbEntity
  8
0
  6
Continuous
 62
     7
370
    25
100
AcDbLine
 10
464.2772001867
 20
574.134258621
 30
0.0
 11
462.0793282666
 21
576.9213754954
 31
0.0
  0
ARC
  5
2A9
330
1F
100
AcDbEntity
  8
0
  6
Continuous
 62
     7
370
    25
100
AcDbCircle
 10
469.8350457666
 20
567.0863660397
 30
0.0
 40
12.52511736202731
100
AcDbArc
 50
127.8583068702
 51
128.2586979829
  0
LINE
  5
2AA
330
1F
100
AcDbEntity
  8
0
  6
Continuous
 62
     7
370
    25
100
AcDbLine
 10
463.1089438818
 20
577.0490392314
 30
0.0
 11
462.1482455329
 21
576.9753329777
 31
0.0
  0
LINE
  5
2AB
330
1F
100
AcDbEntity
  8
0
  6
Continuous
 62
     7
370
    25
100
AcDbLine
 10
473.604897084
 20
575.2319573855
 30
0.0
 11
473.6056756904
 21
575.2327640026
 31
0.0
  0
ARC
  5
2AC
330
1F
100
AcDbEntity
  8
0
  6
Continuous
 62
     7
370
    25
100
AcDbCircle
 10
451.9173740529
 20
572.3629654279
 30
0.0
 40
6.834138728219215
100
AcDbArc
 50
31.8771071303
 51
46.9488007428
  0
SPLINE
  5
2AD
330
1F
100
AcDbEntity
  8
0
  6
Continuous
 62
     7
370
    25
100
AcDbSpline
210
0.0
220
0.0
230
1.0
 70
     8
 71
     3
 72
    16
 73
    12
 74
     0
 42
0.00000001
 43
0.00000001
 40
0.0
 40
0.0
 40
0.0
 40
0.0
 40
0.2861254310575669
 40
0.7591203623085425
 40
0.8520758313858449
 40
0.9266344548631255
 40
0.9604862301433736
 40
0.9835335436569232
 40
0.9930756629548352
 40
0.9972242292023619
 40
1.0
 40
1.0
 40
1.0
 40
1.0
 10
457.7208068440311
 20
575.97206780873
 30
0.0
 10
456.4926600069074
 20
575.442000499378
 30
0.0
 10
453.2342594218231
 20
574.0356771032508
 30
0.0
 10
449.4366779672158
 20
573.0178651003664
 30
0.0
 10
446.6390163173113
 20
572.4559448825947
 30
0.0
 10
445.7738833784169
 20
572.3014423667018
 30
0.0
 10
445.2482972096827
 20
572.2129217008716
 30
0.0
 10
445.0146349509687
 20
572.1738123172229
 30
0.0
 10
444.9369848038079
 20
572.1594923482533
 30
0.0
 10
444.9209031487728
 20
572.1557586096303
 30
0.0
 10
444.9198427608511
 20
572.155024767547
 30
0.0
 10
444.9194176813369
 20
572.1547305910201
 30
0.0
  0
SPLINE
  5
2AE
330
1F
100
AcDbEntity
  8
0
  6
Continuous
 62
     7
370
    25
100
AcDbSpline
210
0.0
220
0.0
230
1.0
 70
     8
 71
     3
 72
    10
 73
     6
 74
     0
 42
0.00000001
 43
0.00000001
 40
0.0
 40
0.0
 40
0.0
 40
0.0
 40
0.5975855365574454
 40
0.9790563563181981
 40
1.0
 40
1.0
 40
1.0
 40
1.0
 10
444.8093923616492
 20
572.1638574883594
 30
0.0
 10
444.8068732222958
 20
572.160118190633
 30
0.0
 10
444.8027459815152
 20
572.1539918991095
 30
0.0
 10
444.8771171080707
 20
572.1536153402529
 30
0.0
 10
444.917325060175
 20
572.1546754192534
 30
0.0
 10
444.9194176813369
 20
572.1547305910201
 30
0.0
  0
SPLINE
  5
2AF
330
1F
100
AcDbEntity
  8
0
  6
Continuous
 62
     7
370
    25
100
AcDbSpline
210
0.0
220
0.0
230
1.0
 70
     8
 71
     3
 72
    14
 73
    10
 74
     0
 42
0.00000001
 43
0.00000001
 40
0.0
 40
0.0
 40
0.0
 40
0.0
 40
0.0129036569231464
 40
0.0519665716781148
 40
0.131889182426121
 40
0.2280032005552168
 40
0.4679440229400842
 40
0.7079115564493631
 40
0.9999999999999999
 40
0.9999999999999999
 40
0.9999999999999999
 40
0.9999999999999999
 10
444.8093923616492
 20
572.1638574883594
 30
0.0
 10
444.8428609381135
 20
572.1717024624206
 30
0.0
 10
444.9776480909462
 20
572.2032963283532
 30
0.0
 10
445.4169215359387
 20
572.3056783756471
 30
0.0
 10
446.2283489541646
 20
572.5080798844641
 30
0.0
 10
447.8818261359852
 20
572.9751305652302
 30
0.0
 10
450.2261162082289
 20
573.8125876246205
 30
0.0
 10
453.3712103847261
 20
575.2575278649708
 30
0.0
 10
455.4445090589186
 20
576.6128987477656
 30
0.0
 10
456.5827099416658
 20
577.3569711549153
 30
0.0
  0
LINE
  5
2B0
330
1F
100
AcDbEntity
  8
0
  6
Continuous
 62
     7
370
    25
100
AcDbLine
 10
459.1614752061
 20
576.4962114907
 30
0.0
 11
461.2615577222
 21
576.6122024394
 31
0.0
  0
LINE
  5
2B1
330
1F
100
AcDbEntity
  8
0
  6
Continuous
 62
     7
370
    25
100
AcDbLine
 10
461.4573017579
 20
573.068144635
 30
0.0
 11
461.2615577222
 21
576.6122024394
 31
0.0
  0
LINE
  5
2B2
330
1F
100
AcDbEntity
  8
0
  6
Continuous
 62
     7
370
    25
100
AcDbLine
 10
459.1614752061
 20
576.4962114907
 30
0.0
 11
457.720806844
 21
575.9720678087
 31
0.0
  0
LWPOLYLINE
  5
2B3
330
1F
100
AcDbEntity
  8
0
  6
Continuous
 62
     7
370
    25
100
AcDbPolyline
 90
        4
 70
   128
 43
0.0
 10
444.7898655476
 20
572.3149530646
 10
444.7921101832
 20
572.2975949178
 10
444.8010852172
 20
572.2281621716
 10
444.8093923616
 20
572.1638574884
  0
LINE
  5
2B4
330
1F
100
AcDbEntity
  8
0
  6
Continuous
 62
     7
370
    25
100
AcDbLine
 10
446.5779898314
 20
572.7444805679
 30
0.0
 11
444.7898655476
 21
572.3149530646
 31
0.0
  0
ARC
  5
2B5
330
1F
100
AcDbEntity
  8
0
  6
Continuous
 62
     7
370
    25
100
AcDbCircle
 10
438.3924314328
 20
603.1701741618
 30
0.0
 40
31.50755777528343
100
AcDbArc
 50
285.0579972479
 51
305.1719294169
  0
LINE
  5
2B6
330
1F
100
AcDbEntity
  8
0
  6
Continuous
 62
     7
370
    25
100
AcDbLine
 10
456.5827099417
 20
577.3569711549
 30
0.0
 11
456.5417900555
 21
577.415039168
 31
0.0
  0
SPLINE
  5
2B7
330
1F
100
AcDbEntity
  8
0
  6
Continuous
 62
     7
370
    25
100
AcDbSpline
210
0.0
220
0.0
230
1.0
 70
     8
 71
     3
 72
     9
 73
     5
 74
     0
 42
0.00000001
 43
0.00000001
 40
0.0
 40
0.0
 40
0.0
 40
0.0
 40
0.4998978730609624
 40
1.0
 40
1.0
 40
1.0
 40
1.0
 10
461.2615577222048
 20
576.6122024394208
 30
0.0
 10
461.4097526381007
 20
576.632168777423
 30
0.0
 10
461.7062030210326
 20
576.6721096114977
 30
0.0
 10
461.9549362498092
 20
576.8382755540683
 30
0.0
 10
462.0793282665608
 20
576.9213754953727
 30
0.0
  0
ARC
  5
2B8
330
1F
100
AcDbEntity
  8
0
  6
Continuous
 62
     7
370
    25
100
AcDbCircle
 10
444.7080570468
 20
572.6535589282
 30
0.0
 40
0.5000763404110647
100
AcDbArc
 50
273.1626296403
 51
281.6913635616
  0
SPLINE
  5
2B9
330
1F
100
AcDbEntity
  8
0
  6
Continuous
 62
     7
370
    25
100
AcDbSpline
210
0.0
220
0.0
230
1.0
 70
     8
 71
     3
 72
    12
 73
     8
 74
     0
 42
0.00000001
 43
0.00000001
 40
0.0
 40
0.0
 40
0.0
 40
0.0
 40
0.046072672532115
 40
0.2494576442748305
 40
0.4755636088397373
 40
0.7057929889265022
 40
1.0
 40
1.0
 40
1.0
 40
1.0
 10
473.6224242410618
 20
558.9290942796423
 30
0.0
 10
473.4940888318864
 20
558.8665895803031
 30
0.0
 10
472.7992246729292
 20
558.5281617401897
 30
0.0
 10
471.446425703407
 20
557.9125783240493
 30
0.0
 10
469.4385570593255
 20
557.1051190187948
 30
0.0
 10
466.94328524432
 20
556.2319989012668
 30
0.0
 10
465.0043390561852
 20
555.7346492616239
 30
0.0
 10
463.9165969157487
 20
555.4556378249573
 30
0.0
  0
LINE
  5
2BA
330
1F
100
AcDbEntity
  8
0
  6
Continuous
 62
     7
370
    25
100
AcDbLine
 10
463.4631368379
 20
557.4032403542
 30
0.0
 11
463.9165969157
 21
555.455637825
 31
0.0
  0
SPLINE
  5
2BB
330
1F
100
AcDbEntity
  8
0
  6
Continuous
 62
     7
370
    25
100
AcDbSpline
210
0.0
220
0.0
230
1.0
 70
     8
 71
     3
 72
    13
 73
     9
 74
     0
 42
0.00000001
 43
0.00000001
 40
0.0
 40
0.0
 40
0.0
 40
0.0
 40
0.2574896950994368
 40
0.4890886589321025
 40
0.7206004760683485
 40
0.9447506334961274
 40
0.9460032291293288
 40
1.0
 40
1.0
 40
1.0
 40
1.0
 10
463.4631368378617
 20
557.4032403541713
 30
0.0
 10
464.3818624138496
 20
557.3751773900566
 30
0.0
 10
466.1269352009877
 20
557.3218732083913
 30
0.0
 10
468.6215004469012
 20
557.4864373272293
 30
0.0
 10
470.937150252902
 20
557.8998113222394
 30
0.0
 10
472.414258854506
 20
558.3993685088027
 30
0.0
 10
473.2855202990467
 20
558.7736113637326
 30
0.0
 10
473.4555667078696
 20
558.8525917822178
 30
0.0
 10
473.6217578799249
 20
558.9297815823925
 30
0.0
  0
LINE
  5
2BC
330
1F
100
AcDbEntity
  8
0
  6
Continuous
 62
     7
370
    25
100
AcDbLine
 10
473.6217578799
 20
558.9297815824
 30
0.0
 11
473.6224242411
 21
558.9290942796
 31
0.0
  0
ARC
  5
2BD
330
1F
100
AcDbEntity
  8
0
  6
Continuous
 62
     7
370
    25
100
AcDbCircle
 10
453.0070663597
 20
602.3118669388
 30
0.0
 40
48.10950076354632
100
AcDbArc
 50
282.8580809319
 51
283.1066633214
  0
LWPOLYLINE
  5
2BE
330
1F
100
AcDbEntity
  8
0
  6
Continuous
 62
     7
370
    25
100
AcDbPolyline
 90
        3
 70
   128
 43
0.0
 10
473.6224242411
 20
558.9290942796
 10
473.6657811177
 20
558.9017028073
 10
473.7703591908
 20
558.8357047772
  0
ARC
  5
2BF
330
1F
100
AcDbEntity
  8
0
  6
Continuous
 62
     7
370
    25
100
AcDbCircle
 10
453.0070663597
 20
602.3118669388
 30
0.0
 40
48.17977797259052
100
AcDbArc
 50
282.8580809319
 51
295.5281512988
  0
LINE
  5
2C0
330
1F
100
AcDbEntity
  8
0
  6
Continuous
 62
     7
370
    25
100
AcDbLine
 10
463.7132053243
 20
555.4087470831
 30
0.0
 11
463.7288445962
 21
555.3402321265
 31
0.0
  0
LINE
  5
2C1
330
1F
100
AcDbEntity
  8
0
  6
Continuous
 62
     7
370
    25
100
AcDbLine
 10
457.3578175221
 20
558.7111247617
 30
0.0
 11
456.2283421046
 21
557.060952972
 31
0.0
  0
SPLINE
  5
2C2
330
1F
100
AcDbEntity
  8
0
  6
Continuous
 62
     7
370
    25
100
AcDbSpline
210
0.0
220
0.0
230
1.0
 70
     8
 71
     3
 72
    14
 73
    10
 74
     0
 42
0.00000001
 43
0.00000001
 40
0.0
 40
0.0
 40
0.0
 40
0.0
 40
0.2256458607195977
 40
0.4518169308148961
 40
0.8157761447763431
 40
0.8946140573305374
 40
0.9637846180221655
 40
0.994079914312567
 40
1.0
 40
1.0
 40
1.0
 40
1.0
 10
456.228342104593
 20
557.0609529720147
 30
0.0
 10
455.3825945575218
 20
557.6059766945158
 30
0.0
 10
453.689130916118
 20
558.697292727243
 30
0.0
 10
450.5089088160656
 20
560.2627338120451
 30
0.0
 10
447.8376307528992
 20
561.216112646281
 30
0.0
 10
445.8871022656481
 20
561.7375607924101
 30
0.0
 10
445.2430257552062
 20
561.8929414670523
 30
0.0
 10
444.9150748589795
 20
561.9684915278967
 30
0.0
 10
444.8225375263808
 20
561.9900123020418
 30
0.0
 10
444.8074105579946
 20
561.993530277555
 30
0.0
  0
SPLINE
  5
2C3
330
1F
100
AcDbEntity
  8
0
  6
Continuous
 62
     7
370
    25
100
AcDbSpline
210
0.0
220
0.0
230
1.0
 70
     8
 71
     3
 72
    11
 73
     7
 74
     0
 42
0.00000001
 43
0.00000001
 40
0.0
 40
0.0
 40
0.0
 40
0.0
 40
0.0195561212295927
 40
0.1681891996744411
 40
0.5898876540792777
 40
1.0
 40
1.0
 40
1.0
 40
1.0
 10
444.9173519494116
 20
562.001797839648
 30
0.0
 10
444.9153932362636
 20
562.0018559533637
 30
0.0
 10
444.8985476464408
 20
562.0023557508044
 30
0.0
 10
444.8466470826817
 20
562.003202168218
 30
0.0
 10
444.797362450616
 20
562.0011128696959
 30
0.0
 10
444.8040924356925
 20
561.9960342285124
 30
0.0
 10
444.8074105579946
 20
561.993530277555
 30
0.0
  0
SPLINE
  5
2C4
330
1F
100
AcDbEntity
  8
0
  6
Continuous
 62
     7
370
    25
100
AcDbSpline
210
0.0
220
0.0
230
1.0
 70
     8
 71
     3
 72
    17
 73
    13
 74
     0
 42
0.00000001
 43
0.00000001
 40
0.0
 40
0.0
 40
0.0
 40
0.0
 40
0.0068263121770685
 40
0.0088448507297254
 40
0.0223990310416126
 40
0.0309593028397538
 40
0.0563218912149143
 40
0.1198824177066684
 40
0.1957460556357056
 40
0.5558621944880031
 40
0.77803360979772
 40
1.0
 40
1.0
 40
1.0
 40
1.0
 10
444.9173519494116
 20
562.001797839648
 30
0.0
 10
444.9209720945732
 20
562.0007596566029
 30
0.0
 10
444.9256627156208
 20
561.9994144831292
 30
0.0
 10
444.969195428324
 20
561.9918244950544
 30
0.0
 10
445.0437273507565
 20
561.9800729882477
 30
0.0
 10
445.2105595962585
 20
561.9543540930246
 30
0.0
 10
445.5921357133258
 20
561.8958395140023
 30
0.0
 10
446.2750366800601
 20
561.7866425294151
 30
0.0
 10
448.3800359969778
 20
561.419470296991
 30
0.0
 10
451.1929705787639
 20
560.7852926130257
 30
0.0
 10
454.5917547933306
 20
559.7723523211672
 30
0.0
 10
456.4360804080944
 20
559.0647584004805
 30
0.0
 10
457.3578175220849
 20
558.7111247616534
 30
0.0
  0
LINE
  5
2C5
330
1F
100
AcDbEntity
  8
0
  6
Continuous
 62
     7
370
    25
100
AcDbLine
 10
461.4512603729
 20
561.0886033774
 30
0.0
 11
461.3078985439
 21
558.492955408
 31
0.0
  0
LINE
  5
2C6
330
1F
100
AcDbEntity
  8
0
  6
Continuous
 62
     7
370
    25
100
AcDbLine
 10
461.3078985439
 20
558.492955408
 30
0.0
 11
457.3578175221
 21
558.7111247617
 31
0.0
  0
LINE
  5
2C7
330
1F
100
AcDbEntity
  8
0
  6
Continuous
 62
     7
370
    25
100
AcDbLine
 10
464.2697126119
 20
560.0236293996
 30
0.0
 11
462.6607556186
 21
557.9817678986
 31
0.0
  0
LINE
  5
2C8
330
1F
100
AcDbEntity
  8
0
  6
Continuous
 62
     7
370
    25
100
AcDbLine
 10
473.6217578799
 20
558.9297815824
 30
0.0
 11
473.6211899944
 21
558.9303686233
 31
0.0
  0
ARC
  5
2C9
330
1F
100
AcDbEntity
  8
0
  6
Continuous
 62
     7
370
    25
100
AcDbCircle
 10
469.8350457666
 20
567.0863660397
 30
0.0
 40
11.59155496206734
100
AcDbArc
 50
231.762407147
 51
236.6533814372
  0
LWPOLYLINE
  5
2CA
330
1F
100
AcDbEntity
  8
0
  6
Continuous
 62
     7
370
    25
100
AcDbPolyline
 90
        4
 70
   128
 43
0.0
 10
444.807410558
 20
561.9935302776
 10
444.8051683117
 20
561.9761720226
 10
444.7961958288
 20
561.9067391609
 10
444.7898655476
 20
561.8577790149
  0
ARC
  5
2CB
330
1F
100
AcDbEntity
  8
0
  6
Continuous
 62
     7
370
    25
100
AcDbCircle
 10
438.3924314328
 20
531.0025579177
 30
0.0
 40
31.57783498432758
100
AcDbArc
 50
54.8280705831
 51
55.6099480104
  0
LINE
  5
2CC
330
1F
100
AcDbEntity
  8
0
  6
Continuous
 62
     7
370
    25
100
AcDbLine
 10
456.5822719703
 20
556.8151394143
 30
0.0
 11
456.5417900555
 21
556.7576929115
 31
0.0
  0
ARC
  5
2CD
330
1F
100
AcDbEntity
  8
0
  6
Continuous
 62
     7
370
    25
100
AcDbCircle
 10
438.3924314328
 20
531.0025579177
 30
0.0
 40
31.50755777528337
100
AcDbArc
 50
54.8280705831
 51
74.9420027521
  0
LINE
  5
2CE
330
1F
100
AcDbEntity
  8
0
  6
Continuous
 62
     7
370
    25
100
AcDbLine
 10
444.7898655476
 20
561.8577790149
 30
0.0
 11
446.5779898314
 21
561.4282515116
 31
0.0
  0
LINE
  5
2CF
330
1F
100
AcDbEntity
  8
0
  6
Continuous
 62
     7
370
    25
100
AcDbLine
 10
444.7160281383
 20
572.3046347683
 30
0.0
 11
444.7898655476
 21
572.3149530646
 31
0.0
  0
SPLINE
  5
2D0
330
1F
100
AcDbEntity
  8
0
  6
Continuous
 62
     7
370
    25
100
AcDbSpline
210
0.0
220
0.0
230
1.0
 70
     8
 71
     3
 72
    10
 73
     6
 74
     0
 42
0.00000001
 43
0.00000001
 40
0.0
 40
0.0
 40
0.0
 40
0.0
 40
0.0490769085761659
 40
0.599580584366531
 40
1.0
 40
1.0
 40
1.0
 40
1.0
 10
462.6607556186218
 20
557.98176789862
 30
0.0
 10
462.6418080802527
 20
557.9963906342214
 30
0.0
 10
462.4103229183461
 20
558.1750389764104
 30
0.0
 10
461.9644491435288
 20
558.4090909698317
 30
0.0
 10
461.5024425666444
 20
558.4681053428493
 30
0.0
 10
461.3078985438908
 20
558.4929554079816
 30
0.0
  0
ARC
  5
2D1
330
1F
100
AcDbEntity
  8
0
  6
Continuous
 62
     7
370
    25
100
AcDbCircle
 10
444.706057157
 20
561.5038325805
 30
0.0
 40
0.5000763405363362
100
AcDbArc
 50
78.306520338
 51
86.8373700343
  0
SPLINE
  5
2D2
330
1F
100
AcDbEntity
  8
0
  6
Continuous
 62
     7
370
    25
100
AcDbSpline
210
0.0
220
0.0
230
1.0
 70
     8
 71
     3
 72
     9
 73
     5
 74
     0
 42
0.00000001
 43
0.00000001
 40
0.0
 40
0.0
 40
0.0
 40
0.0
 40
0.8458911907785839
 40
1.0
 40
1.0
 40
1.0
 40
1.0
 10
444.789865547584
 20
561.8577790148688
 30
0.0
 10
444.769024951473
 20
561.8615938218611
 30
0.0
 10
444.7443875083381
 20
561.8661036300184
 30
0.0
 10
444.7198149811618
 20
561.8678310937695
 30
0.0
 10
444.7160281382592
 20
561.868097311151
 30
0.0
  0
LINE
  5
2D3
330
1F
100
AcDbEntity
  8
0
  6
Continuous
 62
     7
370
    25
100
AcDbLine
 10
426.7206079406
 20
562.9343531644
 30
0.0
 11
426.7210659604
 21
562.934328078
 31
0.0
  0
LINE
  5
2D4
330
1F
100
AcDbEntity
  8
0
  6
Continuous
 62
     7
370
    25
100
AcDbLine
 10
456.5827099417
 20
577.3569711549
 30
0.0
 11
458.421450791
 21
578.3539373906
 31
0.0
  0
LINE
  5
2D5
330
1F
100
AcDbEntity
  8
0
  6
Continuous
 62
     7
370
    25
100
AcDbLine
 10
459.1614752061
 20
576.4962114907
 30
0.0
 11
458.421450791
 21
578.3539373906
 31
0.0
  0
LINE
  5
2D6
330
1F
100
AcDbEntity
  8
0
  6
Continuous
 62
     7
370
    25
100
AcDbLine
 10
462.1482455329
 20
576.9753329777
 30
0.0
 11
462.2700792795
 21
578.9713134867
 31
0.0
  0
LINE
  5
2D7
330
1F
100
AcDbEntity
  8
0
  6
Continuous
 62
     7
370
    25
100
AcDbLine
 10
462.2700792795
 20
578.9713134867
 30
0.0
 11
463.7129865193
 21
578.7630264214
 31
0.0
  0
ARC
  5
2D8
330
1F
100
AcDbEntity
  8
0
  6
Continuous
 62
     7
370
    25
100
AcDbCircle
 10
461.7260305614
 20
570.0582605156
 30
0.0
 40
6.929946387144279
100
AcDbArc
 50
86.5070253286
 51
111.7198462835
  0
ARC
  5
2D9
330
1F
100
AcDbEntity
  8
0
  6
Continuous
 62
     7
370
    25
100
AcDbCircle
 10
461.7260305614
 20
570.0582605156
 30
0.0
 40
8.929641777457103
100
AcDbArc
 50
86.5070253286
 51
111.7198462835
  0
ARC
  5
2DA
330
1F
100
AcDbEntity
  8
0
  6
Continuous
 62
     7
370
    25
100
AcDbCircle
 10
453.0070663597
 20
602.3118669388
 30
0.0
 40
46.10980537323358
100
AcDbArc
 50
282.8580809319
 51
283.1066633214
  0
LINE
  5
2DB
330
1F
100
AcDbEntity
  8
0
  6
Continuous
 62
     7
370
    25
100
AcDbLine
 10
463.2681993193
 20
557.3582986494
 30
0.0
 11
463.7132053243
 21
555.4087470831
 31
0.0
  0
ARC
  5
2DC
330
1F
100
AcDbEntity
  8
0
  6
Continuous
 62
     7
370
    25
100
AcDbCircle
 10
438.3924314328
 20
531.0025579177
 30
0.0
 40
33.57753037464038
100
AcDbArc
 50
54.8280705831
 51
55.6099480104
  0
LINE
  5
2DD
330
1F
100
AcDbEntity
  8
0
  6
Continuous
 62
     7
370
    25
100
AcDbLine
 10
457.7341603214
 20
558.4497448348
 30
0.0
 11
456.5822719703
 21
556.8151394143
 31
0.0
  0
ARC
  5
2DE
330
1F
100
AcDbEntity
  8
0
  6
Continuous
 62
     7
370
    25
100
AcDbCircle
 10
461.7260305614
 20
564.1144715639
 30
0.0
 40
6.929946387144284
100
AcDbArc
 50
234.8280705831
 51
282.8580809319
  0
ARC
  5
2DF
330
1F
100
AcDbEntity
  8
0
  6
Continuous
 62
     7
370
    25
100
AcDbCircle
 10
461.7260305614
 20
564.1144715639
 30
0.0
 40
8.929641777457059
100
AcDbArc
 50
234.8280705831
 51
282.8580809319
  0
ARC
  5
2E0
330
1F
100
AcDbEntity
  8
0
  6
Continuous
 62
     7
370
    25
100
AcDbCircle
 10
461.7260305614
 20
570.0582605156
 30
0.0
 40
8.999918986501244
100
AcDbArc
 50
77.1419190681
 51
125.1719294169
  0
ARC
  5
2E1
330
1F
100
AcDbEntity
  8
0
  6
Continuous
 62
     7
370
    25
100
AcDbCircle
 10
461.7260305614
 20
564.1144715639
 30
0.0
 40
8.999918986501303
100
AcDbArc
 50
234.8280705831
 51
282.8580809319
  0
SPLINE
  5
2E2
330
1F
100
AcDbEntity
  8
0
  6
Continuous
 62
     7
370
    25
100
AcDbSpline
210
0.0
220
0.0
230
1.0
 70
    24
 71
     3
 72
    10
 73
     6
 74
     0
 42
0.00000001
 43
0.00000001
 40
0.0
 40
0.0
 40
0.0
 40
0.0
 40
0.4598929688994183
 40
0.9416277409864708
 40
1.0
 40
1.0
 40
1.0
 40
1.0
 10
673.0218709472268
 20
557.5863660397449
 30
0.0
 10
672.3989427812063
 20
557.5863660397449
 30
0.0
 10
671.1235015776355
 20
557.5863660397449
 30
0.0
 10
669.8141504593812
 20
557.5863660397449
 30
0.0
 10
669.129129862242
 20
557.5863660397449
 30
0.0
 10
669.0550960181641
 20
557.5863660397449
 30
0.0
  0
ARC
  5
2E3
330
1F
100
AcDbEntity
  8
0
  6
Continuous
 62
     7
370
    25
100
AcDbCircle
 10
673.0350457666
 20
567.0863660397
 30
0.0
 40
10.30000000000002
100
AcDbArc
 50
232.7308609266
 51
247.2691390734
  0
SPLINE
  5
2E4
330
1F
100
AcDbEntity
  8
0
  6
Continuous
 62
     7
370
    25
100
AcDbSpline
210
0.0
220
0.0
230
1.0
 70
    24
 71
     3
 72
    11
 73
     7
 74
     0
 42
0.00000001
 43
0.00000001
 40
0.0
 40
0.0
 40
0.0
 40
0.0
 40
0.2431641197380911
 40
0.4936284730588937
 40
0.7421706076863289
 40
1.0
 40
1.0
 40
1.0
 40
1.0
 10
666.7977793048517
 20
558.889628451822
 30
0.0
 10
666.484020303155
 20
559.4330749840929
 30
0.0
 10
665.847082678135
 20
560.5362833118796
 30
0.0
 10
664.8366937091284
 20
562.2863283416062
 30
0.0
 10
663.8049865812925
 20
564.0732975055491
 30
0.0
 10
663.1508808383942
 20
565.2062418857714
 30
0.0
 10
662.8178295564253
 20
565.7831036276677
 30
0.0
  0
ARC
  5
2E5
330
1F
100
AcDbEntity
  8
0
  6
Continuous
 62
     7
370
    25
100
AcDbCircle
 10
673.0350457666
 20
567.0863660397
 30
0.0
 40
10.29999999999997
100
AcDbArc
 50
172.7308609266
 51
187.2691390734
  0
SPLINE
  5
2E6
330
1F
100
AcDbEntity
  8
0
  6
Continuous
 62
     7
370
    25
100
AcDbSpline
210
0.0
220
0.0
230
1.0
 70
    24
 71
     3
 72
    11
 73
     7
 74
     0
 42
0.00000001
 43
0.00000001
 40
0.0
 40
0.0
 40
0.0
 40
0.0
 40
0.2431641197380909
 40
0.4936284730588934
 40
0.7421706076863288
 40
1.0
 40
1.0
 40
1.0
 40
1.0
 10
662.8178295564253
 20
568.3896284518221
 30
0.0
 10
663.1315885581221
 20
568.9330749840929
 30
0.0
 10
663.768526183142
 20
570.0362833118797
 30
0.0
 10
664.7789151521484
 20
571.7863283416062
 30
0.0
 10
665.8106222799845
 20
573.5732975055491
 30
0.0
 10
666.4647280228828
 20
574.7062418857714
 30
0.0
 10
666.7977793048517
 20
575.2831036276676
 30
0.0
  0
ARC
  5
2E7
330
1F
100
AcDbEntity
  8
0
  6
Continuous
 62
     7
370
    25
100
AcDbCircle
 10
673.0350457666
 20
567.0863660397
 30
0.0
 40
10.30000000000008
100
AcDbArc
 50
112.7308609266
 51
127.2691390734
  0
SPLINE
  5
2E8
330
1F
100
AcDbEntity
  8
0
  6
Continuous
 62
     7
370
    25
100
AcDbSpline
210
0.0
220
0.0
230
1.0
 70
    24
 71
     3
 72
    10
 73
     6
 74
     0
 42
0.00000001
 43
0.00000001
 40
0.0
 40
0.0
 40
0.0
 40
0.0
 40
0.0994527117868928
 40
0.920216380278726
 40
1.0
 40
1.0
 40
1.0
 40
1.0
 10
669.0550960181642
 20
576.5863660397449
 30
0.0
 10
669.129153686013
 20
576.5863660397449
 30
0.0
 10
669.8143947198195
 20
576.5863660397449
 30
0.0
 10
670.576488533273
 20
576.5863660397449
 30
0.0
 10
671.2893281706417
 20
576.5863660397449
 30
0.0
 10
671.3524819075908
 20
576.5863660397449
 30
0.0
  0
ARC
  5
2E9
330
1F
100
AcDbEntity
  8
0
  6
Continuous
 62
     7
370
    25
100
AcDbCircle
 10
469.8350457666
 20
567.0863660397
 30
0.0
 40
10.30000000000002
100
AcDbArc
 50
292.7308609266
 51
307.2691390734
  0
SPLINE
  5
2EA
330
1F
100
AcDbEntity
  8
0
  6
Continuous
 62
     7
370
    25
100
AcDbSpline
210
0.0
220
0.0
230
1.0
 70
    24
 71
     3
 72
    10
 73
     6
 74
     0
 42
0.00000001
 43
0.00000001
 40
0.0
 40
0.0
 40
0.0
 40
0.0
 40
0.0768843308031654
 40
0.6782790378565111
 40
1.0
 40
1.0
 40
1.0
 40
1.0
 10
473.8149955150171
 20
557.5863660397449
 30
0.0
 10
473.7397832064743
 20
557.5863660397449
 30
0.0
 10
473.0762548679891
 20
557.5863660397449
 30
0.0
 10
472.0706554894305
 20
557.5863660397449
 30
0.0
 10
471.1086810318945
 20
557.5863660397449
 30
0.0
 10
470.7734171442116
 20
557.5863660397449
 30
0.0
  0
SPLINE
  5
2EB
330
1F
100
AcDbEntity
  8
0
  6
Continuous
 62
     7
370
    25
100
AcDbSpline
210
0.0
220
0.0
230
1.0
 70
    24
 71
     3
 72
    10
 73
     6
 74
     0
 42
0.00000001
 43
0.00000001
 40
0.0
 40
0.0
 40
0.0
 40
0.0
 40
0.3829698790451569
 40
0.9300583605164532
 40
0.9999999999999999
 40
0.9999999999999999
 40
0.9999999999999999
 40
0.9999999999999999
 10
470.4643518974004
 20
576.5863660397449
 30
0.0
 10
470.9033483389837
 20
576.5863660397449
 30
0.0
 10
471.9694695486976
 20
576.5863660397449
 30
0.0
 10
473.0762927402126
 20
576.5863660397449
 30
0.0
 10
473.739787062303
 20
576.5863660397449
 30
0.0
 10
473.8149955150171
 20
576.5863660397449
 30
0.0
  0
ARC
  5
2EC
330
1F
100
AcDbEntity
  8
0
  6
Continuous
 62
     7
370
    25
100
AcDbCircle
 10
469.8350457666
 20
567.0863660397
 30
0.0
 40
10.3000000000001
100
AcDbArc
 50
52.7308609266
 51
67.2691390734
  0
SPLINE
  5
2ED
330
1F
100
AcDbEntity
  8
0
  6
Continuous
 62
     7
370
    25
100
AcDbSpline
210
0.0
220
0.0
230
1.0
 70
    24
 71
     3
 72
    11
 73
     7
 74
     0
 42
0.00000001
 43
0.00000001
 40
0.0
 40
0.0
 40
0.0
 40
0.0
 40
0.2431641197380913
 40
0.4936284730588932
 40
0.7421706076863291
 40
1.0
 40
1.0
 40
1.0
 40
1.0
 10
476.0723122283296
 20
575.2831036276676
 30
0.0
 10
476.3860712300263
 20
574.7396570953969
 30
0.0
 10
477.0230088550462
 20
573.63644876761
 30
0.0
 10
478.0333978240528
 20
571.8864037378835
 30
0.0
 10
479.0651049518889
 20
570.0994345739406
 30
0.0
 10
479.7192106947871
 20
568.9664901937183
 30
0.0
 10
480.052261976756
 20
568.3896284518221
 30
0.0
  0
ARC
  5
2EE
330
1F
100
AcDbEntity
  8
0
  6
Continuous
 62
     7
370
    25
100
AcDbCircle
 10
469.8350457666
 20
567.0863660397
 30
0.0
 40
10.30000000000002
100
AcDbArc
 50
352.7308609266
 51
7.2691390734
  0
SPLINE
  5
2EF
330
1F
100
AcDbEntity
  8
0
  6
Continuous
 62
     7
370
    25
100
AcDbSpline
210
0.0
220
0.0
230
1.0
 70
    24
 71
     3
 72
    11
 73
     7
 74
     0
 42
0.00000001
 43
0.00000001
 40
0.0
 40
0.0
 40
0.0
 40
0.0
 40
0.2431641197380911
 40
0.493628473058894
 40
0.742170607686329
 40
1.0
 40
1.0
 40
1.0
 40
1.0
 10
480.052261976756
 20
565.7831036276677
 30
0.0
 10
479.7385029750592
 20
565.2396570953968
 30
0.0
 10
479.1015653500393
 20
564.1364487676101
 30
0.0
 10
478.0911763810327
 20
562.3864037378835
 30
0.0
 10
477.0594692531968
 20
560.5994345739406
 30
0.0
 10
476.4053635102986
 20
559.4664901937183
 30
0.0
 10
476.0723122283296
 20
558.889628451822
 30
0.0
  0
LWPOLYLINE
  5
2F0
330
1F
100
AcDbEntity
  8
0
  6
Continuous
 62
     7
370
    25
100
AcDbPolyline
 90
        3
 70
   128
 43
0.0
 10
581.3850457666
 20
427.0896930121
 10
581.2052363044
 20
428.9495594247
 10
581.0350457666
 20
429.6733052327
  0
ARC
  5
2F1
330
1F
100
AcDbEntity
  8
0
  6
Continuous
 62
     7
370
    25
100
AcDbCircle
 10
571.4487704102
 20
427.1611405901
 30
0.0
 40
9.93653222781648
100
AcDbArc
 50
165.3554888117
 51
359.5880172419
  0
ARC
  5
2F2
330
1F
100
AcDbEntity
  8
0
  6
Continuous
 62
     7
370
    25
100
AcDbCircle
 10
571.4491968836
 20
427.1393577345
 30
0.0
 40
10.03606137680341
100
AcDbArc
 50
164.2955587511
 51
359.6271536495
  0
LWPOLYLINE
  5
2F3
330
1F
100
AcDbEntity
  8
0
  6
Continuous
 62
     7
370
    25
100
AcDbPolyline
 90
        3
 70
   128
 43
0.0
 10
581.0350457666
 20
430.0110733351
 10
581.3139254184
 20
428.8979964918
 10
581.4850457666
 20
427.0740495656
  0
ARC
  5
2F4
330
1F
100
AcDbEntity
  8
0
  6
Continuous
 62
     7
370
    25
100
AcDbCircle
 10
571.4350457666
 20
426.9679270808
 30
0.0
 40
10.0504704401714
100
AcDbArc
 50
180.5543682238
 51
359.4456317762
  0
LINE
  5
2F5
330
1F
100
AcDbEntity
  8
0
  6
Continuous
 62
     7
370
    25
100
AcDbLine
 10
664.5912980797
 20
562.2113660397
 30
0.0
 11
663.99956196
 21
563.4226886002
 31
0.0
  0
LINE
  5
2F6
330
1F
100
AcDbEntity
  8
0
  6
Continuous
 62
     7
370
    25
100
AcDbLine
 10
663.9205278517
 20
570.5487442945
 30
0.0
 11
664.0305443547
 21
570.825544335
 31
0.0
  0
LINE
  5
2F7
330
1F
100
AcDbEntity
  8
0
  6
Continuous
 62
     7
370
    25
100
AcDbLine
 10
665.6125427901
 20
560.7642659485
 30
0.0
 11
664.5912980797
 21
562.2113660397
 31
0.0
  0
ARC
  5
2F8
330
1F
100
AcDbEntity
  8
0
  6
Continuous
 62
     7
370
    25
100
AcDbCircle
 10
673.0350457666
 20
567.0863660397
 30
0.0
 40
10.57500000000004
100
AcDbArc
 50
84.5490172093
 51
281.0490866707
  0
ARC
  5
2F9
330
1F
100
AcDbEntity
  8
0
  6
Continuous
 62
     7
370
    25
100
AcDbCircle
 10
673.0350457666
 20
567.0863660397
 30
0.0
 40
14.87500000000014
100
AcDbArc
 50
55.1611835908
 51
308.4167037132
  0
ARC
  5
2FA
330
1F
100
AcDbEntity
  8
0
  6
Continuous
 62
     7
370
    25
100
AcDbCircle
 10
673.0350457666
 20
567.0863660397
 30
0.0
 40
16.19999999999998
100
AcDbArc
 50
210.0
 51
318.1420914366
  0
ARC
  5
2FB
330
1F
100
AcDbEntity
  8
0
  6
Continuous
 62
     7
370
    25
100
AcDbCircle
 10
673.0350457666
 20
567.0863660397
 30
0.0
 40
16.19999999999999
100
AcDbArc
 50
45.9729863763
 51
210.0
  0
SPLINE
  5
2FC
330
1F
100
AcDbEntity
  8
0
  6
Continuous
 62
     7
370
    25
100
AcDbSpline
210
0.0
220
0.0
230
1.0
 70
     8
 71
     3
 72
     9
 73
     5
 74
     0
 42
0.00000001
 43
0.00000001
 40
0.0
 40
0.0
 40
0.0
 40
0.0
 40
0.5850553834534097
 40
1.0
 40
1.0
 40
1.0
 40
1.0
 10
661.9086351186758
 20
553.8578745878086
 30
0.0
 10
662.1684100384847
 20
553.4713280622447
 30
0.0
 10
662.6124276941731
 20
552.8106273209194
 30
0.0
 10
663.2842788862059
 20
552.3324684887932
 30
0.0
 10
663.5630599214603
 20
552.1340590555484
 30
0.0
  0
SPLINE
  5
2FD
330
1F
100
AcDbEntity
  8
0
  6
Continuous
 62
     7
370
    25
100
AcDbSpline
210
0.0
220
0.0
230
1.0
 70
    24
 71
     3
 72
    11
 73
     7
 74
     0
 42
0.00000001
 43
0.00000001
 40
0.0
 40
0.0
 40
0.0
 40
0.0
 40
0.2379053903768482
 40
0.4814905141303176
 40
0.7366519444348056
 40
0.9999999999999999
 40
0.9999999999999999
 40
0.9999999999999999
 40
0.9999999999999999
 10
656.0156307915103
 20
564.0648574916827
 30
0.0
 10
656.4723629022855
 20
563.2737742703719
 30
0.0
 10
657.3967311080191
 20
561.6727215731399
 30
0.0
 10
658.8730572005388
 20
559.1156497723563
 30
0.0
 10
660.4051905850023
 20
556.461916906493
 30
0.0
 10
661.4022395496487
 20
554.7349774420913
 30
0.0
 10
661.9086351186758
 20
553.8578745878086
 30
0.0
  0
SPLINE
  5
2FE
330
1F
100
AcDbEntity
  8
0
  6
Continuous
 62
     7
370
    25
100
AcDbSpline
210
0.0
220
0.0
230
1.0
 70
     8
 71
     3
 72
     9
 73
     5
 74
     0
 42
0.00000001
 43
0.00000001
 40
0.0
 40
0.0
 40
0.0
 40
0.0
 40
0.5841917497409942
 40
1.0
 40
1.0
 40
1.0
 40
1.0
 10
655.3499751505278
 20
566.3595391656736
 30
0.0
 10
655.406667298936
 20
565.8791810401074
 30
0.0
 10
655.503711032322
 20
565.0569199832212
 30
0.0
 10
655.8652852490951
 20
564.3562159921566
 30
0.0
 10
656.0156307915103
 20
564.0648574916827
 30
0.0
  0
ARC
  5
2FF
330
1F
100
AcDbEntity
  8
0
  6
Continuous
 62
     7
370
    25
100
AcDbCircle
 10
673.0350457666
 20
567.0863660397
 30
0.0
 40
17.70000000000003
100
AcDbArc
 50
177.6465635726
 51
182.3534364274
  0
SPLINE
  5
300
330
1F
100
AcDbEntity
  8
0
  6
Continuous
 62
     7
370
    25
100
AcDbSpline
210
0.0
220
0.0
230
1.0
 70
     8
 71
     3
 72
     9
 73
     5
 74
     0
 42
0.00000001
 43
0.00000001
 40
0.0
 40
0.0
 40
0.0
 40
0.0
 40
0.5850553834536183
 40
1.0
 40
1.0
 40
1.0
 40
1.0
 10
656.0156307915105
 20
570.1078745878073
 30
0.0
 10
655.810759140532
 20
569.6896296452047
 30
0.0
 10
655.4605843420898
 20
568.9747487049875
 30
0.0
 10
655.3824122424412
 20
568.1538290890618
 30
0.0
 10
655.3499751505278
 20
567.813192913816
 30
0.0
  0
SPLINE
  5
301
330
1F
100
AcDbEntity
  8
0
  6
Continuous
 62
     7
370
    25
100
AcDbSpline
210
0.0
220
0.0
230
1.0
 70
    24
 71
     3
 72
    11
 73
     7
 74
     0
 42
0.00000001
 43
0.00000001
 40
0.0
 40
0.0
 40
0.0
 40
0.0
 40
0.2328716322111468
 40
0.4710265024313225
 40
0.7311421212560294
 40
1.0
 40
1.0
 40
1.0
 40
1.0
 10
661.9086351186767
 20
580.3148574916825
 30
0.0
 10
661.4617069035164
 20
579.540755115689
 30
0.0
 10
660.5577108606069
 20
577.9749880395282
 30
0.0
 10
659.0938744903253
 20
575.4395490722334
 30
0.0
 10
657.5503250350864
 20
572.7660429917643
 30
0.0
 10
656.5328010245933
 20
571.003639707669
 30
0.0
 10
656.0156307915104
 20
570.1078745878073
 30
0.0
  0
SPLINE
  5
302
330
1F
100
AcDbEntity
  8
0
  6
Continuous
 62
     7
370
    25
100
AcDbSpline
210
0.0
220
0.0
230
1.0
 70
     8
 71
     3
 72
     9
 73
     5
 74
     0
 42
0.00000001
 43
0.00000001
 40
0.0
 40
0.0
 40
0.0
 40
0.0
 40
0.584191749740925
 40
1.0
 40
1.0
 40
1.0
 40
1.0
 10
663.5630599214603
 20
582.0386730239413
 30
0.0
 10
663.1754036560098
 20
581.7493971204416
 30
0.0
 10
662.5118265588966
 20
581.2542242536081
 30
0.0
 10
662.0857862104882
 20
580.5907398009969
 30
0.0
 10
661.9086351186767
 20
580.3148574916825
 30
0.0
  0
ARC
  5
303
330
1F
100
AcDbEntity
  8
0
  6
Continuous
 62
     7
370
    25
100
AcDbCircle
 10
673.0350457666
 20
567.0863660397
 30
0.0
 40
17.70000000000005
100
AcDbArc
 50
117.6465635726
 51
122.3534364274
  0
SPLINE
  5
304
330
1F
100
AcDbEntity
  8
0
  6
Continuous
 62
     7
370
    25
100
AcDbSpline
210
0.0
220
0.0
230
1.0
 70
     8
 71
     3
 72
     9
 73
     5
 74
     0
 42
0.00000001
 43
0.00000001
 40
0.0
 40
0.0
 40
0.0
 40
0.0
 40
0.5850553834536162
 40
1.0
 40
1.0
 40
1.0
 40
1.0
 10
667.1420414394245
 20
583.3363660397448
 30
0.0
 10
666.6773948686371
 20
583.3046676227061
 30
0.0
 10
665.8832024145066
 20
583.2504874238136
 30
0.0
 10
665.1331791228257
 20
582.9077266400137
 30
0.0
 10
664.8219609956582
 20
582.7654998980125
 30
0.0
  0
SPLINE
  5
305
330
1F
100
AcDbEntity
  8
0
  6
Continuous
 62
     7
370
    25
100
AcDbSpline
210
0.0
220
0.0
230
1.0
 70
    24
 71
     3
 72
    11
 73
     7
 74
     0
 42
0.00000001
 43
0.00000001
 40
0.0
 40
0.0
 40
0.0
 40
0.0
 40
0.2328716322111479
 40
0.4710265024313248
 40
0.7311421212560302
 40
0.9999999999999999
 40
0.9999999999999999
 40
0.9999999999999999
 40
0.9999999999999999
 10
678.928050093757
 20
583.3363660397448
 30
0.0
 10
678.0341936634366
 20
583.3363660397448
 30
0.0
 10
676.2262015776172
 20
583.3363660397448
 30
0.0
 10
673.2985288370542
 20
583.3363660397448
 30
0.0
 10
670.2114299265762
 20
583.3363660397448
 30
0.0
 10
668.17638190559
 20
583.3363660397448
 30
0.0
 10
667.1420414394245
 20
583.3363660397448
 30
0.0
  0
SPLINE
  5
306
330
1F
100
AcDbEntity
  8
0
  6
Continuous
 62
     7
370
    25
100
AcDbSpline
210
0.0
220
0.0
230
1.0
 70
     8
 71
     3
 72
     9
 73
     5
 74
     0
 42
0.00000001
 43
0.00000001
 40
0.0
 40
0.0
 40
0.0
 40
0.0
 40
0.5841917497409234
 40
1.0
 40
1.0
 40
1.0
 40
1.0
 10
681.2481305375233
 20
582.7654998980125
 30
0.0
 10
680.8037821236644
 20
582.956582120079
 30
0.0
 10
680.0431612931652
 20
583.2836703101318
 30
0.0
 10
679.2555467279836
 20
583.3208898485851
 30
0.0
 10
678.928050093757
 20
583.3363660397448
 30
0.0
  0
ARC
  5
307
330
1F
100
AcDbEntity
  8
0
  6
Continuous
 62
     7
370
    25
100
AcDbCircle
 10
673.0350457666
 20
567.0863660397
 30
0.0
 40
17.70000000000007
100
AcDbArc
 50
57.6465635726
 51
62.3534364274
  0
SPLINE
  5
308
330
1F
100
AcDbEntity
  8
0
  6
Continuous
 62
     7
370
    25
100
AcDbSpline
210
0.0
220
0.0
230
1.0
 70
     8
 71
     3
 72
     9
 73
     5
 74
     0
 42
0.00000001
 43
0.00000001
 40
0.0
 40
0.0
 40
0.0
 40
0.0
 40
0.5850553834536193
 40
1.0
 40
1.0
 40
1.0
 40
1.0
 10
684.1614564145046
 20
580.3148574916825
 30
0.0
 10
683.9016814946958
 20
580.7014040172462
 30
0.0
 10
683.4576638390075
 20
581.3621047585709
 30
0.0
 10
682.7858126469752
 20
581.8402635906966
 30
0.0
 10
682.507031611721
 20
582.0386730239413
 30
0.0
  0
LINE
  5
309
330
1F
100
AcDbEntity
  8
0
  6
Continuous
 62
     7
370
    25
100
AcDbLine
 10
685.4746395522
 20
578.0403575775
 30
0.0
 11
684.1614564145
 21
580.3148574917
 31
0.0
  0
SPLINE
  5
30A
330
1F
100
AcDbEntity
  8
0
  6
Continuous
 62
     7
370
    25
100
AcDbSpline
210
0.0
220
0.0
230
1.0
 70
    24
 71
     3
 72
     9
 73
     5
 74
     0
 42
0.00000001
 43
0.00000001
 40
0.0
 40
0.0
 40
0.0
 40
0.0
 40
0.7614369373193333
 40
0.9999999999999999
 40
0.9999999999999999
 40
0.9999999999999999
 40
0.9999999999999999
 10
684.1614564145046
 20
553.8578745878073
 30
0.0
 10
684.6065246805271
 20
554.6287554373946
 30
0.0
 10
685.1910356809905
 20
555.6411581877802
 30
0.0
 10
685.8016360568635
 20
556.698749061913
 30
0.0
 10
685.9473027526059
 20
556.9510511799093
 30
0.0
  0
SPLINE
  5
30B
330
1F
100
AcDbEntity
  8
0
  6
Continuous
 62
     7
370
    25
100
AcDbSpline
210
0.0
220
0.0
230
1.0
 70
     8
 71
     3
 72
     9
 73
     5
 74
     0
 42
0.00000001
 43
0.00000001
 40
0.0
 40
0.0
 40
0.0
 40
0.0
 40
0.5841917497409237
 40
1.0
 40
1.0
 40
1.0
 40
1.0
 10
682.507031611721
 20
552.1340590555484
 30
0.0
 10
682.8946878771716
 20
552.423334959048
 30
0.0
 10
683.5582649742847
 20
552.9185078258816
 30
0.0
 10
683.9843053226932
 20
553.5819922784929
 30
0.0
 10
684.1614564145046
 20
553.8578745878073
 30
0.0
  0
ARC
  5
30C
330
1F
100
AcDbEntity
  8
0
  6
Continuous
 62
     7
370
    25
100
AcDbCircle
 10
673.0350457666
 20
567.0863660397
 30
0.0
 40
17.69999999999996
100
AcDbArc
 50
297.6465635726
 51
302.3534364274
  0
SPLINE
  5
30D
330
1F
100
AcDbEntity
  8
0
  6
Continuous
 62
     7
370
    25
100
AcDbSpline
210
0.0
220
0.0
230
1.0
 70
     8
 71
     3
 72
     9
 73
     5
 74
     0
 42
0.00000001
 43
0.00000001
 40
0.0
 40
0.0
 40
0.0
 40
0.0
 40
0.5850553834536171
 40
1.0
 40
1.0
 40
1.0
 40
1.0
 10
678.928050093757
 20
550.8363660397448
 30
0.0
 10
679.3926966645442
 20
550.8680644567835
 30
0.0
 10
680.1868891186748
 20
550.9222446556761
 30
0.0
 10
680.9369124103557
 20
551.2650054394761
 30
0.0
 10
681.2481305375233
 20
551.4072321814772
 30
0.0
  0
SPLINE
  5
30E
330
1F
100
AcDbEntity
  8
0
  6
Continuous
 62
     7
370
    25
100
AcDbSpline
210
0.0
220
0.0
230
1.0
 70
    24
 71
     3
 72
    11
 73
     7
 74
     0
 42
0.00000001
 43
0.00000001
 40
0.0
 40
0.0
 40
0.0
 40
0.0
 40
0.2328716322111485
 40
0.471026502431326
 40
0.7311421212560308
 40
1.0
 40
1.0
 40
1.0
 40
1.0
 10
667.1420414394245
 20
550.8363660397448
 30
0.0
 10
668.0358978697449
 20
550.8363660397448
 30
0.0
 10
669.8438899555642
 20
550.8363660397448
 30
0.0
 10
672.7715626961271
 20
550.8363660397448
 30
0.0
 10
675.8586616066051
 20
550.8363660397448
 30
0.0
 10
677.8937096275912
 20
550.8363660397448
 30
0.0
 10
678.928050093757
 20
550.8363660397448
 30
0.0
  0
SPLINE
  5
30F
330
1F
100
AcDbEntity
  8
0
  6
Continuous
 62
     7
370
    25
100
AcDbSpline
210
0.0
220
0.0
230
1.0
 70
     8
 71
     3
 72
     9
 73
     5
 74
     0
 42
0.00000001
 43
0.00000001
 40
0.0
 40
0.0
 40
0.0
 40
0.0
 40
0.5841917497409266
 40
1.0
 40
1.0
 40
1.0
 40
1.0
 10
664.8219609956583
 20
551.4072321814772
 30
0.0
 10
665.2663094095169
 20
551.2161499594106
 30
0.0
 10
666.0269302400161
 20
550.8890617693578
 30
0.0
 10
666.8145448051978
 20
550.8518422309046
 30
0.0
 10
667.1420414394245
 20
550.8363660397448
 30
0.0
  0
ARC
  5
310
330
1F
100
AcDbEntity
  8
0
  6
Continuous
 62
     7
370
    25
100
AcDbCircle
 10
673.0350457666
 20
567.0863660397
 30
0.0
 40
17.69999999999996
100
AcDbArc
 50
237.6465635726
 51
242.3534364274
  0
ARC
  5
311
330
1F
100
AcDbEntity
  8
0
  6
Continuous
 62
     7
370
    25
100
AcDbCircle
 10
469.8350457666
 20
567.0863660397
 30
0.0
 40
10.57500000000001
100
AcDbArc
 50
261.6509017607
 51
30.0
  0
ARC
  5
312
330
1F
100
AcDbEntity
  8
0
  6
Continuous
 62
     7
370
    25
100
AcDbCircle
 10
469.8350457666
 20
567.0863660397
 30
0.0
 40
10.57500000000004
100
AcDbArc
 50
30.0
 51
98.3490982393
  0
ARC
  5
313
330
1F
100
AcDbEntity
  8
0
  6
Continuous
 62
     7
370
    25
100
AcDbCircle
 10
469.8350457666
 20
567.0863660397
 30
0.0
 40
14.87500000000005
100
AcDbArc
 50
233.3837470415
 51
30.0
  0
ARC
  5
314
330
1F
100
AcDbEntity
  8
0
  6
Continuous
 62
     7
370
    25
100
AcDbCircle
 10
469.8350457666
 20
567.0863660397
 30
0.0
 40
14.87500000000005
100
AcDbArc
 50
30.0
 51
126.6162529585
  0
SPLINE
  5
315
330
1F
100
AcDbEntity
  8
0
  6
Continuous
 62
     7
370
    25
100
AcDbSpline
210
0.0
220
0.0
230
1.0
 70
     8
 71
     3
 72
     9
 73
     5
 74
     0
 42
0.00000001
 43
0.00000001
 40
0.0
 40
0.0
 40
0.0
 40
0.0
 40
0.5850553834534097
 40
1.0
 40
1.0
 40
1.0
 40
1.0
 10
458.7086351186758
 20
553.8578745878086
 30
0.0
 10
458.9684100384846
 20
553.4713280622447
 30
0.0
 10
459.4124276941731
 20
552.8106273209194
 30
0.0
 10
460.0842788862059
 20
552.3324684887933
 30
0.0
 10
460.3630599214603
 20
552.1340590555484
 30
0.0
  0
LINE
  5
316
330
1F
100
AcDbEntity
  8
0
  6
Continuous
 62
     7
370
    25
100
AcDbLine
 10
457.2047639283
 20
556.4626558976
 30
0.0
 11
458.7086351187
 21
553.8578745878
 31
0.0
  0
SPLINE
  5
317
330
1F
100
AcDbEntity
  8
0
  6
Continuous
 62
     7
370
    25
100
AcDbSpline
210
0.0
220
0.0
230
1.0
 70
    24
 71
     3
 72
     9
 73
     5
 74
     0
 42
0.00000001
 43
0.00000001
 40
0.0
 40
0.0
 40
0.0
 40
0.0
 40
0.9356442815640592
 40
1.0
 40
1.0
 40
1.0
 40
1.0
 10
458.7086351186767
 20
580.3148574916825
 30
0.0
 10
458.2647204196657
 20
579.5459746787687
 30
0.0
 10
457.790272269062
 20
578.724206376366
 30
0.0
 10
457.2945923164798
 20
577.8656635142005
 30
0.0
 10
457.2626924770171
 20
577.8104113714978
 30
0.0
  0
SPLINE
  5
318
330
1F
100
AcDbEntity
  8
0
  6
Continuous
 62
     7
370
    25
100
AcDbSpline
210
0.0
220
0.0
230
1.0
 70
     8
 71
     3
 72
     9
 73
     5
 74
     0
 42
0.00000001
 43
0.00000001
 40
0.0
 40
0.0
 40
0.0
 40
0.0
 40
0.584191749740925
 40
1.0
 40
1.0
 40
1.0
 40
1.0
 10
460.3630599214603
 20
582.0386730239413
 30
0.0
 10
459.9754036560097
 20
581.7493971204416
 30
0.0
 10
459.3118265588966
 20
581.2542242536081
 30
0.0
 10
458.8857862104881
 20
580.5907398009969
 30
0.0
 10
458.7086351186767
 20
580.3148574916825
 30
0.0
  0
ARC
  5
319
330
1F
100
AcDbEntity
  8
0
  6
Continuous
 62
     7
370
    25
100
AcDbCircle
 10
469.8350457666
 20
567.0863660397
 30
0.0
 40
17.70000000000002
100
AcDbArc
 50
117.6465635726
 51
122.3534364274
  0
SPLINE
  5
31A
330
1F
100
AcDbEntity
  8
0
  6
Continuous
 62
     7
370
    25
100
AcDbSpline
210
0.0
220
0.0
230
1.0
 70
     8
 71
     3
 72
     9
 73
     5
 74
     0
 42
0.00000001
 43
0.00000001
 40
0.0
 40
0.0
 40
0.0
 40
0.0
 40
0.5850553834536162
 40
1.0
 40
1.0
 40
1.0
 40
1.0
 10
463.9420414394244
 20
583.3363660397448
 30
0.0
 10
463.477394868637
 20
583.3046676227061
 30
0.0
 10
462.6832024145066
 20
583.2504874238136
 30
0.0
 10
461.9331791228255
 20
582.9077266400137
 30
0.0
 10
461.6219609956582
 20
582.7654998980125
 30
0.0
  0
SPLINE
  5
31B
330
1F
100
AcDbEntity
  8
0
  6
Continuous
 62
     7
370
    25
100
AcDbSpline
210
0.0
220
0.0
230
1.0
 70
    24
 71
     3
 72
    11
 73
     7
 74
     0
 42
0.00000001
 43
0.00000001
 40
0.0
 40
0.0
 40
0.0
 40
0.0
 40
0.2328716322111479
 40
0.4710265024313248
 40
0.7311421212560302
 40
0.9999999999999999
 40
0.9999999999999999
 40
0.9999999999999999
 40
0.9999999999999999
 10
475.7280500937568
 20
583.3363660397448
 30
0.0
 10
474.8341936634365
 20
583.3363660397448
 30
0.0
 10
473.0262015776171
 20
583.3363660397448
 30
0.0
 10
470.0985288370542
 20
583.3363660397448
 30
0.0
 10
467.0114299265762
 20
583.3363660397448
 30
0.0
 10
464.97638190559
 20
583.3363660397448
 30
0.0
 10
463.9420414394244
 20
583.3363660397448
 30
0.0
  0
SPLINE
  5
31C
330
1F
100
AcDbEntity
  8
0
  6
Continuous
 62
     7
370
    25
100
AcDbSpline
210
0.0
220
0.0
230
1.0
 70
     8
 71
     3
 72
     9
 73
     5
 74
     0
 42
0.00000001
 43
0.00000001
 40
0.0
 40
0.0
 40
0.0
 40
0.0
 40
0.5841917497409234
 40
1.0
 40
1.0
 40
1.0
 40
1.0
 10
478.0481305375231
 20
582.7654998980125
 30
0.0
 10
477.6037821236644
 20
582.956582120079
 30
0.0
 10
476.8431612931651
 20
583.2836703101318
 30
0.0
 10
476.0555467279835
 20
583.3208898485851
 30
0.0
 10
475.7280500937568
 20
583.3363660397448
 30
0.0
  0
ARC
  5
31D
330
1F
100
AcDbEntity
  8
0
  6
Continuous
 62
     7
370
    25
100
AcDbCircle
 10
469.8350457666
 20
567.0863660397
 30
0.0
 40
17.70000000000005
100
AcDbArc
 50
57.6465635726
 51
62.3534364274
  0
SPLINE
  5
31E
330
1F
100
AcDbEntity
  8
0
  6
Continuous
 62
     7
370
    25
100
AcDbSpline
210
0.0
220
0.0
230
1.0
 70
     8
 71
     3
 72
     9
 73
     5
 74
     0
 42
0.00000001
 43
0.00000001
 40
0.0
 40
0.0
 40
0.0
 40
0.0
 40
0.5850553834536193
 40
1.0
 40
1.0
 40
1.0
 40
1.0
 10
480.9614564145046
 20
580.3148574916825
 30
0.0
 10
480.7016814946957
 20
580.7014040172462
 30
0.0
 10
480.2576638390075
 20
581.3621047585709
 30
0.0
 10
479.5858126469751
 20
581.8402635906966
 30
0.0
 10
479.307031611721
 20
582.0386730239413
 30
0.0
  0
SPLINE
  5
31F
330
1F
100
AcDbEntity
  8
0
  6
Continuous
 62
     7
370
    25
100
AcDbSpline
210
0.0
220
0.0
230
1.0
 70
    24
 71
     3
 72
    11
 73
     7
 74
     0
 42
0.00000001
 43
0.00000001
 40
0.0
 40
0.0
 40
0.0
 40
0.0
 40
0.2556279644380972
 40
0.5185037642963867
 40
0.7560467972580103
 40
1.0
 40
1.0
 40
1.0
 40
1.0
 10
486.8544607416709
 20
570.1078745878074
 30
0.0
 10
486.3631676634027
 20
570.9588191607747
 30
0.0
 10
485.3666518439587
 20
572.6848351905978
 30
0.0
 10
483.8464409375055
 20
575.3179177187951
 30
0.0
 10
482.3547252159573
 20
577.9016451389658
 30
0.0
 10
481.4299830524509
 20
579.5033455500602
 30
0.0
 10
480.9614564145046
 20
580.3148574916825
 30
0.0
  0
SPLINE
  5
320
330
1F
100
AcDbEntity
  8
0
  6
Continuous
 62
     7
370
    25
100
AcDbSpline
210
0.0
220
0.0
230
1.0
 70
     8
 71
     3
 72
     9
 73
     5
 74
     0
 42
0.00000001
 43
0.00000001
 40
0.0
 40
0.0
 40
0.0
 40
0.0
 40
0.5841917497409242
 40
1.0
 40
1.0
 40
1.0
 40
1.0
 10
487.5201163826534
 20
567.813192913816
 30
0.0
 10
487.4634242342453
 20
568.2935510393824
 30
0.0
 10
487.3663805008592
 20
569.1158120962688
 30
0.0
 10
487.0048062840861
 20
569.8165160873332
 30
0.0
 10
486.8544607416709
 20
570.1078745878074
 30
0.0
  0
ARC
  5
321
330
1F
100
AcDbEntity
  8
0
  6
Continuous
 62
     7
370
    25
100
AcDbCircle
 10
469.8350457666
 20
567.0863660397
 30
0.0
 40
17.70000000000003
100
AcDbArc
 50
357.6465635726
 51
2.3534364274
  0
SPLINE
  5
322
330
1F
100
AcDbEntity
  8
0
  6
Continuous
 62
     7
370
    25
100
AcDbSpline
210
0.0
220
0.0
230
1.0
 70
     8
 71
     3
 72
     9
 73
     5
 74
     0
 42
0.00000001
 43
0.00000001
 40
0.0
 40
0.0
 40
0.0
 40
0.0
 40
0.5850553834536182
 40
0.9999999999999999
 40
0.9999999999999999
 40
0.9999999999999999
 40
0.9999999999999999
 10
486.8544607416709
 20
564.0648574916825
 30
0.0
 10
487.0593323926493
 20
564.4831024342849
 30
0.0
 10
487.4095071910916
 20
565.1979833745021
 30
0.0
 10
487.4876792907401
 20
566.0189029904279
 30
0.0
 10
487.5201163826534
 20
566.3595391656736
 30
0.0
  0
SPLINE
  5
323
330
1F
100
AcDbEntity
  8
0
  6
Continuous
 62
     7
370
    25
100
AcDbSpline
210
0.0
220
0.0
230
1.0
 70
    24
 71
     3
 72
    11
 73
     7
 74
     0
 42
0.00000001
 43
0.00000001
 40
0.0
 40
0.0
 40
0.0
 40
0.0
 40
0.2328716322111471
 40
0.471026502431323
 40
0.7311421212560296
 40
1.0
 40
1.0
 40
1.0
 40
1.0
 10
480.9614564145046
 20
553.8578745878073
 30
0.0
 10
481.4083846296649
 20
554.6319769638009
 30
0.0
 10
482.3123806725745
 20
556.1977440399615
 30
0.0
 10
483.776217042856
 20
558.7331830072562
 30
0.0
 10
485.319766498095
 20
561.4066890877255
 30
0.0
 10
486.337290508588
 20
563.1690923718207
 30
0.0
 10
486.8544607416709
 20
564.0648574916825
 30
0.0
  0
SPLINE
  5
324
330
1F
100
AcDbEntity
  8
0
  6
Continuous
 62
     7
370
    25
100
AcDbSpline
210
0.0
220
0.0
230
1.0
 70
     8
 71
     3
 72
     9
 73
     5
 74
     0
 42
0.00000001
 43
0.00000001
 40
0.0
 40
0.0
 40
0.0
 40
0.0
 40
0.5841917497409237
 40
1.0
 40
1.0
 40
1.0
 40
1.0
 10
479.307031611721
 20
552.1340590555484
 30
0.0
 10
479.6946878771715
 20
552.423334959048
 30
0.0
 10
480.3582649742847
 20
552.9185078258816
 30
0.0
 10
480.7843053226931
 20
553.5819922784929
 30
0.0
 10
480.9614564145046
 20
553.8578745878073
 30
0.0
  0
ARC
  5
325
330
1F
100
AcDbEntity
  8
0
  6
Continuous
 62
     7
370
    25
100
AcDbCircle
 10
469.8350457666
 20
567.0863660397
 30
0.0
 40
17.69999999999996
100
AcDbArc
 50
297.6465635726
 51
302.3534364274
  0
SPLINE
  5
326
330
1F
100
AcDbEntity
  8
0
  6
Continuous
 62
     7
370
    25
100
AcDbSpline
210
0.0
220
0.0
230
1.0
 70
     8
 71
     3
 72
     9
 73
     5
 74
     0
 42
0.00000001
 43
0.00000001
 40
0.0
 40
0.0
 40
0.0
 40
0.0
 40
0.5850553834536171
 40
1.0
 40
1.0
 40
1.0
 40
1.0
 10
475.7280500937568
 20
550.8363660397448
 30
0.0
 10
476.1926966645441
 20
550.8680644567835
 30
0.0
 10
476.9868891186747
 20
550.9222446556761
 30
0.0
 10
477.7369124103557
 20
551.2650054394761
 30
0.0
 10
478.0481305375231
 20
551.4072321814772
 30
0.0
  0
SPLINE
  5
327
330
1F
100
AcDbEntity
  8
0
  6
Continuous
 62
     7
370
    25
100
AcDbSpline
210
0.0
220
0.0
230
1.0
 70
    24
 71
     3
 72
    11
 73
     7
 74
     0
 42
0.00000001
 43
0.00000001
 40
0.0
 40
0.0
 40
0.0
 40
0.0
 40
0.2328716322111485
 40
0.471026502431326
 40
0.7311421212560308
 40
1.0
 40
1.0
 40
1.0
 40
1.0
 10
463.9420414394244
 20
550.8363660397448
 30
0.0
 10
464.8358978697449
 20
550.8363660397448
 30
0.0
 10
466.6438899555641
 20
550.8363660397448
 30
0.0
 10
469.5715626961271
 20
550.8363660397448
 30
0.0
 10
472.6586616066051
 20
550.8363660397448
 30
0.0
 10
474.6937096275913
 20
550.8363660397448
 30
0.0
 10
475.7280500937568
 20
550.8363660397448
 30
0.0
  0
SPLINE
  5
328
330
1F
100
AcDbEntity
  8
0
  6
Continuous
 62
     7
370
    25
100
AcDbSpline
210
0.0
220
0.0
230
1.0
 70
     8
 71
     3
 72
     9
 73
     5
 74
     0
 42
0.00000001
 43
0.00000001
 40
0.0
 40
0.0
 40
0.0
 40
0.0
 40
0.5841917497409266
 40
1.0
 40
1.0
 40
1.0
 40
1.0
 10
461.6219609956582
 20
551.4072321814772
 30
0.0
 10
462.0663094095169
 20
551.2161499594106
 30
0.0
 10
462.8269302400161
 20
550.8890617693578
 30
0.0
 10
463.6145448051977
 20
550.8518422309046
 30
0.0
 10
463.9420414394244
 20
550.8363660397448
 30
0.0
  0
ARC
  5
329
330
1F
100
AcDbEntity
  8
0
  6
Continuous
 62
     7
370
    25
100
AcDbCircle
 10
469.8350457666
 20
567.0863660397
 30
0.0
 40
17.69999999999993
100
AcDbArc
 50
237.6465635726
 51
242.3534364274
  0
ARC
  5
32A
330
1F
100
AcDbEntity
  8
0
  6
Continuous
 62
     7
370
    25
100
AcDbCircle
 10
469.8350457666
 20
567.0863660397
 30
0.0
 40
16.20000000000004
100
AcDbArc
 50
223.9250761661
 51
136.0749238339
  0
SPLINE
  5
32B
330
1F
100
AcDbEntity
  8
0
  6
Continuous
 62
     7
370
    25
100
AcDbSpline
210
0.0
220
0.0
230
1.0
 70
    24
 71
     3
 72
    10
 73
     6
 74
     0
 42
0.00000001
 43
0.00000001
 40
0.0
 40
0.0
 40
0.0
 40
0.0
 40
0.1972239738038319
 40
0.5966072581762896
 40
0.9999999999999999
 40
0.9999999999999999
 40
0.9999999999999999
 40
0.9999999999999999
 10
455.2143058663864
 20
557.5960091590135
 30
0.0
 10
455.5199587514627
 20
557.0666028325815
 30
0.0
 10
456.4445660707554
 20
555.4651359785163
 30
0.0
 10
457.9793751564305
 20
552.8067686622088
 30
0.0
 10
459.1811548040856
 20
550.7252252529679
 30
0.0
 10
459.7850457665907
 20
549.6792554236775
 30
0.0
  0
SPLINE
  5
32C
330
1F
100
AcDbEntity
  8
0
  6
Continuous
 62
     7
370
    25
100
AcDbSpline
210
0.0
220
0.0
230
1.0
 70
    24
 71
     3
 72
     9
 73
     5
 74
     0
 42
0.00000001
 43
0.00000001
 40
0.0
 40
0.0
 40
0.0
 40
0.0
 40
0.5868535206726713
 40
1.0
 40
1.0
 40
1.0
 40
1.0
 10
459.7850457665907
 20
584.4934766558121
 30
0.0
 10
458.9134712520118
 20
582.9838653139794
 30
0.0
 10
457.4283059017558
 20
580.4114834696952
 30
0.0
 10
455.8923480487863
 20
577.7511264300675
 30
0.0
 10
455.2577724694367
 20
576.6520092853917
 30
0.0
  0
SPLINE
  5
32D
330
1F
100
AcDbEntity
  8
0
  6
Continuous
 62
     7
370
    25
100
AcDbSpline
210
0.0
220
0.0
230
1.0
 70
    24
 71
     3
 72
     9
 73
     5
 74
     0
 42
0.00000001
 43
0.00000001
 40
0.0
 40
0.0
 40
0.0
 40
0.0
 40
0.5924196483372641
 40
1.0
 40
1.0
 40
1.0
 40
1.0
 10
479.8850457665906
 20
584.4934766558121
 30
0.0
 10
478.1420073466278
 20
584.4934766558121
 30
0.0
 10
475.1997713406902
 20
584.4934766558121
 30
0.0
 10
472.1569047796221
 20
584.4934766558121
 30
0.0
 10
470.9166921565991
 20
584.4934766558121
 30
0.0
  0
SPLINE
  5
32E
330
1F
100
AcDbEntity
  8
0
  6
Continuous
 62
     7
370
    25
100
AcDbSpline
210
0.0
220
0.0
230
1.0
 70
    24
 71
     3
 72
     9
 73
     5
 74
     0
 42
0.00000001
 43
0.00000001
 40
0.0
 40
0.0
 40
0.0
 40
0.0
 40
0.4367456022987593
 40
1.0
 40
1.0
 40
1.0
 40
1.0
 10
468.1372390093793
 20
584.4934766558121
 30
0.0
 10
466.9008674266437
 20
584.4934766558121
 30
0.0
 10
464.0699938557867
 20
584.4934766558121
 30
0.0
 10
461.3289504942602
 20
584.4934766558121
 30
0.0
 10
459.7850457665907
 20
584.4934766558121
 30
0.0
  0
SPLINE
  5
32F
330
1F
100
AcDbEntity
  8
0
  6
Continuous
 62
     7
370
    25
100
AcDbSpline
210
0.0
220
0.0
230
1.0
 70
    24
 71
     3
 72
     9
 73
     5
 74
     0
 42
0.00000001
 43
0.00000001
 40
0.0
 40
0.0
 40
0.0
 40
0.0
 40
0.5285942534779094
 40
1.0
 40
1.0
 40
1.0
 40
1.0
 10
482.6155738466869
 20
579.7640632895918
 30
0.0
 10
482.1271699985692
 20
580.6100035691438
 30
0.0
 10
481.2032026173421
 20
582.2103620179656
 30
0.0
 10
480.3073539679351
 20
583.7620173946304
 30
0.0
 10
479.8850457665906
 20
584.4934766558121
 30
0.0
  0
SPLINE
  5
330
330
1F
100
AcDbEntity
  8
0
  6
Continuous
 62
     7
370
    25
100
AcDbSpline
210
0.0
220
0.0
230
1.0
 70
    24
 71
     3
 72
     9
 73
     5
 74
     0
 42
0.00000001
 43
0.00000001
 40
0.0
 40
0.0
 40
0.0
 40
0.0
 40
0.9668021352702458
 40
1.0
 40
1.0
 40
1.0
 40
1.0
 10
479.8850457665906
 20
549.6792554236777
 30
0.0
 10
480.752845142252
 20
551.1823280330999
 30
0.0
 10
481.6504428450321
 20
552.737012859072
 30
0.0
 10
482.5788718399183
 20
554.345099049435
 30
0.0
 10
482.6096937001017
 20
554.3984840772564
 30
0.0
  0
SPLINE
  5
331
330
1F
100
AcDbEntity
  8
0
  6
Continuous
 62
     7
370
    25
100
AcDbSpline
210
0.0
220
0.0
230
1.0
 70
    24
 71
     3
 72
     9
 73
     5
 74
     0
 42
0.00000001
 43
0.00000001
 40
0.0
 40
0.0
 40
0.0
 40
0.0
 40
0.6304993089867591
 40
0.9999999999999999
 40
0.9999999999999999
 40
0.9999999999999999
 40
0.9999999999999999
 10
459.7850457665907
 20
549.6792554236775
 30
0.0
 10
461.5273274736541
 20
549.6792554236777
 30
0.0
 10
464.2906638996105
 20
549.6792554236777
 30
0.0
 10
467.148553193798
 20
549.6792554236777
 30
0.0
 10
468.2045452628395
 20
549.6792554236777
 30
0.0
  0
SPLINE
  5
332
330
1F
100
AcDbEntity
  8
0
  6
Continuous
 62
     7
370
    25
100
AcDbSpline
210
0.0
220
0.0
230
1.0
 70
    24
 71
     3
 72
     9
 73
     5
 74
     0
 42
0.00000001
 43
0.00000001
 40
0.0
 40
0.0
 40
0.0
 40
0.0
 40
0.4717879238049068
 40
1.0
 40
1.0
 40
1.0
 40
1.0
 10
470.9720430588512
 20
549.6792554236777
 30
0.0
 10
472.3967466016268
 20
549.6792554236777
 30
0.0
 10
475.4165431476798
 20
549.6792554236775
 30
0.0
 10
478.340550023765
 20
549.6792554236777
 30
0.0
 10
479.8850457665906
 20
549.6792554236777
 30
0.0
  0
SPLINE
  5
333
330
1F
100
AcDbEntity
  8
0
  6
Continuous
 62
     7
370
    25
100
AcDbSpline
210
0.0
220
0.0
230
1.0
 70
    24
 71
     3
 72
    10
 73
     6
 74
     0
 42
0.00000001
 43
0.00000001
 40
0.0
 40
0.0
 40
0.0
 40
0.0
 40
0.1513575798854884
 40
0.5735595215766347
 40
1.0
 40
1.0
 40
1.0
 40
1.0
 10
687.4047719164067
 20
577.011491489547
 30
0.0
 10
687.1829253248776
 20
577.3957410575612
 30
0.0
 10
686.3422523635561
 20
578.8518293391196
 30
0.0
 10
684.8908273536468
 20
581.3657711996586
 30
0.0
 10
683.6889738443615
 20
583.4474425409958
 30
0.0
 10
683.0850457665907
 20
584.4934766558121
 30
0.0
  0
SPLINE
  5
334
330
1F
100
AcDbEntity
  8
0
  6
Continuous
 62
     7
370
    25
100
AcDbSpline
210
0.0
220
0.0
230
1.0
 70
    24
 71
     3
 72
     9
 73
     5
 74
     0
 42
0.00000001
 43
0.00000001
 40
0.0
 40
0.0
 40
0.0
 40
0.0
 40
0.581344542046336
 40
0.9999999999999999
 40
0.9999999999999999
 40
0.9999999999999999
 40
0.9999999999999999
 10
683.0850457665907
 20
549.6792554236777
 30
0.0
 10
683.9566750179387
 20
551.1889615723755
 30
0.0
 10
685.4560083535192
 20
553.785883087083
 30
0.0
 10
687.0066155153515
 20
556.4716134739567
 30
0.0
 10
687.6557856667947
 20
557.5960091590133
 30
0.0
  0
SPLINE
  5
335
330
1F
100
AcDbEntity
  8
0
  6
Continuous
 62
     7
370
    25
100
AcDbSpline
210
0.0
220
0.0
230
1.0
 70
    24
 71
     3
 72
     9
 73
     5
 74
     0
 42
0.00000001
 43
0.00000001
 40
0.0
 40
0.0
 40
0.0
 40
0.0
 40
0.5960500860536749
 40
1.0
 40
1.0
 40
1.0
 40
1.0
 10
662.9850457665907
 20
549.6792554236775
 30
0.0
 10
664.7280120430784
 20
549.6792554236775
 30
0.0
 10
667.652206363773
 20
549.6792554236775
 30
0.0
 10
670.6764183163366
 20
549.6792554236775
 30
0.0
 10
671.8980484743302
 20
549.6792554236775
 30
0.0
  0
SPLINE
  5
336
330
1F
100
AcDbEntity
  8
0
  6
Continuous
 62
     7
370
    25
100
AcDbSpline
210
0.0
220
0.0
230
1.0
 70
    24
 71
     3
 72
     9
 73
     5
 74
     0
 42
0.00000001
 43
0.00000001
 40
0.0
 40
0.0
 40
0.0
 40
0.0
 40
0.4411948341545202
 40
1.0
 40
1.0
 40
1.0
 40
1.0
 10
674.6655462703417
 20
549.6792554236775
 30
0.0
 10
675.9245166419716
 20
549.6792554236775
 30
0.0
 10
678.7780640413705
 20
549.6792554236777
 30
0.0
 10
681.5410659992734
 20
549.6792554236777
 30
0.0
 10
683.0850457665907
 20
549.6792554236777
 30
0.0
  0
SPLINE
  5
337
330
1F
100
AcDbEntity
  8
0
  6
Continuous
 62
     7
370
    25
100
AcDbSpline
210
0.0
220
0.0
230
1.0
 70
    24
 71
     3
 72
     9
 73
     5
 74
     0
 42
0.00000001
 43
0.00000001
 40
0.0
 40
0.0
 40
0.0
 40
0.0
 40
0.52865723153724
 40
1.0
 40
1.0
 40
1.0
 40
1.0
 10
660.2541493071298
 20
554.4093068416739
 30
0.0
 10
660.7426769224573
 20
553.563152191026
 30
0.0
 10
661.6667683491595
 20
551.9625788891392
 30
0.0
 10
662.5627372869812
 20
550.4107151668285
 30
0.0
 10
662.9850457665907
 20
549.6792554236775
 30
0.0
  0
SPLINE
  5
338
330
1F
100
AcDbEntity
  8
0
  6
Continuous
 62
     7
370
    25
100
AcDbSpline
210
0.0
220
0.0
230
1.0
 70
    24
 71
     3
 72
     9
 73
     5
 74
     0
 42
0.00000001
 43
0.00000001
 40
0.0
 40
0.0
 40
0.0
 40
0.0
 40
0.9621265735495605
 40
1.0
 40
1.0
 40
1.0
 40
1.0
 10
662.9850457665907
 20
584.4934766558121
 30
0.0
 10
662.1171999349235
 20
582.9903235822276
 30
0.0
 10
661.2151919709762
 20
581.4279999598389
 30
0.0
 10
660.2822028868094
 20
579.812015463155
 30
0.0
 10
660.2468673933512
 20
579.7508125931748
 30
0.0
  0
SPLINE
  5
339
330
1F
100
AcDbEntity
  8
0
  6
Continuous
 62
     7
370
    25
100
AcDbSpline
210
0.0
220
0.0
230
1.0
 70
    24
 71
     3
 72
     9
 73
     5
 74
     0
 42
0.00000001
 43
0.00000001
 40
0.0
 40
0.0
 40
0.0
 40
0.0
 40
0.6355086846123728
 40
1.0
 40
1.0
 40
1.0
 40
1.0
 10
683.0850457665907
 20
584.4934766558121
 30
0.0
 10
681.342863605035
 20
584.4934766558121
 30
0.0
 10
678.6014657237167
 20
584.4934766558121
 30
0.0
 10
675.7662602839403
 20
584.4934766558121
 30
0.0
 10
674.7328525238021
 20
584.4934766558121
 30
0.0
  0
SPLINE
  5
33A
330
1F
100
AcDbEntity
  8
0
  6
Continuous
 62
     7
370
    25
100
AcDbSpline
210
0.0
220
0.0
230
1.0
 70
    24
 71
     3
 72
     9
 73
     5
 74
     0
 42
0.00000001
 43
0.00000001
 40
0.0
 40
0.0
 40
0.0
 40
0.0
 40
0.4750115700743611
 40
0.9999999999999999
 40
0.9999999999999999
 40
0.9999999999999999
 40
0.9999999999999999
 10
671.9533993765821
 20
584.4934766558121
 30
0.0
 10
670.5101038395377
 20
584.4934766558121
 30
0.0
 10
667.4716609299927
 20
584.4934766558121
 30
0.0
 10
664.5295958786396
 20
584.4934766558121
 30
0.0
 10
662.9850457665907
 20
584.4934766558121
 30
0.0
  0
ARC
  5
33B
330
1F
100
AcDbEntity
  8
0
  6
Continuous
 62
     7
370
    25
100
AcDbCircle
 10
469.8350457666
 20
567.0863660397
 30
0.0
 40
25.80000000000007
100
AcDbArc
 50
27.7177476896
 51
90.0
  0
ARC
  5
33C
330
1F
100
AcDbEntity
  8
0
  6
Continuous
 62
     7
370
    25
100
AcDbCircle
 10
469.8350457666
 20
567.0863660397
 30
0.0
 40
25.79999999999998
100
AcDbArc
 50
191.6486469977
 51
332.2822523104
  0
ARC
  5
33D
330
1F
100
AcDbEntity
  8
0
  6
Continuous
 62
     7
370
    25
100
AcDbCircle
 10
469.8350457666
 20
567.0863660397
 30
0.0
 40
25.80000000000007
100
AcDbArc
 50
90.0
 51
168.1424552949
  0
ARC
  5
33E
330
1F
100
AcDbEntity
  8
0
  6
Continuous
 62
     7
370
    25
100
AcDbCircle
 10
673.0350457666
 20
567.0863660397
 30
0.0
 40
25.79999999999995
100
AcDbArc
 50
207.7177476896
 51
270.0
  0
ARC
  5
33F
330
1F
100
AcDbEntity
  8
0
  6
Continuous
 62
     7
370
    25
100
AcDbCircle
 10
673.0350457666
 20
567.0863660397
 30
0.0
 40
25.80000000000005
100
AcDbArc
 50
12.3378998438
 51
152.2822523104
  0
ARC
  5
340
330
1F
100
AcDbEntity
  8
0
  6
Continuous
 62
     7
370
    25
100
AcDbCircle
 10
673.0350457666
 20
567.0863660397
 30
0.0
 40
25.79999999999995
100
AcDbArc
 50
270.0
 51
348.6669250917
  0
ARC
  5
341
330
1F
100
AcDbEntity
  8
0
  6
Continuous
 62
     8
370
    25
100
AcDbCircle
 10
571.4350457666
 20
437.4983198341
 30
0.0
 40
8.600413551322882
100
AcDbArc
 50
180.5618810823
 51
359.4381189177
  0
SPLINE
  5
342
330
1F
100
AcDbEntity
  8
0
  6
Continuous
 62
     8
370
    25
100
AcDbSpline
210
0.0
220
0.0
230
1.0
 70
     8
 71
     3
 72
    17
 73
    13
 74
     0
 42
0.00000001
 43
0.00000001
 40
0.0
 40
0.0
 40
0.0
 40
0.0
 40
0.073637118829986
 40
0.1453700453465309
 40
0.2172867725117144
 40
0.2250867585617922
 40
0.3285140234713113
 40
0.4322213844868595
 40
0.5761935251905013
 40
0.7203753387498492
 40
0.9647746750314491
 40
1.0
 40
1.0
 40
1.0
 40
1.0
 10
549.6547137957253
 20
567.0863660397448
 30
0.0
 10
549.6891378537291
 20
567.616932908088
 30
0.0
 10
549.7570957933189
 20
568.6643466436591
 30
0.0
 10
550.2699838546093
 20
570.1292112189877
 30
0.0
 10
550.7693802703396
 20
571.0531773541443
 30
0.0
 10
551.4587434276598
 20
572.0961030692984
 30
0.0
 10
552.3913956669535
 20
573.2102057938015
 30
0.0
 10
554.1393380449713
 20
574.7120098891173
 30
0.0
 10
556.2744008029492
 20
576.0609986072872
 30
0.0
 10
559.3527295709107
 20
577.4183092568825
 30
0.0
 10
561.8783565323881
 20
578.2647146979593
 30
0.0
 10
563.6090995743021
 20
578.4768784495494
 30
0.0
 10
563.8271275043707
 20
578.503605480931
 30
0.0
  0
SPLINE
  5
343
330
1F
100
AcDbEntity
  8
0
  6
Continuous
 62
     8
370
    25
100
AcDbSpline
210
0.0
220
0.0
230
1.0
 70
     8
 71
     3
 72
    23
 73
    19
 74
     0
 42
0.00000001
 43
0.00000001
 40
0.0
 40
0.0
 40
0.0
 40
0.0
 40
0.1095369902736222
 40
0.1946777950012261
 40
0.2796764669696148
 40
0.3360316990989012
 40
0.3922340291915806
 40
0.4287405270731916
 40
0.4651628949259159
 40
0.5170157068985114
 40
0.5367745069597296
 40
0.5967408457117819
 40
0.6100412335814218
 40
0.6580074099454843
 40
0.7061129775835815
 40
0.8117237308370342
 40
0.9178186473387474
 40
1.0
 40
1.0
 40
1.0
 40
1.0
 10
578.8339343015826
 20
578.5530684603184
 30
0.0
 10
580.1374887946428
 20
578.2851417257554
 30
0.0
 10
582.4542688498457
 20
577.8089611608494
 30
0.0
 10
585.6652660092036
 20
576.5360511708379
 30
0.0
 10
588.1355520240936
 20
575.1417932773285
 30
0.0
 10
590.1117105912093
 20
573.5715389535875
 30
0.0
 10
591.4280636935044
 20
572.1225135062631
 30
0.0
 10
592.3521350334195
 20
570.6505796521491
 30
0.0
 10
593.0177552867431
 20
569.0659898872784
 30
0.0
 10
593.2583944990436
 20
567.5367452525819
 30
0.0
 10
593.1502001638539
 20
565.6879629888165
 30
0.0
 10
592.7654202190755
 20
564.4185549584909
 30
0.0
 10
592.0202112512313
 20
562.9525080226509
 30
0.0
 10
591.1833752208972
 20
561.746466887565
 30
0.0
 10
589.345951059712
 20
559.8719027766442
 30
0.0
 10
586.5968837580684
 20
558.0465412102042
 30
0.0
 10
583.2474244582527
 20
556.613241266213
 30
0.0
 10
581.0111603399573
 20
556.1087949173401
 30
0.0
 10
580.0350457665894
 20
555.888607405235
 30
0.0
  0
SPLINE
  5
344
330
1F
100
AcDbEntity
  8
0
  6
Continuous
 62
     8
370
    25
100
AcDbSpline
210
0.0
220
0.0
230
1.0
 70
     8
 71
     3
 72
    15
 73
    11
 74
     0
 42
0.00000001
 43
0.00000001
 40
0.0
 40
0.0
 40
0.0
 40
0.0
 40
0.1802452008580201
 40
0.3707932583356075
 40
0.5608422828006486
 40
0.6690977579283314
 40
0.7770395974925166
 40
0.8510099366722548
 40
0.9248044152513788
 40
1.0
 40
1.0
 40
1.0
 40
1.0
 10
562.8350457665894
 20
555.8937806748881
 30
0.0
 10
561.8007319789508
 20
556.1269690577074
 30
0.0
 10
559.6729827926516
 20
556.6066749242708
 30
0.0
 10
556.5852812109304
 20
557.9248442377777
 30
0.0
 10
554.0534786780761
 20
559.4932535908594
 30
0.0
 10
552.1742343568893
 20
561.1888231423094
 30
0.0
 10
551.014574097958
 20
562.6463290240299
 30
0.0
 10
550.2331297546639
 20
564.1321413419389
 30
0.0
 10
549.7503444062384
 20
565.5594673689646
 30
0.0
 10
549.686789888638
 20
566.574218900147
 30
0.0
 10
549.6547137957253
 20
567.0863660397448
 30
0.0
  0
SPLINE
  5
345
330
1F
100
AcDbEntity
  8
0
  6
Continuous
 62
     8
370
    25
100
AcDbSpline
210
0.0
220
0.0
230
1.0
 70
     8
 71
     3
 72
    14
 73
    10
 74
     0
 42
0.00000001
 43
0.00000001
 40
0.0
 40
0.0
 40
0.0
 40
0.0
 40
0.0339255189997326
 40
0.1227836330022877
 40
0.2393641283510436
 40
0.3605659198922831
 40
0.5545992006817722
 40
0.7532755556782662
 40
1.0
 40
1.0
 40
1.0
 40
1.0
 10
485.867115408456
 20
579.0612370925329
 30
0.0
 10
485.8505158971514
 20
579.0692547633147
 30
0.0
 10
485.7904387527441
 20
579.0982724106741
 30
0.0
 10
486.0436820334677
 20
578.9766322038731
 30
0.0
 10
486.5441275083091
 20
578.7272114240103
 30
0.0
 10
487.5052253802435
 20
578.2144466773138
 30
0.0
 10
488.8438777000563
 20
577.4017036408368
 30
0.0
 10
490.6232360692554
 20
576.1390126973578
 30
0.0
 10
491.7977231429867
 20
574.9467858428494
 30
0.0
 10
492.4483162067463
 20
574.2863660397546
 30
0.0
  0
SPLINE
  5
346
330
1F
100
AcDbEntity
  8
0
  6
Continuous
 62
     8
370
    25
100
AcDbSpline
210
0.0
220
0.0
230
1.0
 70
     8
 71
     3
 72
    13
 73
     9
 74
     0
 42
0.00000001
 43
0.00000001
 40
0.0
 40
0.0
 40
0.0
 40
0.0
 40
0.308675491413529
 40
0.5142769532125571
 40
0.7190803341665591
 40
0.8855959503913079
 40
0.9383515119699434
 40
1.0
 40
1.0
 40
1.0
 40
1.0
 10
492.4483162067548
 20
559.8863660397449
 30
0.0
 10
491.6296501472129
 20
559.0751228401732
 30
0.0
 10
490.2656899413939
 20
557.7235296862121
 30
0.0
 10
488.2764069530288
 20
556.411397742927
 30
0.0
 10
486.8512829924471
 20
555.595811832754
 30
0.0
 10
486.1009809223015
 20
555.2245873844438
 30
0.0
 10
485.8489939102409
 20
555.102581731704
 30
0.0
 10
485.8278521505011
 20
555.0924899950404
 30
0.0
 10
485.8164595684491
 20
555.0870518981459
 30
0.0
  0
SPLINE
  5
347
330
1F
100
AcDbEntity
  8
0
  6
Continuous
 62
     8
370
    25
100
AcDbSpline
210
0.0
220
0.0
230
1.0
 70
     8
 71
     3
 72
    13
 73
     9
 74
     0
 42
0.00000001
 43
0.00000001
 40
0.0
 40
0.0
 40
0.0
 40
0.0
 40
0.061640517646769
 40
0.2371373229020806
 40
0.2806860570518812
 40
0.4873799648122178
 40
0.6948909717500316
 40
0.9999999999999999
 40
0.9999999999999999
 40
0.9999999999999999
 40
0.9999999999999999
 10
657.0536065559295
 20
555.0870641162114
 30
0.0
 10
657.0415066118685
 20
555.092850131252
 30
0.0
 10
656.9949568999027
 20
555.1151095179245
 30
0.0
 10
656.5630034189613
 20
555.3243717197074
 30
0.0
 10
655.7114829096571
 20
555.7707408535504
 30
0.0
 10
654.5795906814318
 20
556.4199638981711
 30
0.0
 10
652.5886795828028
 20
557.735972223077
 30
0.0
 10
651.2302852370248
 20
559.0840164632239
 30
0.0
 10
650.4217753264264
 20
559.8863660397449
 30
0.0
  0
SPLINE
  5
348
330
1F
100
AcDbEntity
  8
0
  6
Continuous
 62
     8
370
    25
100
AcDbSpline
210
0.0
220
0.0
230
1.0
 70
     8
 71
     3
 72
    13
 73
     9
 74
     0
 42
0.00000001
 43
0.00000001
 40
0.0
 40
0.0
 40
0.0
 40
0.0
 40
0.2468506401892588
 40
0.4413401830386798
 40
0.6397575166258338
 40
0.7569021140061291
 40
0.8776530197312451
 40
1.0
 40
1.0
 40
1.0
 40
1.0
 10
650.4217753264264
 20
574.286366039745
 30
0.0
 10
651.0726070428619
 20
574.9469820741162
 30
0.0
 10
652.2362183206727
 20
576.1280865723835
 30
0.0
 10
654.0119705545633
 20
577.3928711775134
 30
0.0
 10
655.3511904905449
 20
578.2059982937062
 30
0.0
 10
656.3034599597934
 20
578.7162397358971
 30
0.0
 10
656.9280193516371
 20
579.0262537247787
 30
0.0
 10
656.9938892470667
 20
579.0572177351671
 30
0.0
 10
657.0270404312635
 20
579.0728013884456
 30
0.0
  0
ARC
  5
349
330
1F
100
AcDbEntity
  8
0
  6
Continuous
 62
     8
370
    25
100
AcDbCircle
 10
469.8350457666
 20
567.0863660397
 30
0.0
 40
24.80000000000007
100
AcDbArc
 50
90.0
 51
167.1842183571
  0
ARC
  5
34A
330
1F
100
AcDbEntity
  8
0
  6
Continuous
 62
     8
370
    25
100
AcDbCircle
 10
469.8350457666
 20
567.0863660397
 30
0.0
 40
24.80000000000001
100
AcDbArc
 50
192.8244120426
 51
331.0614722598
  0
ARC
  5
34B
330
1F
100
AcDbEntity
  8
0
  6
Continuous
 62
     8
370
    25
100
AcDbCircle
 10
469.8350457666
 20
567.0863660397
 30
0.0
 40
24.80000000000007
100
AcDbArc
 50
28.9385277402
 51
90.0
  0
ARC
  5
34C
330
1F
100
AcDbEntity
  8
0
  6
Continuous
 62
     8
370
    25
100
AcDbCircle
 10
673.0350457666
 20
567.0863660397
 30
0.0
 40
24.80000000000004
100
AcDbArc
 50
270.0
 51
347.8190227307
  0
ARC
  5
34D
330
1F
100
AcDbEntity
  8
0
  6
Continuous
 62
     8
370
    25
100
AcDbCircle
 10
673.0350457666
 20
567.0863660397
 30
0.0
 40
24.80000000000008
100
AcDbArc
 50
13.4314174832
 51
151.0614722598
  0
ARC
  5
34E
330
1F
100
AcDbEntity
  8
0
  6
Continuous
 62
     8
370
    25
100
AcDbCircle
 10
673.0350457666
 20
567.0863660397
 30
0.0
 40
24.80000000000001
100
AcDbArc
 50
208.9385277402
 51
270.0
  0
ENDSEC
  0
SECTION
  2
OBJECTS
  0
DICTIONARY
  5
C
330
0
100
AcDbDictionary
281
     1
  3
ACAD_GROUP
350
D
  3
ACAD_LAYOUT
350
1A
  3
ACAD_MLINESTYLE
350
17
  3
ACAD_PLOTSETTINGS
350
19
  3
ACAD_PLOTSTYLENAME
350
E
  3
ACAD_SCALELIST
350
47
  3
DWGPROPS
350
34F
  0
DICTIONARY
  5
D
102
{ACAD_REACTORS
330
C
102
}
330
C
100
AcDbDictionary
281
     1
  0
DICTIONARY
  5
1A
102
{ACAD_REACTORS
330
C
102
}
330
C
100
AcDbDictionary
281
     1
  3
Layout1
350
1E
  3
Layout2
350
26
  3
Model
350
22
  0
DICTIONARY
  5
17
102
{ACAD_REACTORS
330
C
102
}
330
C
100
AcDbDictionary
281
     1
  3
Standard
350
18
  0
DICTIONARY
  5
19
102
{ACAD_REACTORS
330
C
102
}
330
C
100
AcDbDictionary
281
     1
  0
ACDBDICTIONARYWDFLT
  5
E
102
{ACAD_REACTORS
330
C
102
}
330
C
100
AcDbDictionary
281
     1
  3
Normal
350
F
100
AcDbDictionaryWithDefault
340
F
  0
DICTIONARY
  5
47
102
{ACAD_REACTORS
330
C
102
}
330
C
100
AcDbDictionary
281
     1
  3
A0
350
48
  3
A1
350
49
  3
A2
350
4A
  3
A3
350
4B
  3
A4
350
4C
  3
A5
350
4D
  3
A6
350
4E
  3
A7
350
4F
  3
A8
350
50
  3
A9
350
51
  3
B0
350
52
  3
B1
350
53
  3
B2
350
54
  3
B3
350
55
  3
B4
350
56
  3
B5
350
57
  3
B6
350
58
  3
B7
350
59
  3
B8
350
5A
  3
B9
350
5B
  3
C0
350
5C
  3
C1
350
5D
  3
C2
350
5E
  3
C3
350
5F
  3
C4
350
60
  3
C5
350
61
  3
C6
350
62
  3
C7
350
63
  3
C8
350
64
  3
C9
350
65
  3
D0
350
66
  3
D1
350
67
  3
D2
350
68
  0
XRECORD
  5
34F
102
{ACAD_REACTORS
330
C
102
}
330
C
100
AcDbXrecord
280
     1
  1
DWGPROPS COOKIE
  2

  3

  4

  6

  7

  8
designer5
  9

300
=
301
=
302
=
303
=
304
=
305
=
306
=
307
=
308
=
309
=
 40
0.0
 41
2460383.247645266
 42
2460383.24764581
  1

 90
        0
  0
LAYOUT
  5
1E
102
{ACAD_REACTORS
330
1A
102
}
330
1A
100
AcDbPlotSettings
  1

  2
none_device
  4

  6

 40
0.0
 41
0.0
 42
0.0
 43
0.0
 44
0.0
 45
0.0
 46
0.0
 47
0.0
 48
0.0
 49
0.0
140
0.0
141
0.0
142
1.0
143
1.0
 70
   688
 72
     1
 73
     0
 74
     5
  7

 75
    16
147
1.0
148
0.0
149
0.0
100
AcDbLayout
  1
Layout1
 70
     1
 71
     1
 10
0.0
 20
0.0
 11
420.0
 21
297.0
 12
0.0
 22
0.0
 32
0.0
 14
1.0000000000E+20
 24
1.0000000000E+20
 34
1.0000000000E+20
 15
-1.0000000000E+20
 25
-1.0000000000E+20
 35
-1.0000000000E+20
146
0.0
 13
0.0
 23
0.0
 33
0.0
 16
1.0
 26
0.0
 36
0.0
 17
0.0
 27
1.0
 37
0.0
 76
     0
330
1B
  0
LAYOUT
  5
26
102
{ACAD_REACTORS
330
1A
102
}
330
1A
100
AcDbPlotSettings
  1

  2
none_device
  4

  6

 40
0.0
 41
0.0
 42
0.0
 43
0.0
 44
0.0
 45
0.0
 46
0.0
 47
0.0
 48
0.0
 49
0.0
140
0.0
141
0.0
142
1.0
143
1.0
 70
   688
 72
     1
 73
     0
 74
     5
  7

 75
    16
147
1.0
148
0.0
149
0.0
100
AcDbLayout
  1
Layout2
 70
     1
 71
     2
 10
0.0
 20
0.0
 11
0.0
 21
0.0
 12
0.0
 22
0.0
 32
0.0
 14
0.0
 24
0.0
 34
0.0
 15
0.0
 25
0.0
 35
0.0
146
0.0
 13
0.0
 23
0.0
 33
0.0
 16
1.0
 26
0.0
 36
0.0
 17
0.0
 27
1.0
 37
0.0
 76
     0
330
23
  0
LAYOUT
  5
22
102
{ACAD_REACTORS
330
1A
102
}
330
1A
100
AcDbPlotSettings
  1

  2
none_device
  4
Letter_(8.50_x_11.00_Inches)
  6

 40
6.35
 41
6.35
 42
6.35000508
 43
6.35000508
 44
215.9
 45
279.4
 46
0.0
 47
0.0
 48
0.0
 49
0.0
140
0.0
141
0.0
142
1.0
143
1.0
 70
  1712
 72
     1
 73
     0
 74
     0
  7

 75
     0
147
1.0
148
0.0
149
0.0
100
AcDbLayout
  1
Model
 70
     1
 71
     0
 10
0.0
 20
0.0
 11
1189.0
 21
841.0
 12
0.0
 22
0.0
 32
0.0
 14
0.0
 24
0.0
 34
0.0
 15
1189.0
 25
841.0
 35
0.0
146
0.0
 13
0.0
 23
0.0
 33
0.0
 16
1.0
 26
0.0
 36
0.0
 17
0.0
 27
1.0
 37
0.0
 76
     0
330
1F
331
29
  0
MLINESTYLE
  5
18
102
{ACAD_REACTORS
330
17
102
}
330
17
100
AcDbMlineStyle
  2
Standard
 70
     0
  3

 62
   256
 51
90.0
 52
90.0
 71
     2
 49
0.5
 62
   256
  6
BYLAYER
 49
-0.5
 62
   256
  6
BYLAYER
  0
ACDBPLACEHOLDER
  5
F
102
{ACAD_REACTORS
330
E
102
}
330
E
  0
SCALE
  5
48
102
{ACAD_REACTORS
330
47
102
}
330
47
100
AcDbScale
 70
     0
300
1:1
140
1.0
141
1.0
290
     1
  0
SCALE
  5
49
102
{ACAD_REACTORS
330
47
102
}
330
47
100
AcDbScale
 70
     0
300
1:2
140
1.0
141
2.0
290
     0
  0
SCALE
  5
4A
102
{ACAD_REACTORS
330
47
102
}
330
47
100
AcDbScale
 70
     0
300
1:4
140
1.0
141
4.0
290
     0
  0
SCALE
  5
4B
102
{ACAD_REACTORS
330
47
102
}
330
47
100
AcDbScale
 70
     0
300
1:5
140
1.0
141
5.0
290
     0
  0
SCALE
  5
4C
102
{ACAD_REACTORS
330
47
102
}
330
47
100
AcDbScale
 70
     0
300
1:8
140
1.0
141
8.0
290
     0
  0
SCALE
  5
4D
102
{ACAD_REACTORS
330
47
102
}
330
47
100
AcDbScale
 70
     0
300
1:10
140
1.0
141
10.0
290
     0
  0
SCALE
  5
4E
102
{ACAD_REACTORS
330
47
102
}
330
47
100
AcDbScale
 70
     0
300
1:16
140
1.0
141
16.0
290
     0
  0
SCALE
  5
4F
102
{ACAD_REACTORS
330
47
102
}
330
47
100
AcDbScale
 70
     0
300
1:20
140
1.0
141
20.0
290
     0
  0
SCALE
  5
50
102
{ACAD_REACTORS
330
47
102
}
330
47
100
AcDbScale
 70
     0
300
1:30
140
1.0
141
30.0
290
     0
  0
SCALE
  5
51
102
{ACAD_REACTORS
330
47
102
}
330
47
100
AcDbScale
 70
     0
300
1:40
140
1.0
141
40.0
290
     0
  0
SCALE
  5
52
102
{ACAD_REACTORS
330
47
102
}
330
47
100
AcDbScale
 70
     0
300
1:50
140
1.0
141
50.0
290
     0
  0
SCALE
  5
53
102
{ACAD_REACTORS
330
47
102
}
330
47
100
AcDbScale
 70
     0
300
1:100
140
1.0
141
100.0
290
     0
  0
SCALE
  5
54
102
{ACAD_REACTORS
330
47
102
}
330
47
100
AcDbScale
 70
     0
300
2:1
140
2.0
141
1.0
290
     0
  0
SCALE
  5
55
102
{ACAD_REACTORS
330
47
102
}
330
47
100
AcDbScale
 70
     0
300
4:1
140
4.0
141
1.0
290
     0
  0
SCALE
  5
56
102
{ACAD_REACTORS
330
47
102
}
330
47
100
AcDbScale
 70
     0
300
8:1
140
8.0
141
1.0
290
     0
  0
SCALE
  5
57
102
{ACAD_REACTORS
330
47
102
}
330
47
100
AcDbScale
 70
     0
300
10:1
140
10.0
141
1.0
290
     0
  0
SCALE
  5
58
102
{ACAD_REACTORS
330
47
102
}
330
47
100
AcDbScale
 70
     0
300
100:1
140
100.0
141
1.0
290
     0
  0
SCALE
  5
59
102
{ACAD_REACTORS
330
47
102
}
330
47
100
AcDbScale
 70
     0
300
1/128" = 1'-0"
140
0.0078125
141
12.0
290
     0
  0
SCALE
  5
5A
102
{ACAD_REACTORS
330
47
102
}
330
47
100
AcDbScale
 70
     0
300
1/64" = 1'-0"
140
0.015625
141
12.0
290
     0
  0
SCALE
  5
5B
102
{ACAD_REACTORS
330
47
102
}
330
47
100
AcDbScale
 70
     0
300
1/32" = 1'-0"
140
0.03125
141
12.0
290
     0
  0
SCALE
  5
5C
102
{ACAD_REACTORS
330
47
102
}
330
47
100
AcDbScale
 70
     0
300
1/16" = 1'-0"
140
0.0625
141
12.0
290
     0
  0
SCALE
  5
5D
102
{ACAD_REACTORS
330
47
102
}
330
47
100
AcDbScale
 70
     0
300
3/32" = 1'-0"
140
0.09375
141
12.0
290
     0
  0
SCALE
  5
5E
102
{ACAD_REACTORS
330
47
102
}
330
47
100
AcDbScale
 70
     0
300
1/8" = 1'-0"
140
0.125
141
12.0
290
     0
  0
SCALE
  5
5F
102
{ACAD_REACTORS
330
47
102
}
330
47
100
AcDbScale
 70
     0
300
3/16" = 1'-0"
140
0.1875
141
12.0
290
     0
  0
SCALE
  5
60
102
{ACAD_REACTORS
330
47
102
}
330
47
100
AcDbScale
 70
     0
300
1/4" = 1'-0"
140
0.25
141
12.0
290
     0
  0
SCALE
  5
61
102
{ACAD_REACTORS
330
47
102
}
330
47
100
AcDbScale
 70
     0
300
3/8" = 1'-0"
140
0.375
141
12.0
290
     0
  0
SCALE
  5
62
102
{ACAD_REACTORS
330
47
102
}
330
47
100
AcDbScale
 70
     0
300
1/2" = 1'-0"
140
0.5
141
12.0
290
     0
  0
SCALE
  5
63
102
{ACAD_REACTORS
330
47
102
}
330
47
100
AcDbScale
 70
     0
300
3/4" = 1'-0"
140
0.75
141
12.0
290
     0
  0
SCALE
  5
64
102
{ACAD_REACTORS
330
47
102
}
330
47
100
AcDbScale
 70
     0
300
1" = 1'-0"
140
1.0
141
12.0
290
     0
  0
SCALE
  5
65
102
{ACAD_REACTORS
330
47
102
}
330
47
100
AcDbScale
 70
     0
300
1-1/2" = 1'-0"
140
1.5
141
12.0
290
     0
  0
SCALE
  5
66
102
{ACAD_REACTORS
330
47
102
}
330
47
100
AcDbScale
 70
     0
300
3" = 1'-0"
140
3.0
141
12.0
290
     0
  0
SCALE
  5
67
102
{ACAD_REACTORS
330
47
102
}
330
47
100
AcDbScale
 70
     0
300
6" = 1'-0"
140
6.0
141
12.0
290
     0
  0
SCALE
  5
68
102
{ACAD_REACTORS
330
47
102
}
330
47
100
AcDbScale
 70
     0
300
1'-0" = 1'-0"
140
12.0
141
12.0
290
     0
  0
ENDSEC
  0
EOF
