  0
SECTION
  2
HEADER
  9
$ACADVER
  1
AC1015
  9
$ACADMAINTVER
 70
     6
  9
$DWGCODEPAGE
  3
ANSI_1252
  9
$INSBASE
 10
0.0
 20
0.0
 30
0.0
  9
$EXTMIN
 10
0.0
 20
0.0
 30
0.0
  9
$EXTMAX
 10
1189.0
 20
841.0
 30
0.0
  9
$LIMMIN
 10
0.0
 20
0.0
  9
$LIMMAX
 10
1189.0
 20
841.0
  9
$ORTHOMODE
 70
     0
  9
$REGENMODE
 70
     1
  9
$FILLMODE
 70
     1
  9
$QTEXTMODE
 70
     0
  9
$MIRRTEXT
 70
     1
  9
$LTSCALE
 40
1.0
  9
$ATTMODE
 70
     1
  9
$TEXTSIZE
 40
3.5
  9
$TRACEWID
 40
1.0
  9
$TEXTSTYLE
  7
Standard
  9
$CLAYER
  8
0
  9
$CELTYPE
  6
ByLayer
  9
$CECOLOR
 62
   256
  9
$CELTSCALE
 40
1.0
  9
$DISPSILH
 70
     0
  9
$DIMSCALE
 40
1.0
  9
$DIMASZ
 40
3.302
  9
$DIMEXO
 40
1.0
  9
$DIMDLI
 40
3.75
  9
$DIMRND
 40
0.0
  9
$DIMDLE
 40
0.0
  9
$DIMEXE
 40
1.0
  9
$DIMTP
 40
0.0
  9
$DIMTM
 40
0.0
  9
$DIMTXT
 40
3.5
  9
$DIMCEN
 40
2.5
  9
$DIMTSZ
 40
0.0
  9
$DIMTOL
 70
     0
  9
$DIMLIM
 70
     0
  9
$DIMTIH
 70
     1
  9
$DIMTOH
 70
     1
  9
$DIMSE1
 70
     0
  9
$DIMSE2
 70
     0
  9
$DIMTAD
 70
     1
  9
$DIMZIN
 70
     1
  9
$DIMBLK
  1

  9
$DIMASO
 70
     1
  9
$DIMSHO
 70
     1
  9
$DIMPOST
  1

  9
$DIMAPOST
  1

  9
$DIMALT
 70
     0
  9
$DIMALTD
 70
     3
  9
$DIMALTF
 40
0.0393700787
  9
$DIMLFAC
 40
1.0
  9
$DIMTOFL
 70
     1
  9
$DIMTVP
 40
0.0
  9
$DIMTIX
 70
     0
  9
$DIMSOXD
 70
     0
  9
$DIMSAH
 70
     0
  9
$DIMBLK1
  1

  9
$DIMBLK2
  1

  9
$DIMSTYLE
  2
ISO-25
  9
$DIMCLRD
 70
     0
  9
$DIMCLRE
 70
     0
  9
$DIMCLRT
 70
     0
  9
$DIMTFAC
 40
1.0
  9
$DIMGAP
 40
1.524
  9
$DIMJUST
 70
     0
  9
$DIMSD1
 70
     0
  9
$DIMSD2
 70
     0
  9
$DIMTOLJ
 70
     0
  9
$DIMTZIN
 70
     1
  9
$DIMALTZ
 70
     0
  9
$DIMALTTZ
 70
     0
  9
$DIMUPT
 70
     0
  9
$DIMDEC
 70
     2
  9
$DIMTDEC
 70
     2
  9
$DIMALTU
 70
     2
  9
$DIMALTTD
 70
     3
  9
$DIMTXSTY
  7
Standard
  9
$DIMAUNIT
 70
     0
  9
$DIMADEC
 70
     2
  9
$DIMALTRND
 40
0.0
  9
$DIMAZIN
 70
     0
  9
$DIMDSEP
 70
    44
  9
$DIMATFIT
 70
     3
  9
$DIMFRAC
 70
     0
  9
$DIMLDRBLK
  1

  9
$DIMLUNIT
 70
     2
  9
$DIMLWD
 70
    -2
  9
$DIMLWE
 70
    -2
  9
$DIMTMOVE
 70
     0
  9
$LUNITS
 70
     2
  9
$LUPREC
 70
     2
  9
$SKETCHINC
 40
1.0
  9
$FILLETRAD
 40
10.0
  9
$AUNITS
 70
     0
  9
$AUPREC
 70
     2
  9
$MENU
  1
.
  9
$ELEVATION
 40
0.0
  9
$PELEVATION
 40
0.0
  9
$THICKNESS
 40
0.0
  9
$LIMCHECK
 70
     0
  9
$CHAMFERA
 40
0.0
  9
$CHAMFERB
 40
0.0
  9
$CHAMFERC
 40
0.0
  9
$CHAMFERD
 40
0.0
  9
$SKPOLY
 70
     0
  9
$TDCREATE
 40
2460383.478029711
  9
$TDUCREATE
 40
2460383.248863044
  9
$TDUPDATE
 40
2460383.478030428
  9
$TDUUPDATE
 40
2460383.248863762
  9
$TDINDWG
 40
0.0000000116
  9
$TDUSRTIMER
 40
0.0000000116
  9
$USRTIMER
 70
     1
  9
$ANGBASE
 50
0.0
  9
$ANGDIR
 70
     0
  9
$PDMODE
 70
     0
  9
$PDSIZE
 40
-1.0
  9
$PLINEWID
 40
0.0
  9
$SPLFRAME
 70
     0
  9
$SPLINETYPE
 70
     6
  9
$SPLINESEGS
 70
     8
  9
$HANDSEED
  5
263
  9
$SURFTAB1
 70
     6
  9
$SURFTAB2
 70
     6
  9
$SURFTYPE
 70
     6
  9
$SURFU
 70
     6
  9
$SURFV
 70
     6
  9
$UCSBASE
  2

  9
$UCSNAME
  2

  9
$UCSORG
 10
0.0
 20
0.0
 30
0.0
  9
$UCSXDIR
 10
1.0
 20
0.0
 30
0.0
  9
$UCSYDIR
 10
0.0
 20
1.0
 30
0.0
  9
$UCSORTHOREF
  2

  9
$UCSORTHOVIEW
 70
     0
  9
$UCSORGTOP
 10
0.0
 20
0.0
 30
0.0
  9
$UCSORGBOTTOM
 10
0.0
 20
0.0
 30
0.0
  9
$UCSORGLEFT
 10
0.0
 20
0.0
 30
0.0
  9
$UCSORGRIGHT
 10
0.0
 20
0.0
 30
0.0
  9
$UCSORGFRONT
 10
0.0
 20
0.0
 30
0.0
  9
$UCSORGBACK
 10
0.0
 20
0.0
 30
0.0
  9
$PUCSBASE
  2

  9
$PUCSNAME
  2

  9
$PUCSORG
 10
0.0
 20
0.0
 30
0.0
  9
$PUCSXDIR
 10
1.0
 20
0.0
 30
0.0
  9
$PUCSYDIR
 10
0.0
 20
1.0
 30
0.0
  9
$PUCSORTHOREF
  2

  9
$PUCSORTHOVIEW
 70
     0
  9
$PUCSORGTOP
 10
0.0
 20
0.0
 30
0.0
  9
$PUCSORGBOTTOM
 10
0.0
 20
0.0
 30
0.0
  9
$PUCSORGLEFT
 10
0.0
 20
0.0
 30
0.0
  9
$PUCSORGRIGHT
 10
0.0
 20
0.0
 30
0.0
  9
$PUCSORGFRONT
 10
0.0
 20
0.0
 30
0.0
  9
$PUCSORGBACK
 10
0.0
 20
0.0
 30
0.0
  9
$USERI1
 70
     0
  9
$USERI2
 70
     0
  9
$USERI3
 70
     0
  9
$USERI4
 70
     0
  9
$USERI5
 70
     0
  9
$USERR1
 40
0.0
  9
$USERR2
 40
0.0
  9
$USERR3
 40
0.0
  9
$USERR4
 40
0.0
  9
$USERR5
 40
0.0
  9
$WORLDVIEW
 70
     1
  9
$SHADEDGE
 70
     3
  9
$SHADEDIF
 70
    70
  9
$TILEMODE
 70
     1
  9
$MAXACTVP
 70
    64
  9
$PINSBASE
 10
0.0
 20
0.0
 30
0.0
  9
$PLIMCHECK
 70
     0
  9
$PEXTMIN
 10
1.0000000000E+20
 20
1.0000000000E+20
 30
1.0000000000E+20
  9
$PEXTMAX
 10
-1.0000000000E+20
 20
-1.0000000000E+20
 30
-1.0000000000E+20
  9
$PLIMMIN
 10
0.0
 20
0.0
  9
$PLIMMAX
 10
420.0
 20
297.0
  9
$UNITMODE
 70
     0
  9
$VISRETAIN
 70
     1
  9
$PLINEGEN
 70
     0
  9
$PSLTSCALE
 70
     1
  9
$TREEDEPTH
 70
  3020
  9
$CMLSTYLE
  2
Standard
  9
$CMLJUST
 70
     0
  9
$CMLSCALE
 40
20.0
  9
$PROXYGRAPHICS
 70
     1
  9
$MEASUREMENT
 70
     1
  9
$CELWEIGHT
370
    -1
  9
$ENDCAPS
280
     0
  9
$JOINSTYLE
280
     0
  9
$LWDISPLAY
290
     1
  9
$INSUNITS
 70
     4
  9
$HYPERLINKBASE
  1

  9
$STYLESHEET
  1

  9
$XEDIT
290
     1
  9
$CEPSNTYPE
380
     0
  9
$PSTYLEMODE
290
     1
  9
$FINGERPRINTGUID
  2
{e8ae50b0-99a5-45b4-8ec5-a1025e778058}
  9
$VERSIONGUID
  2
{FAEB1C32-E019-11D5-929B-00C0DF256EC4}
  9
$EXTNAMES
290
     1
  9
$PSVPSCALE
 40
0.0
  9
$OLESTARTUP
290
     0
  0
ENDSEC
  0
SECTION
  2
CLASSES
  0
CLASS
  1
ACDBDICTIONARYWDFLT
  2
AcDbDictionaryWithDefault
  3
ObjectDBX Classes
 90
        0
280
     0
281
     0
  0
CLASS
  1
VISUALSTYLE
  2
AcDbVisualStyle
  3
ObjectDBX Classes
 90
     4095
280
     0
281
     0
  0
CLASS
  1
MATERIAL
  2
AcDbMaterial
  3
ObjectDBX Classes
 90
     1153
280
     0
281
     0
  0
CLASS
  1
SCALE
  2
AcDbScale
  3
ObjectDBX Classes
 90
     1153
280
     0
281
     0
  0
CLASS
  1
TABLESTYLE
  2
AcDbTableStyle
  3
ObjectDBX Classes
 90
     4095
280
     0
281
     0
  0
CLASS
  1
MLEADERSTYLE
  2
AcDbMLeaderStyle
  3
ACDB_MLEADERSTYLE_CLASS
 90
     4095
280
     0
281
     0
  0
CLASS
  1
SUN
  2
AcDbSun
  3
SCENEOE
 90
     1153
280
     0
281
     0
  0
CLASS
  1
ACDBPLACEHOLDER
  2
AcDbPlaceHolder
  3
ObjectDBX Classes
 90
        0
280
     0
281
     0
  0
CLASS
  1
LAYOUT
  2
AcDbLayout
  3
ObjectDBX Classes
 90
        0
280
     0
281
     0
  0
ENDSEC
  0
SECTION
  2
TABLES
  0
TABLE
  2
VPORT
  5
8
330
0
100
AcDbSymbolTable
 70
     1
  0
VPORT
  5
29
330
8
100
AcDbSymbolTableRecord
100
AcDbViewportTableRecord
  2
*Active
 70
     0
 10
0.0
 20
0.0
 11
1.0
 21
1.0
 12
594.5
 22
420.5
 13
0.0
 23
0.0
 14
10.0
 24
10.0
 15
10.0
 25
10.0
 16
0.0
 26
0.0
 36
1.0
 17
0.0
 27
0.0
 37
0.0
 40
841.0
 41
1.4137931034
 42
50.0
 43
0.0
 44
0.0
 50
0.0
 51
0.0
 71
     0
 72
  2000
 73
     1
 74
     3
 75
     0
 76
     0
 77
     0
 78
     0
281
     0
 65
     1
110
0.0
120
0.0
130
0.0
111
1.0
121
0.0
131
0.0
112
0.0
122
1.0
132
0.0
 79
     0
146
0.0
  0
ENDTAB
  0
TABLE
  2
LTYPE
  5
5
330
0
100
AcDbSymbolTable
 70
     6
  0
LTYPE
  5
14
330
5
100
AcDbSymbolTableRecord
100
AcDbLinetypeTableRecord
  2
ByBlock
 70
     0
  3

 72
    65
 73
     0
 40
0.0
  0
LTYPE
  5
15
330
5
100
AcDbSymbolTableRecord
100
AcDbLinetypeTableRecord
  2
ByLayer
 70
     0
  3

 72
    65
 73
     0
 40
0.0
  0
LTYPE
  5
16
330
5
100
AcDbSymbolTableRecord
100
AcDbLinetypeTableRecord
  2
Continuous
 70
     0
  3
Solid line
 72
    65
 73
     0
 40
0.0
  0
LTYPE
  5
6E
330
5
100
AcDbSymbolTableRecord
100
AcDbLinetypeTableRecord
  2
HIDDEN
 70
     0
  3
Hidden __ __ __ __ __ __ __ __ __ __ __ __ __ __
 72
    65
 73
     2
 40
1.905
 49
1.27
 74
     0
 49
-0.635
 74
     0
  0
LTYPE
  5
6F
330
5
100
AcDbSymbolTableRecord
100
AcDbLinetypeTableRecord
  2
PHANTOM
 70
     0
  3
Phantom ______  __  __  ______  __  __  ______
 72
    65
 73
     6
 40
12.7
 49
6.35
 74
     0
 49
-1.27
 74
     0
 49
1.27
 74
     0
 49
-1.27
 74
     0
 49
1.27
 74
     0
 49
-1.27
 74
     0
  0
LTYPE
  5
70
330
5
100
AcDbSymbolTableRecord
100
AcDbLinetypeTableRecord
  2
CENTER
 70
     0
  3
Center ____ _ ____ _ ____ _ ____ _ ____ _ ____
 72
    65
 73
     4
 40
10.16
 49
6.35
 74
     0
 49
-1.27
 74
     0
 49
1.27
 74
     0
 49
-1.27
 74
     0
  0
LTYPE
  5
71
330
5
100
AcDbSymbolTableRecord
100
AcDbLinetypeTableRecord
  2
CENTERX2
 70
     0
  3
Center (2x) ________  __  ________  __  _____
 72
    65
 73
     4
 40
20.32
 49
12.7
 74
     0
 49
-2.54
 74
     0
 49
2.54
 74
     0
 49
-2.54
 74
     0
  0
LTYPE
  5
72
330
5
100
AcDbSymbolTableRecord
100
AcDbLinetypeTableRecord
  2
DOT2
 70
     0
  3
Dot (.5x) ........................................
 72
    65
 73
     2
 40
0.635
 49
0.0
 74
     0
 49
-0.635
 74
     0
  0
ENDTAB
  0
TABLE
  2
LAYER
  5
2
330
0
100
AcDbSymbolTable
 70
     1
  0
LAYER
  5
10
330
2
100
AcDbSymbolTableRecord
100
AcDbLayerTableRecord
  2
0
 70
     0
 62
     7
  6
Continuous
370
    -3
390
F
  0
ENDTAB
  0
TABLE
  2
STYLE
  5
3
330
0
100
AcDbSymbolTable
 70
     1
  0
STYLE
  5
11
330
3
100
AcDbSymbolTableRecord
100
AcDbTextStyleTableRecord
  2
Standard
 70
     0
 40
0.0
 41
1.0
 50
0.0
 71
     0
 42
3.5
  3
txt
  4

  0
ENDTAB
  0
TABLE
  2
VIEW
  5
6
330
0
100
AcDbSymbolTable
 70
     0
  0
ENDTAB
  0
TABLE
  2
UCS
  5
7
330
0
100
AcDbSymbolTable
 70
     0
  0
ENDTAB
  0
TABLE
  2
APPID
  5
9
330
0
100
AcDbSymbolTable
 70
     1
  0
APPID
  5
12
330
9
100
AcDbSymbolTableRecord
100
AcDbRegAppTableRecord
  2
ACAD
 70
     0
  0
ENDTAB
  0
TABLE
  2
DIMSTYLE
  5
A
330
0
100
AcDbSymbolTable
 70
     1
100
AcDbDimStyleTable
  0
DIMSTYLE
105
27
330
A
100
AcDbSymbolTableRecord
100
AcDbDimStyleTableRecord
  2
ISO-25
 70
     0
 41
2.5
 42
0.625
 43
3.75
 44
1.25
 73
     0
 74
     0
 77
     1
 78
     8
140
2.5
141
2.5
143
0.0393700787
147
0.625
171
     3
172
     1
178
     0
271
     2
272
     2
274
     3
278
    44
283
     0
284
     8
340
11
  0
ENDTAB
  0
TABLE
  2
BLOCK_RECORD
  5
1
330
0
100
AcDbSymbolTable
 70
     1
  0
BLOCK_RECORD
  5
1F
330
1
100
AcDbSymbolTableRecord
100
AcDbBlockTableRecord
  2
*Model_Space
340
22
  0
BLOCK_RECORD
  5
1B
330
1
100
AcDbSymbolTableRecord
100
AcDbBlockTableRecord
  2
*Paper_Space
340
1E
  0
BLOCK_RECORD
  5
23
330
1
100
AcDbSymbolTableRecord
100
AcDbBlockTableRecord
  2
*Paper_Space0
340
26
  0
ENDTAB
  0
ENDSEC
  0
SECTION
  2
BLOCKS
  0
BLOCK
  5
20
330
1F
100
AcDbEntity
  8
0
100
AcDbBlockBegin
  2
*Model_Space
 70
     0
 10
0.0
 20
0.0
 30
0.0
  3
*Model_Space
  1

  0
ENDBLK
  5
21
330
1F
100
AcDbEntity
  8
0
100
AcDbBlockEnd
  0
BLOCK
  5
1C
330
1B
100
AcDbEntity
 67
     1
  8
0
100
AcDbBlockBegin
  2
*Paper_Space
 70
     0
 10
0.0
 20
0.0
 30
0.0
  3
*Paper_Space
  1

  0
ENDBLK
  5
1D
330
1B
100
AcDbEntity
 67
     1
  8
0
100
AcDbBlockEnd
  0
BLOCK
  5
24
330
23
100
AcDbEntity
  8
0
100
AcDbBlockBegin
  2
*Paper_Space0
 70
     0
 10
0.0
 20
0.0
 30
0.0
  3
*Paper_Space0
  1

  0
ENDBLK
  5
25
330
23
100
AcDbEntity
  8
0
100
AcDbBlockEnd
  0
ENDSEC
  0
SECTION
  2
ENTITIES
  0
LINE
  5
73
330
1F
100
AcDbEntity
  8
0
  6
Continuous
 62
     7
370
    25
100
AcDbLine
 10
580.0350457666
 20
354.2649328567
 30
0.0
 11
580.0350457666
 21
567.0863660397
 31
0.0
  0
LINE
  5
74
330
1F
100
AcDbEntity
  8
0
  6
Continuous
 62
     7
370
    25
100
AcDbLine
 10
562.8350457666
 20
567.0863660397
 30
0.0
 11
562.8350457666
 21
354.2649328567
 31
0.0
  0
LINE
  5
75
330
1F
100
AcDbEntity
  8
0
  6
Continuous
 62
     7
370
    25
100
AcDbLine
 10
562.8350457666
 20
354.2649328567
 30
0.0
 11
562.8350457666
 21
354.118076175
 31
0.0
  0
LINE
  5
76
330
1F
100
AcDbEntity
  8
0
  6
Continuous
 62
     7
370
    25
100
AcDbLine
 10
580.0350457666
 20
354.118076175
 30
0.0
 11
580.0350457666
 21
354.2649328567
 31
0.0
  0
LINE
  5
77
330
1F
100
AcDbEntity
  8
0
  6
Continuous
 62
     7
370
    25
100
AcDbLine
 10
582.2350457666
 20
353.6775061299
 30
0.0
 11
582.2350457666
 21
353.6934596913
 31
0.0
  0
SPLINE
  5
78
330
1F
100
AcDbEntity
  8
0
  6
Continuous
 62
     7
370
    25
100
AcDbSpline
210
0.0
220
0.0
230
1.0
 70
     8
 71
     3
 72
    12
 73
     8
 74
     0
 42
0.00000001
 43
0.00000001
 40
0.0
 40
0.0
 40
0.0
 40
0.0
 40
0.010111213567807
 40
0.2471911270340457
 40
0.4435553485533592
 40
0.7066495735705471
 40
1.0
 40
1.0
 40
1.0
 40
1.0
 10
661.6357584233656
 20
580.5295487886036
 30
0.0
 10
661.622397044096
 20
580.5198981890522
 30
0.0
 10
661.29574838039
 20
580.2839677971509
 30
0.0
 10
660.6618042401307
 20
579.9210833362065
 30
0.0
 10
659.6126986940629
 20
579.4787477624743
 30
0.0
 10
658.4169268264454
 20
579.1504260679908
 30
0.0
 10
657.505780229843
 20
579.1110979103066
 30
0.0
 10
657.025435523576
 20
579.0903646140167
 30
0.0
  0
SPLINE
  5
79
330
1F
100
AcDbEntity
  8
0
  6
Continuous
 62
     7
370
    25
100
AcDbSpline
210
0.0
220
0.0
230
1.0
 70
     8
 71
     3
 72
    13
 73
     9
 74
     0
 42
0.00000001
 43
0.00000001
 40
0.0
 40
0.0
 40
0.0
 40
0.0
 40
0.2245277801877857
 40
0.4326004429281387
 40
0.6194870271029321
 40
0.7818100676624089
 40
0.9152378004374497
 40
0.9999999999999999
 40
0.9999999999999999
 40
0.9999999999999999
 40
0.9999999999999999
 10
485.8544092460454
 20
579.0850227752978
 30
0.0
 10
485.4861202304173
 20
579.0976819503096
 30
0.0
 10
484.7765332423257
 20
579.1220725389157
 30
0.0
 10
483.7785822930392
 20
579.3300938017078
 30
0.0
 10
482.9093896986045
 20
579.6150292425991
 30
0.0
 10
482.1889457627809
 20
579.9441269222102
 30
0.0
 10
481.6444510810988
 20
580.2500104429809
 30
0.0
 10
481.3495332289236
 20
580.451977776701
 30
0.0
 10
481.2349638463091
 20
580.5304378379077
 30
0.0
  0
SPLINE
  5
7A
330
1F
100
AcDbEntity
  8
0
  6
Continuous
 62
     7
370
    25
100
AcDbSpline
210
0.0
220
0.0
230
1.0
 70
     8
 71
     3
 72
    14
 73
    10
 74
     0
 42
0.00000001
 43
0.00000001
 40
0.0
 40
0.0
 40
0.0
 40
0.0
 40
0.110392003749533
 40
0.3215458028786831
 40
0.5131485595554145
 40
0.6823365456853135
 40
0.8252270634682551
 40
0.9368059708259731
 40
1.0
 40
1.0
 40
1.0
 40
1.0
 10
657.0537148195746
 20
555.0667865325642
 30
0.0
 10
657.2392656755749
 20
555.0710964035322
 30
0.0
 10
657.7797314424871
 20
555.0836500385211
 30
0.0
 10
658.6361408975299
 20
554.9466862816776
 30
0.0
 10
659.5657113238128
 20
554.7017655033952
 30
0.0
 10
660.3542788457141
 20
554.3886108832835
 30
0.0
 10
660.9862309683214
 20
554.0630384351273
 30
0.0
 10
661.4434511886407
 20
553.7814388324068
 30
0.0
 10
661.6769922391817
 20
553.6143483596236
 30
0.0
 10
661.7614355188683
 20
553.5539321394623
 30
0.0
  0
SPLINE
  5
7B
330
1F
100
AcDbEntity
  8
0
  6
Continuous
 62
     7
370
    25
100
AcDbSpline
210
0.0
220
0.0
230
1.0
 70
     8
 71
     3
 72
    13
 73
     9
 74
     0
 42
0.00000001
 43
0.00000001
 40
0.0
 40
0.0
 40
0.0
 40
0.0
 40
0.0841652697808864
 40
0.1931522504184889
 40
0.389721598124001
 40
0.5847071704246675
 40
0.9005282885255913
 40
1.0
 40
1.0
 40
1.0
 40
1.0
 10
481.1087297988117
 20
553.553827440713
 30
0.0
 10
481.2220720170248
 20
553.634244303623
 30
0.0
 10
481.4821829222982
 20
553.8187942739738
 30
0.0
 10
482.0459081672277
 20
554.1560038396785
 30
0.0
 10
482.8041587558668
 20
554.5220575107279
 30
0.0
 10
483.9328244832296
 20
554.8914069922024
 30
0.0
 10
484.9515179000334
 20
555.0975465945843
 30
0.0
 10
485.6487317591809
 20
555.0668699779027
 30
0.0
 10
485.8157297203641
 20
555.0595222575804
 30
0.0
  0
LINE
  5
7C
330
1F
100
AcDbEntity
  8
0
  6
Continuous
 62
     7
370
    25
100
AcDbLine
 10
564.7226493994
 20
579.0863660397
 30
0.0
 11
485.8666335622
 21
579.0863660397
 31
0.0
  0
LINE
  5
7D
330
1F
100
AcDbEntity
  8
0
  6
Continuous
 62
     7
370
    25
100
AcDbLine
 10
657.0261958167
 20
579.0863660397
 30
0.0
 11
578.1474421338
 21
579.0863660397
 31
0.0
  0
LINE
  5
7E
330
1F
100
AcDbEntity
  8
0
  6
Continuous
 62
     7
370
    25
100
AcDbLine
 10
580.0350457666
 20
555.0863660397
 30
0.0
 11
657.0550582822
 21
555.0863660397
 31
0.0
  0
LINE
  5
7F
330
1F
100
AcDbEntity
  8
0
  6
Continuous
 62
     7
370
    25
100
AcDbLine
 10
485.8150332509
 20
555.0863660397
 30
0.0
 11
562.8350457666
 21
555.0863660397
 31
0.0
  0
LINE
  5
80
330
1F
100
AcDbEntity
  8
0
  6
Continuous
 62
     7
370
    25
100
AcDbLine
 10
582.9850457666
 20
351.7600650141
 30
0.0
 11
582.9850457666
 21
353.6775061299
 31
0.0
  0
LINE
  5
81
330
1F
100
AcDbEntity
  8
0
  6
Continuous
 62
     7
370
    25
100
AcDbLine
 10
559.8850457666
 20
353.6775061299
 30
0.0
 11
559.8850457666
 21
351.7600650141
 31
0.0
  0
LINE
  5
82
330
1F
100
AcDbEntity
  8
0
  6
Continuous
 62
     7
370
    25
100
AcDbLine
 10
567.7117892745
 20
340.9451790387
 30
0.0
 11
567.8890872027
 21
340.8854568364
 31
0.0
  0
LINE
  5
83
330
1F
100
AcDbEntity
  8
0
  6
Continuous
 62
     7
370
    25
100
AcDbLine
 10
574.9810043305
 20
340.8854568364
 30
0.0
 11
575.1583022587
 21
340.9451790387
 31
0.0
  0
SPLINE
  5
84
330
1F
100
AcDbEntity
  8
0
  6
Continuous
 62
     7
370
    25
100
AcDbSpline
210
0.0
220
0.0
230
1.0
 70
     8
 71
     3
 72
    17
 73
    13
 74
     0
 42
0.00000001
 43
0.00000001
 40
0.0
 40
0.0
 40
0.0
 40
0.0
 40
0.1727939157605292
 40
0.4670908646424644
 40
0.583603646444573
 40
0.6237329378319886
 40
0.6617158152047128
 40
0.7176264960718008
 40
0.7837734229449179
 40
0.864011767563451
 40
0.9541263261861292
 40
1.0
 40
1.0
 40
1.0
 40
1.0
 10
729.4525874852638
 20
564.0250502782275
 30
0.0
 10
729.5363810881337
 20
564.0310274482864
 30
0.0
 10
729.7628892162913
 20
564.0471847390027
 30
0.0
 10
729.9414935863196
 20
564.063958881907
 30
0.0
 10
730.0234615692731
 20
564.0738761721755
 30
0.0
 10
730.0852924981285
 20
564.086408562134
 30
0.0
 10
730.1539200842184
 20
564.1070297228953
 30
0.0
 10
730.2470397393164
 20
564.1531261645666
 30
0.0
 10
730.3492799803367
 20
564.2392398047392
 30
0.0
 10
730.4339786087659
 20
564.3708766512525
 30
0.0
 10
730.4771706475161
 20
564.512665117276
 30
0.0
 10
730.4621130082782
 20
564.6014029665447
 30
0.0
 10
730.4570335303084
 20
564.6313374033659
 30
0.0
  0
SPLINE
  5
85
330
1F
100
AcDbEntity
  8
0
  6
Continuous
 62
     7
370
    25
100
AcDbSpline
210
0.0
220
0.0
230
1.0
 70
     8
 71
     3
 72
    10
 73
     6
 74
     0
 42
0.00000001
 43
0.00000001
 40
0.0
 40
0.0
 40
0.0
 40
0.0
 40
0.2705197672748134
 40
0.6900585277324403
 40
1.0
 40
1.0
 40
1.0
 40
1.0
 10
730.4569836385739
 20
570.1343599647076
 30
0.0
 10
730.4558446282167
 20
570.166866155049
 30
0.0
 10
730.4529391702605
 20
570.2497849527216
 30
0.0
 10
730.3965210769759
 20
570.3606410342516
 30
0.0
 10
730.3371535741496
 20
570.4237908206445
 30
0.0
 10
730.3119295167929
 20
570.4506218941815
 30
0.0
  0
LINE
  5
86
330
1F
100
AcDbEntity
  8
0
  6
Continuous
 62
     7
370
    25
100
AcDbLine
 10
725.9692667944
 20
563.7828827498
 30
0.0
 11
729.4525874853
 21
564.0250502782
 31
0.0
  0
LINE
  5
87
330
1F
100
AcDbEntity
  8
0
  6
Continuous
 62
     7
370
    25
100
AcDbLine
 10
729.4525874853
 20
570.6385243789
 30
0.0
 11
725.9692667944
 21
570.8806919073
 31
0.0
  0
ARC
  5
88
330
1F
100
AcDbEntity
  8
0
  6
Continuous
 62
     7
370
    25
100
AcDbCircle
 10
681.1440609718
 20
564.3598928528
 30
0.0
 40
8.999995138923055
100
AcDbArc
 50
257.1419190681
 51
270.0
  0
ARC
  5
89
330
1F
100
AcDbEntity
  8
0
  6
Continuous
 62
     7
370
    25
100
AcDbCircle
 10
681.1440609718
 20
564.3598928528
 30
0.0
 40
8.999995138923058
100
AcDbArc
 50
270.0
 51
305.1719294169
  0
SPLINE
  5
8A
330
1F
100
AcDbEntity
  8
0
  6
Continuous
 62
     7
370
    25
100
AcDbSpline
210
0.0
220
0.0
230
1.0
 70
     8
 71
     3
 72
    10
 73
     6
 74
     0
 42
0.00000001
 43
0.00000001
 40
0.0
 40
0.0
 40
0.0
 40
0.0
 40
0.270519767274804
 40
0.6900585277324287
 40
1.0
 40
1.0
 40
1.0
 40
1.0
 10
412.4131078946074
 20
564.2837934036105
 30
0.0
 10
412.4142469049647
 20
564.2512872132692
 30
0.0
 10
412.417152362921
 20
564.1683684155964
 30
0.0
 10
412.4735704562056
 20
564.0575123340666
 30
0.0
 10
412.5329379590318
 20
563.9943625476735
 30
0.0
 10
412.5581620163884
 20
563.9675314741365
 30
0.0
  0
SPLINE
  5
8B
330
1F
100
AcDbEntity
  8
0
  6
Continuous
 62
     7
370
    25
100
AcDbSpline
210
0.0
220
0.0
230
1.0
 70
     8
 71
     3
 72
    17
 73
    13
 74
     0
 42
0.00000001
 43
0.00000001
 40
0.0
 40
0.0
 40
0.0
 40
0.0
 40
0.1727939157605296
 40
0.4670908646424595
 40
0.5836036464445749
 40
0.6237329378319906
 40
0.6617158152047107
 40
0.7176264960718011
 40
0.7837734229449181
 40
0.8640117675634507
 40
0.9541263261861291
 40
1.0
 40
1.0
 40
1.0
 40
1.0
 10
413.4175040479174
 20
570.3931030900906
 30
0.0
 10
413.3337104450476
 20
570.3871259200317
 30
0.0
 10
413.10720231689
 20
570.3709686293155
 30
0.0
 10
412.9285979468618
 20
570.3541944864111
 30
0.0
 10
412.8466299639082
 20
570.3442771961427
 30
0.0
 10
412.7847990350529
 20
570.3317448061841
 30
0.0
 10
412.7161714489629
 20
570.3111236454228
 30
0.0
 10
412.623051793865
 20
570.2650272037515
 30
0.0
 10
412.5208115528445
 20
570.1789135635788
 30
0.0
 10
412.4361129244154
 20
570.0472767170655
 30
0.0
 10
412.3929208856653
 20
569.905488251042
 30
0.0
 10
412.4079785249032
 20
569.8167504017733
 30
0.0
 10
412.4130580028728
 20
569.7868159649522
 30
0.0
  0
LINE
  5
8C
330
1F
100
AcDbEntity
  8
0
  6
Continuous
 62
     7
370
    25
100
AcDbLine
 10
413.4175040479
 20
563.7796289894
 30
0.0
 11
416.9008247388
 21
563.537461461
 31
0.0
  0
LINE
  5
8D
330
1F
100
AcDbEntity
  8
0
  6
Continuous
 62
     7
370
    25
100
AcDbLine
 10
416.9008247388
 20
570.6352706185
 30
0.0
 11
413.4175040479
 21
570.3931030901
 31
0.0
  0
ARC
  5
8E
330
1F
100
AcDbEntity
  8
0
  6
Continuous
 62
     7
370
    25
100
AcDbCircle
 10
469.8350457666
 20
567.0863660397
 30
0.0
 40
9.141196303513993
100
AcDbArc
 50
295.4997205711
 51
0.0
  0
ARC
  5
8F
330
1F
100
AcDbEntity
  8
0
  6
Continuous
 62
     7
370
    25
100
AcDbCircle
 10
469.8350457666
 20
567.0863660397
 30
0.0
 40
9.141196303513993
100
AcDbArc
 50
0.0
 51
64.520479159
  0
ARC
  5
90
330
1F
100
AcDbEntity
  8
0
  6
Continuous
 62
     7
370
    25
100
AcDbCircle
 10
571.4350457666
 20
567.0863660397
 30
0.0
 40
8.600000000000136
100
AcDbArc
 50
0.0
 51
90.0
  0
ARC
  5
91
330
1F
100
AcDbEntity
  8
0
  6
Continuous
 62
     7
370
    25
100
AcDbCircle
 10
571.4350457666
 20
567.0863660397
 30
0.0
 40
8.600000000000136
100
AcDbArc
 50
90.0
 51
180.0
  0
ARC
  5
92
330
1F
100
AcDbEntity
  8
0
  6
Continuous
 62
     7
370
    25
100
AcDbCircle
 10
571.4829860202
 20
354.1633645532
 30
0.0
 40
8.552179660359604
100
AcDbArc
 50
269.6788200558
 51
359.6965866989
  0
ARC
  5
93
330
1F
100
AcDbEntity
  8
0
  6
Continuous
 62
     7
370
    25
100
AcDbCircle
 10
571.387105513
 20
354.1633645532
 30
0.0
 40
8.552179660359661
100
AcDbArc
 50
180.3034133011
 51
270.3211799442
  0
SPLINE
  5
94
330
1F
100
AcDbEntity
  8
0
  6
Continuous
 62
     7
370
    25
100
AcDbSpline
210
0.0
220
0.0
230
1.0
 70
     8
 71
     3
 72
    10
 73
     6
 74
     0
 42
0.00000001
 43
0.00000001
 40
0.0
 40
0.0
 40
0.0
 40
0.0
 40
0.2157678280199787
 40
0.9149182642889642
 40
0.9999999999999999
 40
0.9999999999999999
 40
0.9999999999999999
 40
0.9999999999999999
 10
582.1779972573547
 20
354.6546211572872
 30
0.0
 10
582.1751666562111
 20
354.6444290277159
 30
0.0
 10
582.1631640851647
 20
354.6012114378538
 30
0.0
 10
582.1442939917031
 20
354.5241021336776
 30
0.0
 10
582.1288740189214
 20
354.4594954376009
 30
0.0
 10
582.1272010984576
 20
354.4524862252309
 30
0.0
  0
SPLINE
  5
95
330
1F
100
AcDbEntity
  8
0
  6
Continuous
 62
     7
370
    25
100
AcDbSpline
210
0.0
220
0.0
230
1.0
 70
     8
 71
     3
 72
     9
 73
     5
 74
     0
 42
0.00000001
 43
0.00000001
 40
0.0
 40
0.0
 40
0.0
 40
0.0
 40
0.6744029794901455
 40
1.0
 40
1.0
 40
1.0
 40
1.0
 10
582.127201098463
 20
354.4524862252303
 30
0.0
 10
582.1040906517051
 20
353.8077919030907
 30
0.0
 10
582.0698226436137
 20
352.8518436914934
 30
0.0
 10
581.8787663090518
 20
351.8975936329205
 30
0.0
 10
581.8165589357689
 20
351.5868926570278
 30
0.0
  0
SPLINE
  5
96
330
1F
100
AcDbEntity
  8
0
  6
Continuous
 62
     7
370
    25
100
AcDbSpline
210
0.0
220
0.0
230
1.0
 70
     8
 71
     3
 72
    19
 73
    15
 74
     0
 42
0.00000001
 43
0.00000001
 40
0.0
 40
0.0
 40
0.0
 40
0.0
 40
0.0317355442705356
 40
0.1254801971740201
 40
0.2192216577941346
 40
0.3132585416738023
 40
0.4074542458100785
 40
0.5017654244255261
 40
0.5963399832143333
 40
0.6857280342219837
 40
0.775115898225303
 40
0.8699800726109996
 40
0.9649669391901936
 40
1.0
 40
1.0
 40
1.0
 40
1.0
 10
581.8165605016252
 20
351.5868999148001
 30
0.0
 10
581.7215496676655
 20
351.1995065264333
 30
0.0
 10
581.3458832515711
 20
349.6677792511172
 30
0.0
 10
579.9955888531335
 20
347.1863739528325
 30
0.0
 10
577.3394409093673
 20
344.7362947583811
 30
0.0
 10
573.9995326113134
 20
343.2888719015879
 30
0.0
 10
570.3610972581218
 20
343.0155539687316
 30
0.0
 10
566.8301626691346
 20
343.9455808693301
 30
0.0
 10
563.8604300575937
 20
345.945435817287
 30
0.0
 10
561.748398335135
 20
348.7234255999058
 30
0.0
 10
560.6037802603499
 20
352.0300576863614
 30
0.0
 10
560.6562130922206
 20
355.5546456044734
 30
0.0
 10
561.4705690983326
 20
358.3721230037378
 30
0.0
 10
562.5551960015375
 20
359.6062985052171
 30
0.0
 10
562.8474419750507
 20
359.9388394184568
 30
0.0
  0
ARC
  5
97
330
1F
100
AcDbEntity
  8
0
  6
Continuous
 62
     7
370
    25
100
AcDbCircle
 10
571.6285666345
 20
353.6883422908
 30
0.0
 40
10.6063463015356
100
AcDbArc
 50
358.6536831118
 51
37.5718291997
  0
LINE
  5
98
330
1F
100
AcDbEntity
  8
0
  6
Continuous
 62
     7
370
    25
100
AcDbLine
 10
582.231984976
 20
353.4391408792
 30
0.0
 11
582.1779972574
 21
354.6546211573
 31
0.0
  0
SPLINE
  5
99
330
1F
100
AcDbEntity
  8
0
  6
Continuous
 62
     7
370
    25
100
AcDbSpline
210
0.0
220
0.0
230
1.0
 70
     8
 71
     3
 72
   118
 73
   114
 74
     0
 42
0.00000001
 43
0.00000001
 40
0.0
 40
0.0
 40
0.0
 40
0.0
 40
0.0176825554665317
 40
0.0338679624644087
 40
0.0424437642922046
 40
0.0514406836773066
 40
0.0608586903784691
 40
0.0706977526489959
 40
0.0848140825439193
 40
0.095741404634343
 40
0.1034775731551906
 40
0.1080210690113068
 40
0.1147657440516446
 40
0.1251925609422079
 40
0.134907584359479
 40
0.1441677716307704
 40
0.1817278559363245
 40
0.2183474168749559
 40
0.225230103191118
 40
0.2316848191410442
 40
0.241740973960794
 40
0.2553960539049875
 40
0.2815779448460934
 40
0.2973216153528583
 40
0.3047043919041894
 40
0.3120871606222262
 40
0.3194699215544459
 40
0.326852674748325
 40
0.3342354202513368
 40
0.3348612253398358
 40
0.3396717304509461
 40
0.3461322757115378
 40
0.3544192950170555
 40
0.3607540338340661
 40
0.3675453527781485
 40
0.3699677311539717
 40
0.3716283127569288
 40
0.3716297239275708
 40
0.3716406229689921
 40
0.3716707079264887
 40
0.3717842020737068
 40
0.3722244870507421
 40
0.373958228619427
 40
0.3808374513765392
 40
0.3859835234617492
 40
0.3922668204241503
 40
0.3996871857273915
 40
0.408244434507241
 40
0.4232551772912947
 40
0.4454115476818499
 40
0.460146548275178
 40
0.4724993870934842
 40
0.4824687107509192
 40
0.4991414405700675
 40
0.5187138842840341
 40
0.5330475646943111
 40
0.5450859883351398
 40
0.552911675853968
 40
0.5552439472853301
 40
0.556089565330577
 40
0.556356904838751
 40
0.5564542578943618
 40
0.5564931677382257
 40
0.5565095280924657
 40
0.5565165795167648
 40
0.5565196536587825
 40
0.5565210007666397
 40
0.5565215924264648
 40
0.5565218525500929
 40
0.5565220568443313
 40
0.5638324280854619
 40
0.571142785191002
 40
0.5784531283163405
 40
0.5857634576168677
 40
0.5930737732479738
 40
0.5942619003850635
 40
0.6037851378232539
 40
0.6108881765551623
 40
0.6197565302807753
 40
0.6303896663230251
 40
0.6503273826139001
 40
0.6672198562200137
 40
0.6775741661911349
 40
0.689878506290588
 40
0.7041319748173919
 40
0.7409048363627486
 40
0.7482903821398053
 40
0.755675920656526
 40
0.7630614519535781
 40
0.770446976071631
 40
0.7778324930513542
 40
0.7799241101020621
 40
0.7862795125289351
 40
0.7964948238198968
 40
0.8085628341147554
 40
0.8152083145159936
 40
0.8214216362094778
 40
0.8296066148909365
 40
0.8397626376227204
 40
0.8518889436908926
 40
0.8675173000796828
 40
0.8889689943047607
 40
0.898475804900352
 40
0.9069459943757845
 40
0.9143793873175116
 40
0.9207758298284917
 40
0.9261351895593881
 40
0.9400611448536482
 40
0.9508106474540162
 40
0.9583816032196931
 40
0.9609747930230667
 40
0.962772734393364
 40
1.0
 40
1.0
 40
1.0
 40
1.0
 10
562.0640322000522
 20
348.6027023912158
 30
0.0
 10
562.2374213565929
 20
348.1315076019532
 30
0.0
 10
562.5695191383062
 20
347.2290131934739
 30
0.0
 10
563.51467976661
 20
346.2129141654797
 30
0.0
 10
564.2759660592711
 20
345.4857407078225
 30
0.0
 10
564.939216565459
 20
344.9529535323773
 30
0.0
 10
565.6738766676859
 20
344.4523220122119
 30
0.0
 10
566.5901533554174
 20
343.9356468113275
 30
0.0
 10
567.6015164201077
 20
343.4973280366137
 30
0.0
 10
568.5908881035407
 20
343.1915303476432
 30
0.0
 10
569.3065032713475
 20
343.0325473601608
 30
0.0
 10
569.8991209873627
 20
342.9337134669237
 30
0.0
 10
570.5806745627461
 20
342.854089701135
 30
0.0
 10
571.4305235903981
 20
342.8185722663405
 30
0.0
 10
572.3597695957762
 20
342.8611502670154
 30
0.0
 10
574.1324166462728
 20
343.0891828470973
 30
0.0
 10
576.674527861463
 20
343.9637977767139
 30
0.0
 10
578.733872212147
 20
345.5554318162163
 30
0.0
 10
579.772712619246
 20
346.7344461265434
 30
0.0
 10
580.2262289823851
 20
347.3128633254182
 30
0.0
 10
580.7542722477931
 20
348.106687311707
 30
0.0
 10
581.4947714667491
 20
349.4487078755745
 30
0.0
 10
581.9937787787536
 20
351.4050249253464
 30
0.0
 10
582.1641217508578
 20
352.1617798938852
 30
0.0
 10
582.2375005251455
 20
353.1898789328059
 30
0.0
 10
582.237308493997
 20
353.8694325919757
 30
0.0
 10
582.1939425785388
 20
354.5659445929749
 30
0.0
 10
582.1048333535268
 20
355.2532423866714
 30
0.0
 10
582.0118808105958
 20
355.7269122839637
 30
0.0
 10
581.9205833495541
 20
356.1179898132075
 30
0.0
 10
581.8271133495595
 20
356.4789876241089
 30
0.0
 10
581.6440079775786
 20
357.0643039643533
 30
0.0
 10
581.4057646117828
 20
357.6815800968165
 30
0.0
 10
581.1238669324308
 20
358.2915901108683
 30
0.0
 10
580.8937400261382
 20
358.7222368956577
 30
0.0
 10
580.720753840986
 20
359.0165506469851
 30
0.0
 10
580.6537939932297
 20
359.1259273085516
 30
0.0
 10
580.6260406641142
 20
359.1705229388472
 30
0.0
 10
580.6253372629039
 20
359.1716530168294
 30
0.0
 10
580.6227734866148
 20
359.1757703264319
 30
0.0
 10
580.6130735708914
 20
359.1913259014493
 30
0.0
 10
580.5749208295055
 20
359.2521798158512
 30
0.0
 10
580.4216133801691
 20
359.4915862057406
 30
0.0
 10
580.174739391566
 20
359.8467179305065
 30
0.0
 10
579.82170373973
 20
360.3012797648264
 30
0.0
 10
579.4349428054866
 20
360.7507689297968
 30
0.0
 10
578.9467466372392
 20
361.2535875685213
 30
0.0
 10
578.2192442581324
 20
361.9048239450817
 30
0.0
 10
577.0494294047825
 20
362.7527602920803
 30
0.0
 10
575.5751787214226
 20
363.4919455985999
 30
0.0
 10
574.0875338507728
 20
363.9586234261112
 30
0.0
 10
572.934654635724
 20
364.1759443254869
 30
0.0
 10
571.7061123422365
 20
364.2859852664593
 30
0.0
 10
570.2412453316108
 20
364.247370250914
 30
0.0
 10
568.663194061252
 20
363.9537726628899
 30
0.0
 10
567.289784196779
 20
363.4809799975849
 30
0.0
 10
566.3162462433053
 20
363.0149298795133
 30
0.0
 10
565.7142054442564
 20
362.6595548669992
 30
0.0
 10
565.4242282316718
 20
362.470545803408
 30
0.0
 10
565.3342860432723
 20
362.4101223179469
 30
0.0
 10
565.3027951422595
 20
362.3887429966519
 30
0.0
 10
565.2923054549643
 20
362.3815969356692
 30
0.0
 10
565.288340392794
 20
362.3788922712372
 30
0.0
 10
565.2867215853115
 20
362.3777874663522
 30
0.0
 10
565.2860336609942
 20
362.3773178672731
 30
0.0
 10
565.2857356880037
 20
362.3771144419159
 30
0.0
 10
565.2856054924081
 20
362.3770255540151
 30
0.0
 10
565.2855483830053
 20
362.3769865632331
 30
0.0
 10
565.2855209547238
 20
362.3769678367412
 30
0.0
 10
565.0956453632301
 20
362.2473308645416
 30
0.0
 10
564.7242432459029
 20
361.9759298821585
 30
0.0
 10
564.1948606213467
 20
361.534393021735
 30
0.0
 10
563.69524968629
 20
361.0601488253589
 30
0.0
 10
563.2275184614236
 20
360.5552165022911
 30
0.0
 10
562.9146636483998
 20
360.1705066375101
 30
0.0
 10
562.5751139511331
 20
359.7195297672191
 30
0.0
 10
562.2606157076824
 20
359.2580070451265
 30
0.0
 10
561.8608974338333
 20
358.5674262092223
 30
0.0
 10
561.495744708033
 20
357.8192435327989
 30
0.0
 10
561.052354599037
 20
356.6682918694373
 30
0.0
 10
560.709898376878
 20
355.2186336628324
 30
0.0
 10
560.6095963784377
 20
353.7447352386627
 30
0.0
 10
560.6751078929459
 20
352.5113155957899
 30
0.0
 10
560.8521056658196
 20
351.3708063085377
 30
0.0
 10
561.3826808645277
 20
349.4634516811898
 30
0.0
 10
562.276116540545
 20
347.8226787833991
 30
0.0
 10
563.3100908925366
 20
346.5813762836481
 30
0.0
 10
563.7888708151129
 20
346.0767718350144
 30
0.0
 10
564.2997286684584
 20
345.6040627901006
 30
0.0
 10
564.8405558109675
 20
345.165051668323
 30
0.0
 10
565.2733007286002
 20
344.8579633856515
 30
0.0
 10
565.6910898429973
 20
344.5868440389492
 30
0.0
 10
566.195487492829
 20
344.2854095448924
 30
0.0
 10
567.0022165667096
 20
343.8793716912129
 30
0.0
 10
567.8545373816605
 20
343.5497027743654
 30
0.0
 10
568.6089802738601
 20
343.326564896804
 30
0.0
 10
569.2557032678885
 20
343.173978539441
 30
0.0
 10
570.0205584805351
 20
343.0433578570195
 30
0.0
 10
570.9802927570541
 20
342.9572401432687
 30
0.0
 10
572.1803087449576
 20
342.9659662554958
 30
0.0
 10
573.7268343102272
 20
343.1645836685711
 30
0.0
 10
575.1467627629917
 20
343.5870561538146
 30
0.0
 10
576.2819537458016
 20
344.099495672629
 30
0.0
 10
576.985218536003
 20
344.4857261266862
 30
0.0
 10
577.5768997133121
 20
344.8663224918624
 30
0.0
 10
578.0650404288896
 20
345.2237226879495
 30
0.0
 10
578.6924264973715
 20
345.734526590164
 30
0.0
 10
579.3744371448823
 20
346.3928627995061
 30
0.0
 10
580.0242233592954
 20
347.1727561532436
 30
0.0
 10
580.4032732717964
 20
347.7100441315935
 30
0.0
 10
580.6056588106702
 20
348.0264603549113
 30
0.0
 10
581.290817918683
 20
349.1398030621612
 30
0.0
 10
581.6523289719645
 20
350.3210468622079
 30
0.0
 10
581.9971847470588
 20
351.4478692443805
 30
0.0
  0
ELLIPSE
  5
9A
330
1F
100
AcDbEntity
  8
0
  6
Continuous
 62
     7
370
    25
100
AcDbEllipse
 10
571.4350457666
 20
354.5932927105
 30
0.0
 11
-7.477835200843515
 21
8.465917295168424
 31
0.0
210
0.0
220
0.0
230
1.0
 40
0.9204473321
 41
3.737325233268399
 42
3.923781357698688
  0
SPLINE
  5
9B
330
1F
100
AcDbEntity
  8
0
  6
Continuous
 62
     7
370
    25
100
AcDbSpline
210
0.0
220
0.0
230
1.0
 70
     8
 71
     3
 72
    26
 73
    22
 74
     0
 42
0.00000001
 43
0.00000001
 40
0.0
 40
0.0
 40
0.0
 40
0.0
 40
0.0379876548658345
 40
0.0826386543747067
 40
0.0927793500680445
 40
0.1005473069333627
 40
0.1059425011303805
 40
0.1811747314085455
 40
0.2564070148430423
 40
0.3316393516360133
 40
0.3630376582118061
 40
0.4000508503796772
 40
0.4426782921425899
 40
0.5178784543336343
 40
0.5402715055781746
 40
0.5525151342175946
 40
0.634846983332614
 40
0.6986914680486785
 40
0.7776326689070939
 40
0.9019405898055957
 40
1.0
 40
1.0
 40
1.0
 40
1.0
 10
572.4110104133673
 20
343.0072072122367
 30
0.0
 10
572.6127819353202
 20
343.0237651465416
 30
0.0
 10
573.0517173506337
 20
343.0597854119412
 30
0.0
 10
573.5376119510805
 20
343.1545720927936
 30
0.0
 10
573.86276591651
 20
343.2268918675206
 30
0.0
 10
573.9835028801294
 20
343.2555882089987
 30
0.0
 10
574.4403860950725
 20
343.3687078703539
 30
0.0
 10
575.2345452413401
 20
343.6160022556824
 30
0.0
 10
576.33689410353
 20
344.0980219230158
 30
0.0
 10
577.1765609017866
 20
344.5819067891745
 30
0.0
 10
577.8060766834432
 20
345.013704532662
 30
0.0
 10
578.2752224771555
 20
345.3714879527915
 30
0.0
 10
578.8986802286873
 20
345.9075847043646
 30
0.0
 10
579.4195473140468
 20
346.4409240733944
 30
0.0
 10
579.7951714411066
 20
346.8856693086009
 30
0.0
 10
580.1827998657977
 20
347.3692202284648
 30
0.0
 10
580.6615951794757
 20
348.0609765951552
 30
0.0
 10
581.2307064977249
 20
349.1092068123905
 30
0.0
 10
581.7670004014309
 20
350.4173173934068
 30
0.0
 10
582.1625100244612
 20
351.9728989830858
 30
0.0
 10
582.2126272370641
 20
353.1474025157468
 30
0.0
 10
582.2347278949453
 20
353.665334368047
 30
0.0
  0
LINE
  5
9C
330
1F
100
AcDbEntity
  8
0
  6
Continuous
 62
     7
370
    25
100
AcDbLine
 10
582.1779972574
 20
354.6546211573
 30
0.0
 11
582.1235457713
 21
354.4022388071
 31
0.0
  0
SPLINE
  5
9D
330
1F
100
AcDbEntity
  8
0
  6
Continuous
 62
     7
370
    25
100
AcDbSpline
210
0.0
220
0.0
230
1.0
 70
     8
 71
     3
 72
    10
 73
     6
 74
     0
 42
0.00000001
 43
0.00000001
 40
0.0
 40
0.0
 40
0.0
 40
0.0
 40
0.5
 40
0.5
 40
1.0
 40
1.0
 40
1.0
 40
1.0
 10
571.4350457665906
 20
575.9089413723347
 30
0.0
 10
571.6637234634843
 20
575.9089413723347
 30
0.0
 10
571.8923726433974
 20
575.8985783063079
 30
0.0
 10
572.3475187757293
 20
575.8558630242228
 30
0.0
 10
572.5744276426276
 20
575.8254811732492
 30
0.0
 10
572.7977674482738
 20
575.7758236213848
 30
0.0
  0
SPLINE
  5
9E
330
1F
100
AcDbEntity
  8
0
  6
Continuous
 62
     7
370
    25
100
AcDbSpline
210
0.0
220
0.0
230
1.0
 70
     8
 71
     3
 72
    11
 73
     7
 74
     0
 42
0.00000001
 43
0.00000001
 40
0.0
 40
0.0
 40
0.0
 40
0.0
 40
0.2825875722690753
 40
0.5683996360007193
 40
0.8515491165179133
 40
1.0
 40
1.0
 40
1.0
 40
1.0
 10
571.4350457665906
 20
575.8820288029963
 30
0.0
 10
572.0282096094958
 20
575.8480214418461
 30
0.0
 10
573.2213056458459
 20
575.779618675426
 30
0.0
 10
574.9246522036925
 20
575.2103530238128
 30
0.0
 10
576.2751856926558
 20
574.5138756669614
 30
0.0
 10
576.9439387204922
 20
573.9030114213888
 30
0.0
 10
577.1739593277357
 20
573.6929019207789
 30
0.0
  0
SPLINE
  5
9F
330
1F
100
AcDbEntity
  8
0
  6
Continuous
 62
     7
370
    25
100
AcDbSpline
210
0.0
220
0.0
230
1.0
 70
     8
 71
     3
 72
    10
 73
     6
 74
     0
 42
0.00000001
 43
0.00000001
 40
0.0
 40
0.0
 40
0.0
 40
0.0
 40
0.3561081423222344
 40
0.7094569882183926
 40
1.0
 40
1.0
 40
1.0
 40
1.0
 10
572.7977674482734
 20
575.7758236213849
 30
0.0
 10
573.447200671437
 20
575.6257399805313
 30
0.0
 10
574.7410349981391
 20
575.3267356187483
 30
0.0
 10
576.4386395407022
 20
574.4498029391892
 30
0.0
 10
577.2714891180976
 20
573.5723716699085
 30
0.0
 10
577.6472954304345
 20
573.1764487822863
 30
0.0
  0
LINE
  5
A0
330
1F
100
AcDbEntity
  8
0
  6
Continuous
 62
     7
370
    25
100
AcDbLine
 10
572.5426386755
 20
575.7708134452
 30
0.0
 11
572.7977674483
 21
575.7758236214
 31
0.0
  0
ARC
  5
A1
330
1F
100
AcDbEntity
  8
0
  6
Continuous
 62
     7
370
    25
100
AcDbCircle
 10
571.4350457666
 20
567.0863660397
 30
0.0
 40
12.74977327051852
100
AcDbArc
 50
90.0
 51
227.5829738662
  0
ARC
  5
A2
330
1F
100
AcDbEntity
  8
0
  6
Continuous
 62
     7
370
    25
100
AcDbCircle
 10
571.4350457666
 20
567.0863660397
 30
0.0
 40
12.74977327051852
100
AcDbArc
 50
312.4170261338
 51
90.0
  0
LINE
  5
A3
330
1F
100
AcDbEntity
  8
0
  6
Continuous
 62
     7
370
    25
100
AcDbLine
 10
571.4350457666
 20
575.6863660397
 30
0.0
 11
571.4350457666
 21
575.9089413723
 31
0.0
  0
LINE
  5
A4
330
1F
100
AcDbEntity
  8
0
  6
Continuous
 62
     7
370
    25
100
AcDbLine
 10
572.7977674483
 20
575.7758236214
 30
0.0
 11
574.5836481841
 21
575.04701505
 31
0.0
  0
ARC
  5
A5
330
1F
100
AcDbEntity
  8
0
  6
Continuous
 62
     7
370
    25
100
AcDbCircle
 10
571.4350457666
 20
567.0863660397
 30
0.0
 40
13.74977327051852
100
AcDbArc
 50
308.7163150072
 51
90.0
  0
ARC
  5
A6
330
1F
100
AcDbEntity
  8
0
  6
Continuous
 62
     7
370
    25
100
AcDbCircle
 10
571.4350457666
 20
567.0863660397
 30
0.0
 40
13.74977327051852
100
AcDbArc
 50
90.0
 51
231.2836849928
  0
SPLINE
  5
A7
330
1F
100
AcDbEntity
  8
0
  6
Continuous
 62
     7
370
    25
100
AcDbSpline
210
0.0
220
0.0
230
1.0
 70
     8
 71
     3
 72
     9
 73
     5
 74
     0
 42
0.00000001
 43
0.00000001
 40
0.0
 40
0.0
 40
0.0
 40
0.0
 40
0.0327012110277725
 40
0.9999999999999999
 40
0.9999999999999999
 40
0.9999999999999999
 40
0.9999999999999999
 10
585.2006410658513
 20
566.9743302506143
 30
0.0
 10
585.2057139253889
 20
567.0116755136579
 30
0.0
 10
585.3608414995086
 20
568.153690193535
 30
0.0
 10
585.0653230228737
 20
569.2957048734121
 30
0.0
 10
584.7794683583057
 20
570.4003742902456
 30
0.0
  0
ARC
  5
A8
330
1F
100
AcDbEntity
  8
0
  6
Continuous
 62
     7
370
    25
100
AcDbCircle
 10
673.0350457666
 20
567.0863660397
 30
0.0
 40
17.60000000000009
100
AcDbArc
 50
152.0468131166
 51
172.4710217602
  0
ARC
  5
A9
330
1F
100
AcDbEntity
  8
0
  6
Continuous
 62
     7
370
    25
100
AcDbCircle
 10
673.0350457666
 20
567.0863660397
 30
0.0
 40
17.60000000000015
100
AcDbArc
 50
187.7001886922
 51
207.9531868834
  0
ARC
  5
AA
330
1F
100
AcDbEntity
  8
0
  6
Continuous
 62
     7
370
    25
100
AcDbCircle
 10
673.0350457666
 20
567.0863660397
 30
0.0
 40
17.60000000000012
100
AcDbArc
 50
207.9531868834
 51
231.9423049492
  0
ARC
  5
AB
330
1F
100
AcDbEntity
  8
0
  6
Continuous
 62
     7
370
    25
100
AcDbCircle
 10
673.0350457666
 20
567.0863660397
 30
0.0
 40
17.60000000000013
100
AcDbArc
 50
248.3662117989
 51
292.6012741774
  0
ARC
  5
AC
330
1F
100
AcDbEntity
  8
0
  6
Continuous
 62
     7
370
    25
100
AcDbCircle
 10
673.0350457666
 20
567.0863660397
 30
0.0
 40
17.60000000000009
100
AcDbArc
 50
307.4387102895
 51
329.914091969
  0
ARC
  5
AD
330
1F
100
AcDbEntity
  8
0
  6
Continuous
 62
     7
370
    25
100
AcDbCircle
 10
673.0350457666
 20
567.0863660397
 30
0.0
 40
17.60000000000019
100
AcDbArc
 50
32.8335159483
 51
52.0595698702
  0
ARC
  5
AE
330
1F
100
AcDbEntity
  8
0
  6
Continuous
 62
     7
370
    25
100
AcDbCircle
 10
673.0350457666
 20
567.0863660397
 30
0.0
 40
17.60000000000019
100
AcDbArc
 50
68.2372110924
 51
112.1945424058
  0
ARC
  5
AF
330
1F
100
AcDbEntity
  8
0
  6
Continuous
 62
     7
370
    25
100
AcDbCircle
 10
673.0350457666
 20
567.0863660397
 30
0.0
 40
17.60000000000016
100
AcDbArc
 50
128.1352663927
 51
152.0468131166
  0
ARC
  5
B0
330
1F
100
AcDbEntity
  8
0
  6
Continuous
 62
     7
370
    25
100
AcDbCircle
 10
469.8350457666
 20
567.0863660397
 30
0.0
 40
17.60000000000019
100
AcDbArc
 50
7.8284686027
 51
27.9531868834
  0
ARC
  5
B1
330
1F
100
AcDbEntity
  8
0
  6
Continuous
 62
     7
370
    25
100
AcDbCircle
 10
469.8350457666
 20
567.0863660397
 30
0.0
 40
17.60000000000017
100
AcDbArc
 50
332.0468131166
 51
352.9126000189
  0
ARC
  5
B2
330
1F
100
AcDbEntity
  8
0
  6
Continuous
 62
     7
370
    25
100
AcDbCircle
 10
469.8350457666
 20
567.0863660397
 30
0.0
 40
17.60000000000009
100
AcDbArc
 50
308.3524775834
 51
332.0468131166
  0
ARC
  5
B3
330
1F
100
AcDbEntity
  8
0
  6
Continuous
 62
     7
370
    25
100
AcDbCircle
 10
469.8350457666
 20
567.0863660397
 30
0.0
 40
17.60000000000012
100
AcDbArc
 50
247.7053216207
 51
291.9394873066
  0
ARC
  5
B4
330
1F
100
AcDbEntity
  8
0
  6
Continuous
 62
     7
370
    25
100
AcDbCircle
 10
469.8350457666
 20
567.0863660397
 30
0.0
 40
17.60000000000011
100
AcDbArc
 50
211.5427743269
 51
233.2869514371
  0
ARC
  5
B5
330
1F
100
AcDbEntity
  8
0
  6
Continuous
 62
     7
370
    25
100
AcDbCircle
 10
469.8350457666
 20
567.0863660397
 30
0.0
 40
17.60000000000015
100
AcDbArc
 50
128.2989892036
 51
148.4572256731
  0
ARC
  5
B6
330
1F
100
AcDbEntity
  8
0
  6
Continuous
 62
     7
370
    25
100
AcDbCircle
 10
469.8350457666
 20
567.0863660397
 30
0.0
 40
17.60000000000021
100
AcDbArc
 50
68.0922381153
 51
112.0468846828
  0
ARC
  5
B7
330
1F
100
AcDbEntity
  8
0
  6
Continuous
 62
     7
370
    25
100
AcDbCircle
 10
469.8350457666
 20
567.0863660397
 30
0.0
 40
17.60000000000019
100
AcDbArc
 50
27.9531868834
 51
52.2965225843
  0
LWPOLYLINE
  5
B8
330
1F
100
AcDbEntity
  8
0
  6
Continuous
 62
     7
370
    25
100
AcDbPolyline
 90
        9
 70
   128
 43
0.0
 10
650.4217753264
 20
574.2863660397
 10
651.6001570749
 20
573.9480149045
 10
652.7481684397
 20
573.7420942788
 10
653.8362217718
 20
573.6739113464
 10
654.836274718
 20
573.7452233832
 10
655.7225529554
 20
573.9541924669
 10
656.472214472
 20
574.2954328462
 10
657.0659382728
 20
574.7601497469
 10
657.488422339
 20
575.3363660397
  0
SPLINE
  5
B9
330
1F
100
AcDbEntity
  8
0
  6
Continuous
 62
     7
370
    25
100
AcDbSpline
210
0.0
220
0.0
230
1.0
 70
     8
 71
     3
 72
    26
 73
    22
 74
     0
 42
0.00000001
 43
0.00000001
 40
0.0
 40
0.0
 40
0.0
 40
0.0
 40
0.1250000000000003
 40
0.1250000000000003
 40
0.1875
 40
0.1875
 40
0.2499999999999997
 40
0.2499999999999997
 40
0.3749999999999996
 40
0.3749999999999996
 40
0.4374999999999996
 40
0.4374999999999996
 40
0.4999999999999997
 40
0.4999999999999997
 40
0.6249999999999998
 40
0.6249999999999998
 40
0.7499999999999998
 40
0.7499999999999998
 40
0.8749999999999999
 40
0.8749999999999999
 40
1.0
 40
1.0
 40
1.0
 40
1.0
 10
492.4483162067463
 20
574.2863660397546
 30
0.0
 10
492.8410913643475
 20
573.8422694967056
 30
0.0
 10
493.1650281219453
 20
573.349248810383
 30
0.0
 10
493.55590081444
 20
572.5282847136272
 30
0.0
 10
493.6705769614178
 20
572.2400544798928
 30
0.0
 10
493.8675247224344
 20
571.6452432884101
 30
0.0
 10
493.9498657046453
 20
571.3388949227227
 30
0.0
 10
494.1550678153393
 20
570.4063409695384
 30
0.0
 10
494.2382972668362
 20
569.7621640142966
 30
0.0
 10
494.3164118013489
 20
568.76575159468
 30
0.0
 10
494.334425138607
 20
568.4289701610062
 30
0.0
 10
494.3577465547526
 20
567.7591015240387
 30
0.0
 10
494.363212684658
 20
567.4243016304255
 30
0.0
 10
494.3633210923228
 20
566.4202926984989
 30
0.0
 10
494.3429807134076
 20
565.7495815827946
 30
0.0
 10
494.2390989527873
 20
564.4171474733521
 30
0.0
 10
494.1559414133067
 20
563.7718304552343
 30
0.0
 10
493.8828180107931
 20
562.5276773717238
 30
0.0
 10
493.689100413126
 20
561.9251253968367
 30
0.0
 10
493.1659071506807
 20
560.8244220336468
 30
0.0
 10
492.8410191977003
 20
560.3303809865904
 30
0.0
 10
492.4483162067548
 20
559.8863660397449
 30
0.0
  0
LWPOLYLINE
  5
BA
330
1F
100
AcDbEntity
  8
0
  6
Continuous
 62
     7
370
    25
100
AcDbPolyline
 90
        9
 70
   128
 43
0.0
 10
485.3816691942
 20
558.8363660397
 10
485.8041532604
 20
559.4125823326
 10
486.3978770611
 20
559.8772992333
 10
487.1475385778
 20
560.2185396126
 10
488.0338168152
 20
560.4275086963
 10
489.0338697614
 20
560.4988207331
 10
490.1219230935
 20
560.4306378007
 10
491.2699344583
 20
560.224717175
 10
492.4483162068
 20
559.8863660397
  0
LWPOLYLINE
  5
BB
330
1F
100
AcDbEntity
  8
0
  6
Continuous
 62
     7
370
    25
100
AcDbPolyline
 90
        9
 70
   128
 43
0.0
 10
492.4483162067
 20
574.2863660398
 10
491.2699344583
 20
573.9480149045
 10
490.1219230935
 20
573.7420942788
 10
489.0338697614
 20
573.6739113464
 10
488.0338168152
 20
573.7452233832
 10
487.1475385777
 20
573.9541924669
 10
486.3978770611
 20
574.2954328462
 10
485.8041532604
 20
574.7601497469
 10
485.3816691942
 20
575.3363660398
  0
LWPOLYLINE
  5
BC
330
1F
100
AcDbEntity
  8
0
  6
Continuous
 62
     7
370
    25
100
AcDbPolyline
 90
        9
 70
   128
 43
0.0
 10
657.488422339
 20
558.8363660397
 10
657.0659382728
 20
559.4125823326
 10
656.472214472
 20
559.8772992333
 10
655.7225529554
 20
560.2185396126
 10
654.836274718
 20
560.4275086963
 10
653.8362217718
 20
560.4988207331
 10
652.7481684397
 20
560.4306378007
 10
651.6001570749
 20
560.224717175
 10
650.4217753264
 20
559.8863660397
  0
SPLINE
  5
BD
330
1F
100
AcDbEntity
  8
0
  6
Continuous
 62
     7
370
    25
100
AcDbSpline
210
0.0
220
0.0
230
1.0
 70
     8
 71
     3
 72
    30
 73
    26
 74
     0
 42
0.00000001
 43
0.00000001
 40
0.0
 40
0.0
 40
0.0
 40
0.0
 40
0.1250000000000007
 40
0.1250000000000007
 40
0.1875000000000002
 40
0.1875000000000002
 40
0.2499999999999997
 40
0.2499999999999997
 40
0.3749999999999995
 40
0.3749999999999995
 40
0.4999999999999993
 40
0.4999999999999993
 40
0.5624999999999992
 40
0.5624999999999992
 40
0.6249999999999991
 40
0.6249999999999991
 40
0.7499999999999992
 40
0.7499999999999992
 40
0.8124999999999994
 40
0.8124999999999994
 40
0.8749999999999997
 40
0.8749999999999997
 40
0.9374999999999999
 40
0.9374999999999999
 40
1.0
 40
1.0
 40
1.0
 40
1.0
 10
650.4217753264264
 20
559.8863660397449
 30
0.0
 10
650.0286626983453
 20
560.3308441483568
 30
0.0
 10
649.7035071392639
 20
560.8254526800022
 30
0.0
 10
649.3109004186344
 20
561.6520178866266
 30
0.0
 10
649.197219561181
 20
561.9392276912145
 30
0.0
 10
649.0028623040334
 20
562.526981475571
 30
0.0
 10
648.9215037720118
 20
562.8289197862994
 30
0.0
 10
648.7165127305738
 20
563.7578696703885
 30
0.0
 10
648.6314608577617
 20
564.4126286972897
 30
0.0
 10
648.5271769386441
 20
565.7472535630901
 30
0.0
 10
648.5068142282762
 20
566.4178410722222
 30
0.0
 10
648.5068567309322
 20
567.4225478764406
 30
0.0
 10
648.512308253756
 20
567.7575805741665
 30
0.0
 10
648.5356135003963
 20
568.4279151716682
 30
0.0
 10
648.553625260018
 20
568.7649311913535
 30
0.0
 10
648.6317661015829
 20
569.7620555652604
 30
0.0
 10
648.7150503389397
 20
570.4066797514207
 30
0.0
 10
648.9204612903551
 20
571.3398558955422
 30
0.0
 10
649.0031244204343
 20
571.6470595917232
 30
0.0
 10
649.1996419676618
 20
572.2403065323206
 30
0.0
 10
649.3127273303618
 20
572.5246421004754
 30
0.0
 10
649.5714969100585
 20
573.0692729289742
 30
0.0
 10
649.7171736531086
 20
573.3295695567539
 30
0.0
 10
650.0436685924157
 20
573.8267016427135
 30
0.0
 10
650.2251323857555
 20
574.0640290398688
 30
0.0
 10
650.4217753264259
 20
574.2863660397452
 30
0.0
  0
ARC
  5
BE
330
1F
100
AcDbEntity
  8
0
  6
Continuous
 62
     7
370
    25
100
AcDbCircle
 10
571.2498751876
 20
353.6650831301
 30
0.0
 40
11.36483621089343
100
AcDbArc
 50
137.7677859272
 51
179.9373694799
  0
ARC
  5
BF
330
1F
100
AcDbEntity
  8
0
  6
Continuous
 62
     7
370
    25
100
AcDbCircle
 10
571.3967251029
 20
353.6947053651
 30
0.0
 40
11.51169218472658
100
AcDbArc
 50
180.0856037443
 51
41.3753612174
  0
ARC
  5
C0
330
1F
100
AcDbEntity
  8
0
  6
Continuous
 62
     7
370
    25
100
AcDbCircle
 10
571.4350457666
 20
351.8559936133
 30
0.0
 40
11.55039836092891
100
AcDbArc
 50
180.4758595233
 51
359.5241404767
  0
ARC
  5
C1
330
1F
100
AcDbEntity
  8
0
  6
Continuous
 62
     7
370
    25
100
AcDbCircle
 10
571.4350457666
 20
351.4154624069
 30
0.0
 40
11.11102333052144
100
AcDbArc
 50
251.3891493209
 51
288.6108506791
  0
CIRCLE
  5
C2
330
1F
100
AcDbEntity
  8
0
  6
Continuous
 62
     7
370
    25
100
AcDbCircle
 10
673.0350457666
 20
567.0863660397
 30
0.0
 40
5.328914336627463
  0
CIRCLE
  5
C3
330
1F
100
AcDbEntity
  8
0
  6
Continuous
 62
     7
370
    25
100
AcDbCircle
 10
673.0350457666
 20
567.0863660397
 30
0.0
 40
5.074569253689106
  0
CIRCLE
  5
C4
330
1F
100
AcDbEntity
  8
0
  6
Continuous
 62
     7
370
    25
100
AcDbCircle
 10
673.0350457666
 20
567.0863660397
 30
0.0
 40
5.925127771161556
  0
CIRCLE
  5
C5
330
1F
100
AcDbEntity
  8
0
  6
Continuous
 62
     7
370
    25
100
AcDbCircle
 10
673.0350457666
 20
567.0863660397
 30
0.0
 40
7.149999999999977
  0
LINE
  5
C6
330
1F
100
AcDbEntity
  8
0
  6
Continuous
 62
     7
370
    25
100
AcDbLine
 10
470.998403376
 20
564.6849916265
 30
0.0
 11
469.8284728074
 21
564.4180413226
 31
0.0
  0
LINE
  5
C7
330
1F
100
AcDbEntity
  8
0
  6
Continuous
 62
     7
370
    25
100
AcDbLine
 10
470.7203301428
 20
565.9036693021
 30
0.0
 11
470.998403376
 21
564.6849916265
 31
0.0
  0
SPLINE
  5
C8
330
1F
100
AcDbEntity
  8
0
  6
Continuous
 62
     7
370
    25
100
AcDbSpline
210
0.0
220
0.0
230
1.0
 70
     8
 71
     3
 72
    12
 73
     8
 74
     0
 42
0.00000001
 43
0.00000001
 40
0.0
 40
0.0
 40
0.0
 40
0.0
 40
0.2133534395476119
 40
0.4267919313634478
 40
0.6383539739091497
 40
0.849095035192757
 40
0.9999999999999999
 40
0.9999999999999999
 40
0.9999999999999999
 40
0.9999999999999999
 10
471.2846928081685
 20
566.8017198473508
 30
0.0
 10
471.2050934572395
 20
566.7752473848884
 30
0.0
 10
471.0458630235034
 20
566.7222919068504
 30
0.0
 10
470.8559766062365
 20
566.5482887717197
 30
0.0
 10
470.7328152195145
 20
566.3279758782645
 30
0.0
 10
470.6894089627049
 20
566.1016730950813
 30
0.0
 10
470.7112263468988
 20
565.9619654637104
 30
0.0
 10
470.7203301427555
 20
565.9036693020652
 30
0.0
  0
LINE
  5
C9
330
1F
100
AcDbEntity
  8
0
  6
Continuous
 62
     7
370
    25
100
AcDbLine
 10
472.5033704838
 20
567.0797930806
 30
0.0
 11
471.2846928082
 21
566.8017198474
 31
0.0
  0
LINE
  5
CA
330
1F
100
AcDbEntity
  8
0
  6
Continuous
 62
     7
370
    25
100
AcDbLine
 10
472.2364201799
 20
568.2497236491
 30
0.0
 11
472.5033704838
 21
567.0797930806
 31
0.0
  0
LINE
  5
CB
330
1F
100
AcDbEntity
  8
0
  6
Continuous
 62
     7
370
    25
100
AcDbLine
 10
471.0177425043
 20
567.9716504159
 30
0.0
 11
472.2364201799
 21
568.2497236491
 31
0.0
  0
SPLINE
  5
CC
330
1F
100
AcDbEntity
  8
0
  6
Continuous
 62
     7
370
    25
100
AcDbSpline
210
0.0
220
0.0
230
1.0
 70
     8
 71
     3
 72
    12
 73
     8
 74
     0
 42
0.00000001
 43
0.00000001
 40
0.0
 40
0.0
 40
0.0
 40
0.0
 40
0.2133534395476159
 40
0.4267919313634425
 40
0.6383539739091564
 40
0.849095035192758
 40
1.0
 40
1.0
 40
1.0
 40
1.0
 10
470.1196919589847
 20
568.5360130813227
 30
0.0
 10
470.1461644214471
 20
568.4564137303938
 30
0.0
 10
470.199119899485
 20
568.2971832966575
 30
0.0
 10
470.3731230346158
 20
568.1072968793907
 30
0.0
 10
470.5934359280709
 20
567.9841354926687
 30
0.0
 10
470.8197387112542
 20
567.9407292358592
 30
0.0
 10
470.9594463426251
 20
567.962546620053
 30
0.0
 10
471.0177425042704
 20
567.9716504159098
 30
0.0
  0
LINE
  5
CD
330
1F
100
AcDbEntity
  8
0
  6
Continuous
 62
     7
370
    25
100
AcDbLine
 10
469.8416187258
 20
569.7546907569
 30
0.0
 11
470.119691959
 21
568.5360130813
 31
0.0
  0
LINE
  5
CE
330
1F
100
AcDbEntity
  8
0
  6
Continuous
 62
     7
370
    25
100
AcDbLine
 10
468.6716881572
 20
569.487740453
 30
0.0
 11
469.8416187258
 21
569.7546907569
 31
0.0
  0
LINE
  5
CF
330
1F
100
AcDbEntity
  8
0
  6
Continuous
 62
     7
370
    25
100
AcDbLine
 10
468.9497613904
 20
568.2690627774
 30
0.0
 11
468.6716881572
 21
569.487740453
 31
0.0
  0
SPLINE
  5
D0
330
1F
100
AcDbEntity
  8
0
  6
Continuous
 62
     7
370
    25
100
AcDbSpline
210
0.0
220
0.0
230
1.0
 70
     8
 71
     3
 72
    12
 73
     8
 74
     0
 42
0.00000001
 43
0.00000001
 40
0.0
 40
0.0
 40
0.0
 40
0.0
 40
0.213353439547612
 40
0.426791931363448
 40
0.63835397390915
 40
0.8490950351927569
 40
1.0
 40
1.0
 40
1.0
 40
1.0
 10
468.3853987250127
 20
567.3710122321389
 30
0.0
 10
468.4649980759417
 20
567.3974846946013
 30
0.0
 10
468.6242285096779
 20
567.4504401726392
 30
0.0
 10
468.8141149269448
 20
567.6244433077701
 30
0.0
 10
468.9372763136668
 20
567.8447562012252
 30
0.0
 10
468.9806825704763
 20
568.0710589844083
 30
0.0
 10
468.9588651862825
 20
568.2107666157794
 30
0.0
 10
468.9497613904257
 20
568.2690627774247
 30
0.0
  0
LINE
  5
D1
330
1F
100
AcDbEntity
  8
0
  6
Continuous
 62
     7
370
    25
100
AcDbLine
 10
467.1667210494
 20
567.0929389989
 30
0.0
 11
468.385398725
 21
567.3710122321
 31
0.0
  0
LINE
  5
D2
330
1F
100
AcDbEntity
  8
0
  6
Continuous
 62
     7
370
    25
100
AcDbLine
 10
467.4336713533
 20
565.9230084304
 30
0.0
 11
467.1667210494
 21
567.0929389989
 31
0.0
  0
LINE
  5
D3
330
1F
100
AcDbEntity
  8
0
  6
Continuous
 62
     7
370
    25
100
AcDbLine
 10
468.6523490289
 20
566.2010816636
 30
0.0
 11
467.4336713533
 21
565.9230084304
 31
0.0
  0
SPLINE
  5
D4
330
1F
100
AcDbEntity
  8
0
  6
Continuous
 62
     7
370
    25
100
AcDbSpline
210
0.0
220
0.0
230
1.0
 70
     8
 71
     3
 72
    12
 73
     8
 74
     0
 42
0.00000001
 43
0.00000001
 40
0.0
 40
0.0
 40
0.0
 40
0.0
 40
0.2133534395476155
 40
0.4267919313634422
 40
0.6383539739091563
 40
0.8490950351927579
 40
0.9999999999999999
 40
0.9999999999999999
 40
0.9999999999999999
 40
0.9999999999999999
 10
469.5503995741966
 20
565.6367189981669
 30
0.0
 10
469.5239271117342
 20
565.716318349096
 30
0.0
 10
469.4709716336962
 20
565.8755487828321
 30
0.0
 10
469.2969684985654
 20
566.065435200099
 30
0.0
 10
469.0766556051103
 20
566.188596586821
 30
0.0
 10
468.8503528219271
 20
566.2320028436305
 30
0.0
 10
468.7106451905561
 20
566.2101854594368
 30
0.0
 10
468.6523490289109
 20
566.20108166358
 30
0.0
  0
LINE
  5
D5
330
1F
100
AcDbEntity
  8
0
  6
Continuous
 62
     7
370
    25
100
AcDbLine
 10
469.8284728074
 20
564.4180413226
 30
0.0
 11
469.5503995742
 21
565.6367189982
 31
0.0
  0
CIRCLE
  5
D6
330
1F
100
AcDbEntity
  8
0
  6
Continuous
 62
     7
370
    25
100
AcDbCircle
 10
469.8350457666
 20
567.0863660397
 30
0.0
 40
4.197433366238889
  0
CIRCLE
  5
D7
330
1F
100
AcDbEntity
  8
0
  6
Continuous
 62
     7
370
    25
100
AcDbCircle
 10
469.8350457666
 20
567.0863660397
 30
0.0
 40
4.500000000000057
  0
LINE
  5
D8
330
1F
100
AcDbEntity
  8
0
  6
Continuous
 62
     7
370
    25
100
AcDbLine
 10
673.0284728074
 20
569.7546907569
 30
0.0
 11
674.198403376
 21
569.487740453
 31
0.0
  0
LINE
  5
D9
330
1F
100
AcDbEntity
  8
0
  6
Continuous
 62
     7
370
    25
100
AcDbLine
 10
672.7503995742
 20
568.5360130813
 30
0.0
 11
673.0284728074
 21
569.7546907569
 31
0.0
  0
SPLINE
  5
DA
330
1F
100
AcDbEntity
  8
0
  6
Continuous
 62
     7
370
    25
100
AcDbSpline
210
0.0
220
0.0
230
1.0
 70
     8
 71
     3
 72
    12
 73
     8
 74
     0
 42
0.00000001
 43
0.00000001
 40
0.0
 40
0.0
 40
0.0
 40
0.0
 40
0.2133534395476135
 40
0.4267919313634461
 40
0.638353973909149
 40
0.8490950351927548
 40
0.9999999999999999
 40
0.9999999999999999
 40
0.9999999999999999
 40
0.9999999999999999
 10
671.852349028911
 20
567.9716504159098
 30
0.0
 10
671.935552903065
 20
567.9609750581685
 30
0.0
 10
672.1019938201761
 20
567.939620087009
 30
0.0
 10
672.348563185843
 20
568.0140344029196
 30
0.0
 10
672.5550993883895
 20
568.1591181554197
 30
0.0
 10
672.692372501977
 20
568.3441942076055
 30
0.0
 10
672.7333152773234
 20
568.4795378800223
 30
0.0
 10
672.7503995741966
 20
568.5360130813227
 30
0.0
  0
LINE
  5
DB
330
1F
100
AcDbEntity
  8
0
  6
Continuous
 62
     7
370
    25
100
AcDbLine
 10
670.6336713533
 20
568.2497236491
 30
0.0
 11
671.8523490289
 21
567.9716504159
 31
0.0
  0
LINE
  5
DC
330
1F
100
AcDbEntity
  8
0
  6
Continuous
 62
     7
370
    25
100
AcDbLine
 10
670.3667210494
 20
567.0797930806
 30
0.0
 11
670.6336713533
 21
568.2497236491
 31
0.0
  0
LINE
  5
DD
330
1F
100
AcDbEntity
  8
0
  6
Continuous
 62
     7
370
    25
100
AcDbLine
 10
671.585398725
 20
566.8017198474
 30
0.0
 11
670.3667210494
 21
567.0797930806
 31
0.0
  0
SPLINE
  5
DE
330
1F
100
AcDbEntity
  8
0
  6
Continuous
 62
     7
370
    25
100
AcDbSpline
210
0.0
220
0.0
230
1.0
 70
     8
 71
     3
 72
    12
 73
     8
 74
     0
 42
0.00000001
 43
0.00000001
 40
0.0
 40
0.0
 40
0.0
 40
0.0
 40
0.2133534395476132
 40
0.4267919313634478
 40
0.638353973909154
 40
0.8490950351927532
 40
1.0
 40
1.0
 40
1.0
 40
1.0
 10
672.1497613904259
 20
565.9036693020652
 30
0.0
 10
672.160436748167
 20
565.9868731762192
 30
0.0
 10
672.1817917193267
 20
566.1533140933302
 30
0.0
 10
672.1073774034159
 20
566.3998834589971
 30
0.0
 10
671.9622936509157
 20
566.6064196615437
 30
0.0
 10
671.77721759873
 20
566.7436927751312
 30
0.0
 10
671.6418739263131
 20
566.7846355504776
 30
0.0
 10
671.5853987250127
 20
566.8017198473508
 30
0.0
  0
LINE
  5
DF
330
1F
100
AcDbEntity
  8
0
  6
Continuous
 62
     7
370
    25
100
AcDbLine
 10
671.8716881572
 20
564.6849916265
 30
0.0
 11
672.1497613904
 21
565.9036693021
 31
0.0
  0
LINE
  5
E0
330
1F
100
AcDbEntity
  8
0
  6
Continuous
 62
     7
370
    25
100
AcDbLine
 10
673.0416187258
 20
564.4180413226
 30
0.0
 11
671.8716881572
 21
564.6849916265
 31
0.0
  0
LINE
  5
E1
330
1F
100
AcDbEntity
  8
0
  6
Continuous
 62
     7
370
    25
100
AcDbLine
 10
673.319691959
 20
565.6367189982
 30
0.0
 11
673.0416187258
 21
564.4180413226
 31
0.0
  0
SPLINE
  5
E2
330
1F
100
AcDbEntity
  8
0
  6
Continuous
 62
     7
370
    25
100
AcDbSpline
210
0.0
220
0.0
230
1.0
 70
     8
 71
     3
 72
    12
 73
     8
 74
     0
 42
0.00000001
 43
0.00000001
 40
0.0
 40
0.0
 40
0.0
 40
0.0
 40
0.2133534395476136
 40
0.4267919313634463
 40
0.6383539739091494
 40
0.8490950351927551
 40
1.0
 40
1.0
 40
1.0
 40
1.0
 10
674.2177425042704
 20
566.20108166358
 30
0.0
 10
674.1345386301164
 20
566.2117570213211
 30
0.0
 10
673.9680977130052
 20
566.2331119924809
 30
0.0
 10
673.7215283473384
 20
566.15869767657
 30
0.0
 10
673.5149921447919
 20
566.01361392407
 30
0.0
 10
673.3777190312044
 20
565.8285378718841
 30
0.0
 10
673.336776255858
 20
565.6931941994673
 30
0.0
 10
673.3196919589847
 20
565.6367189981669
 30
0.0
  0
LINE
  5
E3
330
1F
100
AcDbEntity
  8
0
  6
Continuous
 62
     7
370
    25
100
AcDbLine
 10
675.4364201799
 20
565.9230084304
 30
0.0
 11
674.2177425043
 21
566.2010816636
 31
0.0
  0
LINE
  5
E4
330
1F
100
AcDbEntity
  8
0
  6
Continuous
 62
     7
370
    25
100
AcDbLine
 10
675.7033704838
 20
567.0929389989
 30
0.0
 11
675.4364201799
 21
565.9230084304
 31
0.0
  0
LINE
  5
E5
330
1F
100
AcDbEntity
  8
0
  6
Continuous
 62
     7
370
    25
100
AcDbLine
 10
674.4846928082
 20
567.3710122321
 30
0.0
 11
675.7033704838
 21
567.0929389989
 31
0.0
  0
SPLINE
  5
E6
330
1F
100
AcDbEntity
  8
0
  6
Continuous
 62
     7
370
    25
100
AcDbSpline
210
0.0
220
0.0
230
1.0
 70
     8
 71
     3
 72
    12
 73
     8
 74
     0
 42
0.00000001
 43
0.00000001
 40
0.0
 40
0.0
 40
0.0
 40
0.0
 40
0.2133534395476131
 40
0.4267919313634476
 40
0.6383539739091537
 40
0.8490950351927532
 40
1.0
 40
1.0
 40
1.0
 40
1.0
 10
673.9203301427557
 20
568.2690627774247
 30
0.0
 10
673.9096547850144
 20
568.1858589032705
 30
0.0
 10
673.8882998138548
 20
568.0194179861594
 30
0.0
 10
673.9627141297655
 20
567.7728486204926
 30
0.0
 10
674.1077978822655
 20
567.566312417946
 30
0.0
 10
674.2928739344513
 20
567.4290393043585
 30
0.0
 10
674.4282176068682
 20
567.3880965290122
 30
0.0
 10
674.4846928081686
 20
567.3710122321389
 30
0.0
  0
LINE
  5
E7
330
1F
100
AcDbEntity
  8
0
  6
Continuous
 62
     7
370
    25
100
AcDbLine
 10
674.198403376
 20
569.487740453
 30
0.0
 11
673.9203301428
 21
568.2690627774
 31
0.0
  0
CIRCLE
  5
E8
330
1F
100
AcDbEntity
  8
0
  6
Continuous
 62
     7
370
    25
100
AcDbCircle
 10
673.0350457666
 20
567.0863660397
 30
0.0
 40
4.197433366238944
  0
CIRCLE
  5
E9
330
1F
100
AcDbEntity
  8
0
  6
Continuous
 62
     7
370
    25
100
AcDbCircle
 10
673.0350457666
 20
567.0863660397
 30
0.0
 40
4.500000000000057
  0
CIRCLE
  5
EA
330
1F
100
AcDbEntity
  8
0
  6
Continuous
 62
     7
370
    25
100
AcDbCircle
 10
469.8350457666
 20
567.0863660397
 30
0.0
 40
5.32891433662769
  0
CIRCLE
  5
EB
330
1F
100
AcDbEntity
  8
0
  6
Continuous
 62
     7
370
    25
100
AcDbCircle
 10
469.8350457666
 20
567.0863660397
 30
0.0
 40
5.925127771161328
  0
CIRCLE
  5
EC
330
1F
100
AcDbEntity
  8
0
  6
Continuous
 62
     7
370
    25
100
AcDbCircle
 10
469.8350457666
 20
567.0863660397
 30
0.0
 40
5.074569253689219
  0
CIRCLE
  5
ED
330
1F
100
AcDbEntity
  8
0
  6
Continuous
 62
     7
370
    25
100
AcDbCircle
 10
469.8350457666
 20
567.0863660397
 30
0.0
 40
7.149999999999977
  0
SPLINE
  5
EE
330
1F
100
AcDbEntity
  8
0
  6
Continuous
 62
     7
370
    25
100
AcDbSpline
210
0.0
220
0.0
230
1.0
 70
     8
 71
     3
 72
    11
 73
     7
 74
     0
 42
0.00000001
 43
0.00000001
 40
0.0
 40
0.0
 40
0.0
 40
0.0
 40
0.2200386424382255
 40
0.6637869905998169
 40
0.8890365590789576
 40
1.0
 40
1.0
 40
1.0
 40
1.0
 10
679.7126359111826
 20
573.1066843466957
 30
0.0
 10
679.916857374184
 20
572.841665735437
 30
0.0
 10
680.5329289370676
 20
572.0421884051323
 30
0.0
 10
681.0564782880848
 20
570.7790191346044
 30
0.0
 10
681.308107487846
 20
569.6124493212803
 30
0.0
 10
681.2874002931236
 20
569.1011695226209
 30
0.0
 10
681.2805661090975
 20
568.9324271951485
 30
0.0
  0
SPLINE
  5
EF
330
1F
100
AcDbEntity
  8
0
  6
Continuous
 62
     7
370
    25
100
AcDbSpline
210
0.0
220
0.0
230
1.0
 70
     8
 71
     3
 72
     9
 73
     5
 74
     0
 42
0.00000001
 43
0.00000001
 40
0.0
 40
0.0
 40
0.0
 40
0.0
 40
0.9209630919903056
 40
1.0
 40
1.0
 40
1.0
 40
1.0
 10
681.3526782744299
 20
572.7863610710623
 30
0.0
 10
680.838256736557
 20
572.843188129981
 30
0.0
 10
680.2796876230423
 20
572.9048920781769
 30
0.0
 10
679.7541711113729
 20
573.0919035390648
 30
0.0
 10
679.7126359111826
 20
573.1066843466957
 30
0.0
  0
SPLINE
  5
F0
330
1F
100
AcDbEntity
  8
0
  6
Continuous
 62
     7
370
    25
100
AcDbSpline
210
0.0
220
0.0
230
1.0
 70
     8
 71
     3
 72
    10
 73
     6
 74
     0
 42
0.00000001
 43
0.00000001
 40
0.0
 40
0.0
 40
0.0
 40
0.0
 40
0.2596150688488836
 40
0.629760644481066
 40
0.9999999999999999
 40
0.9999999999999999
 40
0.9999999999999999
 40
0.9999999999999999
 10
728.5278392283672
 20
570.1948035020732
 30
0.0
 10
724.4500190096442
 20
570.4945576391717
 30
0.0
 10
714.5582561762787
 20
571.2216855343357
 30
0.0
 10
698.8286834936056
 20
572.0475324042259
 30
0.0
 10
687.178505232341
 20
572.5400640534915
 30
0.0
 10
681.3526782744299
 20
572.7863610710623
 30
0.0
  0
SPLINE
  5
F1
330
1F
100
AcDbEntity
  8
0
  6
Continuous
 62
     7
370
    25
100
AcDbSpline
210
0.0
220
0.0
230
1.0
 70
     8
 71
     3
 72
    11
 73
     7
 74
     0
 42
0.00000001
 43
0.00000001
 40
0.0
 40
0.0
 40
0.0
 40
0.0
 40
0.061464119541392
 40
0.4999988937835377
 40
0.9375097801832794
 40
1.0
 40
1.0
 40
1.0
 40
1.0
 10
728.5278392283669
 20
564.4687711550713
 30
0.0
 10
728.5395084245692
 20
564.5852281275234
 30
0.0
 10
728.6344351108387
 20
565.5325833948546
 30
0.0
 10
728.718137938105
 20
567.3298275933029
 30
0.0
 10
728.6345680145846
 20
569.1290256175437
 30
0.0
 10
728.5396963095394
 20
570.0764004419767
 30
0.0
 10
728.5278392283672
 20
570.1948035020732
 30
0.0
  0
SPLINE
  5
F2
330
1F
100
AcDbEntity
  8
0
  6
Continuous
 62
     7
370
    25
100
AcDbSpline
210
0.0
220
0.0
230
1.0
 70
     8
 71
     3
 72
    10
 73
     6
 74
     0
 42
0.00000001
 43
0.00000001
 40
0.0
 40
0.0
 40
0.0
 40
0.0
 40
0.2594618540778875
 40
0.6296073956705976
 40
1.0
 40
1.0
 40
1.0
 40
1.0
 10
681.3526782744299
 20
561.8772135860842
 30
0.0
 10
685.4355465125253
 20
562.0445978956096
 30
0.0
 10
695.3429914715899
 20
562.4507708938374
 30
0.0
 10
711.0742880330594
 20
563.237554251568
 30
0.0
 10
722.7086949832707
 20
564.0582742494094
 30
0.0
 10
728.5278392283669
 20
564.4687711550713
 30
0.0
  0
SPLINE
  5
F3
330
1F
100
AcDbEntity
  8
0
  6
Continuous
 62
     7
370
    25
100
AcDbSpline
210
0.0
220
0.0
230
1.0
 70
     8
 71
     3
 72
     9
 73
     5
 74
     0
 42
0.00000001
 43
0.00000001
 40
0.0
 40
0.0
 40
0.0
 40
0.0
 40
0.0790369080192139
 40
1.0
 40
1.0
 40
1.0
 40
1.0
 10
679.7126359111834
 20
561.5568903104507
 30
0.0
 10
679.7541711113787
 20
561.5716711180835
 30
0.0
 10
680.279687623048
 20
561.7586825789714
 30
0.0
 10
680.8382567365625
 20
561.8203865271666
 30
0.0
 10
681.3526782744299
 20
561.8772135860842
 30
0.0
  0
SPLINE
  5
F4
330
1F
100
AcDbEntity
  8
0
  6
Continuous
 62
     7
370
    25
100
AcDbSpline
210
0.0
220
0.0
230
1.0
 70
     8
 71
     3
 72
    11
 73
     7
 74
     0
 42
0.00000001
 43
0.00000001
 40
0.0
 40
0.0
 40
0.0
 40
0.0
 40
0.0728838064943292
 40
0.4140719411596028
 40
0.9209668754550567
 40
1.0
 40
1.0
 40
1.0
 40
1.0
 10
681.2805661090938
 20
565.7311474620126
 30
0.0
 10
681.2882812582315
 20
565.6207010277736
 30
0.0
 10
681.3321130355961
 20
564.9932259874427
 30
0.0
 10
680.987621324158
 20
563.6102339569776
 30
0.0
 10
680.3479319746718
 20
562.3403024392001
 30
0.0
 10
679.7881432252389
 20
561.650001773027
 30
0.0
 10
679.7126359111834
 20
561.5568903104507
 30
0.0
  0
SPLINE
  5
F5
330
1F
100
AcDbEntity
  8
0
  6
Continuous
 62
     7
370
    25
100
AcDbSpline
210
0.0
220
0.0
230
1.0
 70
     8
 71
     3
 72
    10
 73
     6
 74
     0
 42
0.00000001
 43
0.00000001
 40
0.0
 40
0.0
 40
0.0
 40
0.0
 40
0.3880207377811385
 40
0.9790637766506849
 40
1.0
 40
1.0
 40
1.0
 40
1.0
 10
681.2805661090974
 20
568.9324271951485
 30
0.0
 10
681.2072515783382
 20
568.5215873332928
 30
0.0
 10
681.0222624930148
 20
567.4849457634446
 30
0.0
 10
681.117969418846
 20
566.3911764418732
 30
0.0
 10
681.2751875700937
 20
565.7529805731538
 30
0.0
 10
681.2805661090938
 20
565.7311474620126
 30
0.0
  0
ARC
  5
F6
330
1F
100
AcDbEntity
  8
0
  6
Continuous
 62
     7
370
    25
100
AcDbCircle
 10
673.0350457666
 20
567.3317873286
 30
0.0
 40
8.39944365426445
100
AcDbArc
 50
10.985757993
 51
349.0142420071
  0
SPLINE
  5
F7
330
1F
100
AcDbEntity
  8
0
  6
Continuous
 62
     7
370
    25
100
AcDbSpline
210
0.0
220
0.0
230
1.0
 70
     8
 71
     3
 72
     9
 73
     5
 74
     0
 42
0.00000001
 43
0.00000001
 40
0.0
 40
0.0
 40
0.0
 40
0.0
 40
0.681792342127431
 40
1.0
 40
1.0
 40
1.0
 40
1.0
 10
679.7126359111834
 20
561.5568903104507
 30
0.0
 10
679.5703723505403
 20
561.3669799553455
 30
0.0
 10
679.3617112203799
 20
561.0884342114722
 30
0.0
 10
679.1322853864995
 20
560.855529838529
 30
0.0
 10
679.059280329245
 20
560.7814178835066
 30
0.0
  0
ARC
  5
F8
330
1F
100
AcDbEntity
  8
0
  6
Continuous
 62
     7
370
    25
100
AcDbCircle
 10
673.0350457666
 20
567.3317873286
 30
0.0
 40
8.899367501836373
100
AcDbArc
 50
47.3959191961
 51
312.6040808039
  0
LINE
  5
F9
330
1F
100
AcDbEntity
  8
0
  6
Continuous
 62
     7
370
    25
100
AcDbLine
 10
679.0592803292
 20
573.8821567736
 30
0.0
 11
679.7126359112
 21
573.1066843467
 31
0.0
  0
SPLINE
  5
FA
330
1F
100
AcDbEntity
  8
0
  6
Continuous
 62
     7
370
    25
100
AcDbSpline
210
0.0
220
0.0
230
1.0
 70
     8
 71
     3
 72
    10
 73
     6
 74
     0
 42
0.00000001
 43
0.00000001
 40
0.0
 40
0.0
 40
0.0
 40
0.0
 40
0.3702896688583046
 40
0.7405318123903298
 40
0.9999999999999999
 40
0.9999999999999999
 40
0.9999999999999999
 40
0.9999999999999999
 10
728.5393586915454
 20
564.0259115742381
 30
0.0
 10
722.7192948453269
 20
563.7057205597118
 30
0.0
 10
711.0799141368234
 20
563.0653796260062
 30
0.0
 10
695.3610457300487
 20
562.196145294143
 30
0.0
 10
685.4638719140388
 20
561.6474042925338
 30
0.0
 10
681.3858035935747
 20
561.421299008702
 30
0.0
  0
ARC
  5
FB
330
1F
100
AcDbEntity
  8
0
  6
Continuous
 62
     7
370
    25
100
AcDbCircle
 10
688.6008928009
 20
562.1746853754
 30
0.0
 40
7.254316183255093
100
AcDbArc
 50
182.3501399448
 51
185.9611177314
  0
ARC
  5
FC
330
1F
100
AcDbEntity
  8
0
  6
Continuous
 62
     7
370
    25
100
AcDbCircle
 10
724.2788361503
 20
564.1366683982
 30
0.0
 40
4.261961918962063
100
AcDbArc
 50
358.5108705387
 51
4.4691613064
  0
SPLINE
  5
FD
330
1F
100
AcDbEntity
  8
0
  6
Continuous
 62
     7
370
    25
100
AcDbSpline
210
0.0
220
0.0
230
1.0
 70
     8
 71
     3
 72
    10
 73
     6
 74
     0
 42
0.00000001
 43
0.00000001
 40
0.0
 40
0.0
 40
0.0
 40
0.0
 40
0.3702717503651152
 40
0.7405122151371749
 40
1.0
 40
1.0
 40
1.0
 40
1.0
 10
681.3858035935746
 20
573.2422756484444
 30
0.0
 10
687.2054756552438
 20
572.9197471627765
 30
0.0
 10
698.8443280535407
 20
572.2747174430335
 30
0.0
 10
714.5634676374954
 20
571.4059029555544
 30
0.0
 10
724.460965061194
 20
570.8618480447877
 30
0.0
 10
728.5393586915419
 20
570.6376630829085
 30
0.0
  0
ARC
  5
FE
330
1F
100
AcDbEntity
  8
0
  6
Continuous
 62
     7
370
    25
100
AcDbCircle
 10
724.2788361475
 20
570.5269062589
 30
0.0
 40
4.261961921776881
100
AcDbArc
 50
355.530838696
 51
1.4891294598
  0
ARC
  5
FF
330
1F
100
AcDbEntity
  8
0
  6
Continuous
 62
     7
370
    25
100
AcDbCircle
 10
688.6008928012
 20
572.4888892817
 30
0.0
 40
7.254316183595209
100
AcDbArc
 50
174.0388822687
 51
177.6498600551
  0
SPLINE
  5
100
330
1F
100
AcDbEntity
  8
0
  6
Continuous
 62
     7
370
    25
100
AcDbSpline
210
0.0
220
0.0
230
1.0
 70
     8
 71
     3
 72
    12
 73
     8
 74
     0
 42
0.00000001
 43
0.00000001
 40
0.0
 40
0.0
 40
0.0
 40
0.0
 40
0.1224290494151348
 40
0.3423522449770467
 40
0.5614228816909441
 40
0.7807229538533574
 40
1.0
 40
1.0
 40
1.0
 40
1.0
 10
730.4635666612146
 20
570.084129132417
 30
0.0
 10
730.4545625853506
 20
570.0864878168579
 30
0.0
 10
730.4293842016195
 20
570.0930834811827
 30
0.0
 10
730.2133965179748
 20
570.1100914489219
 30
0.0
 10
729.7774983882457
 20
570.1356024230763
 30
0.0
 10
729.1935727748156
 20
570.1651546056356
 30
0.0
 10
728.7497426432475
 20
570.1849208825146
 30
0.0
 10
728.5278392283672
 20
570.1948035020732
 30
0.0
  0
SPLINE
  5
101
330
1F
100
AcDbEntity
  8
0
  6
Continuous
 62
     7
370
    25
100
AcDbSpline
210
0.0
220
0.0
230
1.0
 70
     8
 71
     3
 72
    11
 73
     7
 74
     0
 42
0.00000001
 43
0.00000001
 40
0.0
 40
0.0
 40
0.0
 40
0.0
 40
0.0800485240044433
 40
0.5000005853538798
 40
0.9209248322279645
 40
1.0
 40
1.0
 40
1.0
 40
1.0
 10
730.4635666612146
 20
570.084129132417
 30
0.0
 10
730.4632804168004
 20
569.9378847073164
 30
0.0
 10
730.4614924715958
 20
569.0244100484832
 30
0.0
 10
730.4602567747659
 20
567.3300004607247
 30
0.0
 10
730.4614944728607
 20
565.63737360887
 30
0.0
 10
730.4632836948289
 20
564.7239102332262
 30
0.0
 10
730.4635666612147
 20
564.579445524735
 30
0.0
  0
SPLINE
  5
102
330
1F
100
AcDbEntity
  8
0
  6
Continuous
 62
     7
370
    25
100
AcDbSpline
210
0.0
220
0.0
230
1.0
 70
     8
 71
     3
 72
    12
 73
     8
 74
     0
 42
0.00000001
 43
0.00000001
 40
0.0
 40
0.0
 40
0.0
 40
0.0
 40
0.1130367476169362
 40
0.3328594693548023
 40
0.5544127937945006
 40
0.7774207483513244
 40
1.0
 40
1.0
 40
1.0
 40
1.0
 10
728.5278392283669
 20
564.4687711550713
 30
0.0
 10
728.6419100683538
 20
564.4737864007727
 30
0.0
 10
728.9778146309618
 20
564.4885548018285
 30
0.0
 10
729.5118824873564
 20
564.5141470059378
 30
0.0
 10
730.0284081252436
 20
564.5420222688089
 30
0.0
 10
730.3853028423981
 20
564.5654641423994
 30
0.0
 10
730.4374954599166
 20
564.5747880541591
 30
0.0
 10
730.4635666612147
 20
564.579445524735
 30
0.0
  0
SPLINE
  5
103
330
1F
100
AcDbEntity
  8
0
  6
Continuous
 62
     7
370
    25
100
AcDbSpline
210
0.0
220
0.0
230
1.0
 70
     8
 71
     3
 72
     9
 73
     5
 74
     0
 42
0.00000001
 43
0.00000001
 40
0.0
 40
0.0
 40
0.0
 40
0.0
 40
0.500010612381544
 40
1.0
 40
1.0
 40
1.0
 40
1.0
 10
678.559672480402
 20
574.3139884628861
 30
0.0
 10
678.9893938472229
 20
574.0261479247928
 30
0.0
 10
679.8488183397835
 20
573.4504790670414
 30
0.0
 10
680.8734824250618
 20
573.3116758059547
 30
0.0
 10
681.3858035935746
 20
573.2422756484444
 30
0.0
  0
SPLINE
  5
104
330
1F
100
AcDbEntity
  8
0
  6
Continuous
 62
     7
370
    25
100
AcDbSpline
210
0.0
220
0.0
230
1.0
 70
     8
 71
     3
 72
     9
 73
     5
 74
     0
 42
0.00000001
 43
0.00000001
 40
0.0
 40
0.0
 40
0.0
 40
0.0
 40
0.9838702326459385
 40
1.0
 40
1.0
 40
1.0
 40
1.0
 10
679.059280329245
 20
573.8821567736398
 30
0.0
 10
678.8979395143103
 20
574.0269891866587
 30
0.0
 10
678.7339536454618
 20
574.1741960115156
 30
0.0
 10
678.5624389721798
 20
574.3117694355622
 30
0.0
 10
678.559672480402
 20
574.3139884628861
 30
0.0
  0
SPLINE
  5
105
330
1F
100
AcDbEntity
  8
0
  6
Continuous
 62
     7
370
    25
100
AcDbSpline
210
0.0
220
0.0
230
1.0
 70
     8
 71
     3
 72
     9
 73
     5
 74
     0
 42
0.00000001
 43
0.00000001
 40
0.0
 40
0.0
 40
0.0
 40
0.0
 40
0.5055561057107305
 40
1.0
 40
1.0
 40
1.0
 40
1.0
 10
681.3858035935747
 20
561.421299008702
 30
0.0
 10
680.8677440762416
 20
561.3506429744319
 30
0.0
 10
679.8430120801663
 20
561.2108839378545
 30
0.0
 10
678.9842715114047
 20
560.6345506630588
 30
0.0
 10
678.559672480402
 20
560.3495861942604
 30
0.0
  0
SPLINE
  5
106
330
1F
100
AcDbEntity
  8
0
  6
Continuous
 62
     7
370
    25
100
AcDbSpline
210
0.0
220
0.0
230
1.0
 70
     8
 71
     3
 72
     9
 73
     5
 74
     0
 42
0.00000001
 43
0.00000001
 40
0.0
 40
0.0
 40
0.0
 40
0.0
 40
0.0161297673533178
 40
0.9999999999999999
 40
0.9999999999999999
 40
0.9999999999999999
 40
0.9999999999999999
 10
678.559672480402
 20
560.3495861942604
 30
0.0
 10
678.5624389721798
 20
560.3518052215842
 30
0.0
 10
678.7339536454659
 20
560.4893786456339
 30
0.0
 10
678.8979395143123
 20
560.6365854704891
 30
0.0
 10
679.059280329245
 20
560.7814178835066
 30
0.0
  0
SPLINE
  5
107
330
1F
100
AcDbEntity
  8
0
  6
Continuous
 62
     7
370
    25
100
AcDbSpline
210
0.0
220
0.0
230
1.0
 70
     8
 71
     3
 72
    12
 73
     8
 74
     0
 42
0.00000001
 43
0.00000001
 40
0.0
 40
0.0
 40
0.0
 40
0.0
 40
0.2230315344150434
 40
0.4461337558340359
 40
0.6675099896777019
 40
0.8870667292265005
 40
1.0
 40
1.0
 40
1.0
 40
1.0
 10
729.9912123961301
 20
564.0802824536864
 30
0.0
 10
729.9716786100042
 20
564.0821727009812
 30
0.0
 10
729.9326048467677
 20
564.0859537946607
 30
0.0
 10
729.6650156647115
 20
564.07901095839
 30
0.0
 10
729.2774865808864
 20
564.0634221359
 30
0.0
 10
728.8767644684233
 20
564.0440848558359
 30
0.0
 10
728.6249050461655
 20
564.0305192546595
 30
0.0
 10
728.5393586915454
 20
564.0259115742381
 30
0.0
  0
ARC
  5
108
330
1F
100
AcDbEntity
  8
0
  6
Continuous
 62
     7
370
    25
100
AcDbCircle
 10
729.9634667736
 20
564.5796121101
 30
0.0
 40
0.5000999153473011
100
AcDbArc
 50
273.1804119247
 51
359.9809145383
  0
SPLINE
  5
109
330
1F
100
AcDbEntity
  8
0
  6
Continuous
 62
     7
370
    25
100
AcDbSpline
210
0.0
220
0.0
230
1.0
 70
     8
 71
     3
 72
    12
 73
     8
 74
     0
 42
0.00000001
 43
0.00000001
 40
0.0
 40
0.0
 40
0.0
 40
0.0
 40
0.2190444340109334
 40
0.4380981679380241
 40
0.6571027493691853
 40
0.8772791087290019
 40
1.0
 40
1.0
 40
1.0
 40
1.0
 10
728.5393586915419
 20
570.6376630829085
 30
0.0
 10
728.7057764323129
 20
570.6288342699588
 30
0.0
 10
729.0386189794119
 20
570.6111762692166
 30
0.0
 10
729.476777422055
 20
570.5916577798075
 30
0.0
 10
729.8037432488147
 20
570.5803519961752
 30
0.0
 10
729.9655871258288
 20
570.5785281280985
 30
0.0
 10
729.984458458241
 20
570.5820365574233
 30
0.0
 10
729.9912123961301
 20
570.5832922034599
 30
0.0
  0
ARC
  5
10A
330
1F
100
AcDbEntity
  8
0
  6
Continuous
 62
     7
370
    25
100
AcDbCircle
 10
729.9634667736
 20
570.0839625471
 30
0.0
 40
0.500099915347029
100
AcDbArc
 50
0.0190854623
 51
86.8195880753
  0
LINE
  5
10B
330
1F
100
AcDbEntity
  8
0
  6
Continuous
 62
     7
370
    25
100
AcDbLine
 10
681.3858035936
 20
561.4212990087
 30
0.0
 11
681.4127897753
 21
561.3500087333
 31
0.0
  0
LINE
  5
10C
330
1F
100
AcDbEntity
  8
0
  6
Continuous
 62
     7
370
    25
100
AcDbLine
 10
729.9959027568
 20
564.0758440006
 30
0.0
 11
729.9912123961
 21
564.0802824537
 31
0.0
  0
ELLIPSE
  5
10D
330
1F
100
AcDbEntity
  8
0
  6
Continuous
 62
     7
370
    25
100
AcDbEllipse
 10
728.4961312141
 20
563.9925515506
 30
0.0
 11
1.499999304622747
 21
0.08287263343879657
 31
0.0
210
0.0
220
0.0
230
1.0
 40
0.0174284859
 41
5.396717970287536
 42
6.29967570319542
  0
LINE
  5
10E
330
1F
100
AcDbEntity
  8
0
  6
Continuous
 62
     7
370
    25
100
AcDbLine
 10
725.980516545
 20
563.7837919626
 30
0.0
 11
729.4454797545
 21
564.0246832416
 31
0.0
  0
LINE
  5
10F
330
1F
100
AcDbEntity
  8
0
  6
Continuous
 62
     7
370
    25
100
AcDbLine
 10
725.980516545
 20
563.7838903538
 30
0.0
 11
725.980516545
 21
563.7837919626
 31
0.0
  0
ELLIPSE
  5
110
330
1F
100
AcDbEntity
  8
0
  6
Continuous
 62
     7
370
    25
100
AcDbEllipse
 10
716.5310301241
 20
563.4542443024
 30
0.0
 11
14.4999932780205
 21
0.8011021232407529
 31
0.0
210
0.0
220
0.0
230
1.0
 40
0.0174284859
 41
4.685109492442209
 42
5.421234828998124
  0
ELLIPSE
  5
111
330
1F
100
AcDbEntity
  8
0
  6
Continuous
 62
     7
370
    25
100
AcDbEllipse
 10
715.2100202085
 20
562.5039607531
 30
0.0
 11
35.70262504606012
 21
1.972514619921981
 31
0.0
210
0.0
220
0.0
230
1.0
 40
0.0174284859
 41
1.543516838852417
 42
2.025717338718007
  0
ELLIPSE
  5
112
330
1F
100
AcDbEntity
  8
0
  6
Continuous
 62
     7
370
    25
100
AcDbEllipse
 10
696.1897927365
 20
562.1315646933
 30
0.0
 11
7.499996523114078
 21
0.4143631671934145
 31
0.0
210
0.0
220
0.0
230
1.0
 40
0.0174284859
 41
4.976419334597816
 42
5.167309992308083
  0
LINE
  5
113
330
1F
100
AcDbEntity
  8
0
  6
Continuous
 62
     7
370
    25
100
AcDbLine
 10
698.1344451375
 20
562.2639091445
 30
0.0
 11
698.1540633949
 21
562.1135186
 31
0.0
  0
SPLINE
  5
114
330
1F
100
AcDbEntity
  8
0
  6
Continuous
 62
     7
370
    25
100
AcDbSpline
210
0.0
220
0.0
230
1.0
 70
     8
 71
     3
 72
    10
 73
     6
 74
     0
 42
0.00000001
 43
0.00000001
 40
0.0
 40
0.0
 40
0.0
 40
0.0
 40
0.0186368637457253
 40
0.3939469944633057
 40
1.0
 40
1.0
 40
1.0
 40
1.0
 10
697.9506738518444
 20
562.263422777298
 30
0.0
 10
697.953130059093
 20
562.2635105277774
 30
0.0
 10
698.0050494955701
 20
562.2653654019703
 30
0.0
 10
698.109048344048
 20
562.2680453833485
 30
0.0
 10
698.1247490013973
 20
562.2654883019509
 30
0.0
 10
698.1344451375409
 20
562.263909144543
 30
0.0
  0
LINE
  5
115
330
1F
100
AcDbEntity
  8
0
  6
Continuous
 62
     7
370
    25
100
AcDbLine
 10
681.4127897753
 20
561.3500087333
 30
0.0
 11
697.9506738518
 21
562.2634227773
 31
0.0
  0
LINE
  5
116
330
1F
100
AcDbEntity
  8
0
  6
Continuous
 62
     7
370
    25
100
AcDbLine
 10
697.9527395838
 20
572.4163555287
 30
0.0
 11
681.4188311603
 21
573.3295499909
 31
0.0
  0
SPLINE
  5
117
330
1F
100
AcDbEntity
  8
0
  6
Continuous
 62
     7
370
    25
100
AcDbSpline
210
0.0
220
0.0
230
1.0
 70
     8
 71
     3
 72
    11
 73
     7
 74
     0
 42
0.00000001
 43
0.00000001
 40
0.0
 40
0.0
 40
0.0
 40
0.0
 40
0.4177469294495291
 40
0.8392770662410922
 40
0.9817832068819584
 40
1.0
 40
1.0
 40
1.0
 40
1.0
 10
698.1364450244128
 20
572.4150060833899
 30
0.0
 10
698.1318079963809
 20
572.4139228922063
 30
0.0
 10
698.1224919463796
 20
572.4117467002233
 30
0.0
 10
698.0469954806292
 20
572.4129488771146
 30
0.0
 10
697.9767352800575
 20
572.4154194044546
 30
0.0
 10
697.9551824433997
 20
572.4162602274115
 30
0.0
 10
697.9527395837697
 20
572.41635552867
 30
0.0
  0
LINE
  5
118
330
1F
100
AcDbEntity
  8
0
  6
Continuous
 62
     7
370
    25
100
AcDbLine
 10
698.1540633949
 20
572.5500560572
 30
0.0
 11
698.1364450244
 21
572.4150060834
 31
0.0
  0
ELLIPSE
  5
119
330
1F
100
AcDbEntity
  8
0
  6
Continuous
 62
     7
370
    25
100
AcDbEllipse
 10
696.1897927365
 20
572.5320099638
 30
0.0
 11
7.499996523114078
 21
-0.4143631671934145
 31
0.0
210
0.0
220
0.0
230
1.0
 40
0.0174284859
 41
1.115875314871696
 42
1.306765972581835
  0
ELLIPSE
  5
11A
330
1F
100
AcDbEntity
  8
0
  6
Continuous
 62
     7
370
    25
100
AcDbEllipse
 10
715.2100202085
 20
572.1596139041
 30
0.0
 11
35.70262504606012
 21
-1.972514619921981
 31
0.0
210
0.0
220
0.0
230
1.0
 40
0.0174284859
 41
4.257467968461667
 42
4.739668468327174
  0
ELLIPSE
  5
11B
330
1F
100
AcDbEntity
  8
0
  6
Continuous
 62
     7
370
    25
100
AcDbEllipse
 10
716.5310301241
 20
571.2093303548
 30
0.0
 11
14.4999932780205
 21
-0.8011021232406391
 31
0.0
210
0.0
220
0.0
230
1.0
 40
0.0174284859
 41
0.8619504781818906
 42
1.598075814737366
  0
LINE
  5
11C
330
1F
100
AcDbEntity
  8
0
  6
Continuous
 62
     7
370
    25
100
AcDbLine
 10
725.980516545
 20
570.8797826945
 30
0.0
 11
725.980516545
 21
570.8796843033
 31
0.0
  0
LINE
  5
11D
330
1F
100
AcDbEntity
  8
0
  6
Continuous
 62
     7
370
    25
100
AcDbLine
 10
729.4454797545
 20
570.6388914156
 30
0.0
 11
725.980516545
 21
570.8797826945
 31
0.0
  0
ELLIPSE
  5
11E
330
1F
100
AcDbEntity
  8
0
  6
Continuous
 62
     7
370
    25
100
AcDbEllipse
 10
728.4961312141
 20
570.6710231065
 30
0.0
 11
1.499999304622747
 21
-0.08287263343868288
 31
0.0
210
0.0
220
0.0
230
1.0
 40
0.0174284859
 41
6.266694911160209
 42
7.169652644072968
  0
LINE
  5
11F
330
1F
100
AcDbEntity
  8
0
  6
Continuous
 62
     7
370
    25
100
AcDbLine
 10
729.9912123961
 20
570.5832922035
 30
0.0
 11
729.9959027568
 21
570.5877306565
 31
0.0
  0
LINE
  5
120
330
1F
100
AcDbEntity
  8
0
  6
Continuous
 62
     7
370
    25
100
AcDbLine
 10
681.4188311603
 20
573.3295499909
 30
0.0
 11
681.3858035936
 21
573.2422756484
 31
0.0
  0
SPLINE
  5
121
330
1F
100
AcDbEntity
  8
0
  6
Continuous
 62
     7
370
    25
100
AcDbSpline
210
0.0
220
0.0
230
1.0
 70
     8
 71
     3
 72
     9
 73
     5
 74
     0
 42
0.00000001
 43
0.00000001
 40
0.0
 40
0.0
 40
0.0
 40
0.0
 40
0.5001021276704695
 40
1.0
 40
1.0
 40
1.0
 40
1.0
 10
678.5928913464575
 20
560.2838947473001
 30
0.0
 10
679.0218391221648
 20
560.5704203813887
 30
0.0
 10
679.8795594796154
 20
561.1433546246865
 30
0.0
 10
680.9017826082304
 20
561.2811334111406
 30
0.0
 10
681.4127897752712
 20
561.3500087333412
 30
0.0
  0
LINE
  5
122
330
1F
100
AcDbEntity
  8
0
  6
Continuous
 62
     7
370
    25
100
AcDbLine
 10
678.5928913465
 20
560.2838947473
 30
0.0
 11
678.5596724804
 21
560.3495861943
 31
0.0
  0
SPLINE
  5
123
330
1F
100
AcDbEntity
  8
0
  6
Continuous
 62
     7
370
    25
100
AcDbSpline
210
0.0
220
0.0
230
1.0
 70
     8
 71
     3
 72
     9
 73
     5
 74
     0
 42
0.00000001
 43
0.00000001
 40
0.0
 40
0.0
 40
0.0
 40
0.0
 40
0.400722737156528
 40
1.0
 40
1.0
 40
1.0
 40
1.0
 10
681.4188311603228
 20
573.3295499908846
 30
0.0
 10
681.0101450369136
 20
573.3779572529503
 30
0.0
 10
679.9902724778738
 20
573.4987571416941
 30
0.0
 10
679.1211964340479
 20
574.0588644150478
 30
0.0
 10
678.6003789213011
 20
574.3945239687218
 30
0.0
  0
LINE
  5
124
330
1F
100
AcDbEntity
  8
0
  6
Continuous
 62
     7
370
    25
100
AcDbLine
 10
678.5596724804
 20
574.3139884629
 30
0.0
 11
678.6003789213
 21
574.3945239687
 31
0.0
  0
ARC
  5
125
330
1F
100
AcDbEntity
  8
0
  6
Continuous
 62
     7
370
    25
100
AcDbCircle
 10
673.0350457666
 20
567.3317873286
 30
0.0
 40
8.975658044222143
100
AcDbArc
 50
245.1648853947
 51
308.2586979829
  0
LWPOLYLINE
  5
126
330
1F
100
AcDbEntity
  8
0
  6
Continuous
 62
     7
370
    25
100
AcDbPolyline
 90
        3
 70
   128
 43
0.0
 10
669.0997323423
 20
559.0811276053
 10
669.2043139065
 20
559.1473800165
 10
669.2651944492
 20
559.1861959828
  0
ARC
  5
127
330
1F
100
AcDbEntity
  8
0
  6
Continuous
 62
     7
370
    25
100
AcDbCircle
 10
673.0350457666
 20
567.3317873286
 30
0.0
 40
9.14112015109216
100
AcDbArc
 50
115.4997164176
 51
244.500279429
  0
LWPOLYLINE
  5
128
330
1F
100
AcDbEntity
  8
0
  6
Continuous
 62
     7
370
    25
100
AcDbPolyline
 90
        3
 70
   128
 43
0.0
 10
669.2489015388
 20
575.487784745
 10
669.2043139065
 20
575.5161946406
 10
669.099732342
 20
575.5824470521
  0
ARC
  5
129
330
1F
100
AcDbEntity
  8
0
  6
Continuous
 62
     7
370
    25
100
AcDbCircle
 10
673.0350457666
 20
567.3317873286
 30
0.0
 40
8.991950954660663
100
AcDbArc
 50
51.762407147
 51
114.9014811666
  0
LINE
  5
12A
330
1F
100
AcDbEntity
  8
0
  6
Continuous
 62
     7
370
    25
100
AcDbLine
 10
730.4682570219
 20
570.0885675855
 30
0.0
 11
730.4635666612
 21
570.0841291324
 31
0.0
  0
LINE
  5
12B
330
1F
100
AcDbEntity
  8
0
  6
Continuous
 62
     7
370
    25
100
AcDbLine
 10
730.4682570219
 20
564.5750070717
 30
0.0
 11
730.4682570219
 21
570.0885675855
 31
0.0
  0
LINE
  5
12C
330
1F
100
AcDbEntity
  8
0
  6
Continuous
 62
     7
370
    25
100
AcDbLine
 10
730.4635666612
 20
564.5794455247
 30
0.0
 11
730.4682570219
 21
564.5750070717
 31
0.0
  0
ARC
  5
12D
330
1F
100
AcDbEntity
  8
0
  6
Continuous
 62
     7
370
    25
100
AcDbCircle
 10
729.9681571343
 20
570.0884010001
 30
0.0
 40
0.5000999153469543
100
AcDbArc
 50
0.0190854617
 51
86.8195880753
  0
ARC
  5
12E
330
1F
100
AcDbEntity
  8
0
  6
Continuous
 62
     7
370
    25
100
AcDbCircle
 10
729.9681571343
 20
564.575173657
 30
0.0
 40
0.5000999153471877
100
AcDbArc
 50
273.1804119247
 51
359.9809145383
  0
LINE
  5
12F
330
1F
100
AcDbEntity
  8
0
  6
Continuous
 62
     7
370
    25
100
AcDbLine
 10
729.4454797545
 20
564.0246832416
 30
0.0
 11
729.4525874853
 21
564.0250502782
 31
0.0
  0
LINE
  5
130
330
1F
100
AcDbEntity
  8
0
  6
Continuous
 62
     7
370
    25
100
AcDbLine
 10
729.4454797545
 20
570.6388914156
 30
0.0
 11
729.4525874853
 21
570.6385243789
 31
0.0
  0
SPLINE
  5
131
330
1F
100
AcDbEntity
  8
0
  6
Continuous
 62
     7
370
    25
100
AcDbSpline
210
0.0
220
0.0
230
1.0
 70
     8
 71
     3
 72
    11
 73
     7
 74
     0
 42
0.00000001
 43
0.00000001
 40
0.0
 40
0.0
 40
0.0
 40
0.0
 40
0.1345990676765959
 40
0.4126978815969493
 40
0.6969472592954598
 40
1.0
 40
1.0
 40
1.0
 40
1.0
 10
669.2644158427668
 20
559.1853893657529
 30
0.0
 10
669.693721863015
 20
558.9945054805917
 30
0.0
 10
671.0100287897393
 20
558.4092311811719
 30
0.0
 10
673.3858388406226
 20
557.7867632971482
 30
0.0
 10
676.4395282255035
 20
557.4102606146479
 30
0.0
 10
678.6305581338643
 20
557.3831192863152
 30
0.0
 10
679.7611476514023
 20
557.36911413687
 30
0.0
  0
ARC
  5
132
330
1F
100
AcDbEntity
  8
0
  6
Continuous
 62
     7
370
    25
100
AcDbCircle
 10
675.2686166584
 20
557.9889381814
 30
0.0
 40
4.53508727252402
100
AcDbArc
 50
329.0284626407
 51
352.1446266983
  0
SPLINE
  5
133
330
1F
100
AcDbEntity
  8
0
  6
Continuous
 62
     7
370
    25
100
AcDbSpline
210
0.0
220
0.0
230
1.0
 70
     8
 71
     3
 72
    12
 73
     8
 74
     0
 42
0.00000001
 43
0.00000001
 40
0.0
 40
0.0
 40
0.0
 40
0.0
 40
0.1662426524176545
 40
0.3368059756191297
 40
0.6054181071254586
 40
0.8801435087136193
 40
1.0
 40
1.0
 40
1.0
 40
1.0
 10
679.1571050139013
 20
555.6551269469022
 30
0.0
 10
678.5194234933651
 20
555.8106121223852
 30
0.0
 10
677.2274870165645
 20
556.1256235557405
 30
0.0
 10
675.0433006342151
 20
556.788588660739
 30
0.0
 10
672.6813262906553
 20
557.6407835775444
 30
0.0
 10
670.7157887287628
 20
558.4834122561565
 30
0.0
 10
669.6020137439672
 20
559.0212703488517
 30
0.0
 10
669.2636982658097
 20
559.1846477996789
 30
0.0
  0
LINE
  5
134
330
1F
100
AcDbEntity
  8
0
  6
Continuous
 62
     7
370
    25
100
AcDbLine
 10
669.2636982658
 20
559.1846477997
 30
0.0
 11
669.2644158428
 21
559.1853893658
 31
0.0
  0
LINE
  5
135
330
1F
100
AcDbEntity
  8
0
  6
Continuous
 62
     7
370
    25
100
AcDbLine
 10
679.1571050139
 20
555.6551269469
 30
0.0
 11
679.141246937
 21
555.5856534153
 31
0.0
  0
ARC
  5
136
330
1F
100
AcDbEntity
  8
0
  6
Continuous
 62
     7
370
    25
100
AcDbCircle
 10
689.8630251734
 20
602.5572882276
 30
0.0
 40
48.17977797259065
100
AcDbArc
 50
244.4718479123
 51
257.1419190681
  0
LWPOLYLINE
  5
137
330
1F
100
AcDbEntity
  8
0
  6
Continuous
 62
     7
370
    25
100
AcDbPolyline
 90
        3
 70
   128
 43
0.0
 10
669.2636982658
 20
559.1846477997
 10
669.2043104155
 20
559.1471240961
 10
669.0997323426
 20
559.0811260662
  0
LINE
  5
138
330
1F
100
AcDbEntity
  8
0
  6
Continuous
 62
     7
370
    25
100
AcDbLine
 10
678.5928913465
 20
560.2838947473
 30
0.0
 11
680.7907632666
 21
557.4967778729
 31
0.0
  0
ARC
  5
139
330
1F
100
AcDbEntity
  8
0
  6
Continuous
 62
     7
370
    25
100
AcDbCircle
 10
673.0350457666
 20
567.3317873286
 30
0.0
 40
12.52511736202738
100
AcDbArc
 50
307.8583068702
 51
308.2586979829
  0
LINE
  5
13A
330
1F
100
AcDbEntity
  8
0
  6
Continuous
 62
     7
370
    25
100
AcDbLine
 10
679.7611476514
 20
557.3691141369
 30
0.0
 11
680.7218460003
 21
557.4428203906
 31
0.0
  0
LINE
  5
13B
330
1F
100
AcDbEntity
  8
0
  6
Continuous
 62
     7
370
    25
100
AcDbLine
 10
669.2651944492
 20
559.1861959828
 30
0.0
 11
669.2644158428
 21
559.1853893658
 31
0.0
  0
ARC
  5
13C
330
1F
100
AcDbEntity
  8
0
  6
Continuous
 62
     7
370
    25
100
AcDbCircle
 10
690.9527174803
 20
562.0551879404
 30
0.0
 40
6.834138728217288
100
AcDbArc
 50
211.8771071303
 51
226.9488007428
  0
SPLINE
  5
13D
330
1F
100
AcDbEntity
  8
0
  6
Continuous
 62
     7
370
    25
100
AcDbSpline
210
0.0
220
0.0
230
1.0
 70
     8
 71
     3
 72
    16
 73
    12
 74
     0
 42
0.00000001
 43
0.00000001
 40
0.0
 40
0.0
 40
0.0
 40
0.0
 40
0.2861254310575669
 40
0.7591203623085425
 40
0.8520758313858449
 40
0.9266344548631255
 40
0.9604862301433736
 40
0.9835335436569232
 40
0.9930756629548352
 40
0.9972242292023619
 40
1.0
 40
1.0
 40
1.0
 40
1.0
 10
685.1492846891502
 20
558.446085559588
 30
0.0
 10
686.377431526274
 20
558.9761528689401
 30
0.0
 10
689.6358321113581
 20
560.3824762650673
 30
0.0
 10
693.4334135659656
 20
561.4002882679516
 30
0.0
 10
696.2310752158701
 20
561.9622084857232
 30
0.0
 10
697.0962081547644
 20
562.1167110016162
 30
0.0
 10
697.6217943234985
 20
562.2052316674465
 30
0.0
 10
697.8554565822126
 20
562.2443410510953
 30
0.0
 10
697.9331067293733
 20
562.2586610200648
 30
0.0
 10
697.9491883844084
 20
562.2623947586878
 30
0.0
 10
697.9502487723303
 20
562.2631286007709
 30
0.0
 10
697.9506738518444
 20
562.263422777298
 30
0.0
  0
SPLINE
  5
13E
330
1F
100
AcDbEntity
  8
0
  6
Continuous
 62
     7
370
    25
100
AcDbSpline
210
0.0
220
0.0
230
1.0
 70
     8
 71
     3
 72
    10
 73
     6
 74
     0
 42
0.00000001
 43
0.00000001
 40
0.0
 40
0.0
 40
0.0
 40
0.0
 40
0.5975855365574454
 40
0.9790563563181981
 40
1.0
 40
1.0
 40
1.0
 40
1.0
 10
698.0606991715322
 20
562.2542958799587
 30
0.0
 10
698.0632183108854
 20
562.258035177685
 30
0.0
 10
698.0673455516661
 20
562.2641614692086
 30
0.0
 10
697.9929744251106
 20
562.2645380280651
 30
0.0
 10
697.9527664730062
 20
562.2634779490646
 30
0.0
 10
697.9506738518444
 20
562.263422777298
 30
0.0
  0
SPLINE
  5
13F
330
1F
100
AcDbEntity
  8
0
  6
Continuous
 62
     7
370
    25
100
AcDbSpline
210
0.0
220
0.0
230
1.0
 70
     8
 71
     3
 72
    14
 73
    10
 74
     0
 42
0.00000001
 43
0.00000001
 40
0.0
 40
0.0
 40
0.0
 40
0.0
 40
0.0129036569231464
 40
0.0519665716781148
 40
0.1318891824261205
 40
0.2280032005552168
 40
0.4679440229400844
 40
0.7079115564493632
 40
1.0
 40
1.0
 40
1.0
 40
1.0
 10
698.0606991715322
 20
562.2542958799587
 30
0.0
 10
698.0272305950677
 20
562.2464509058974
 30
0.0
 10
697.8924434422352
 20
562.2148570399648
 30
0.0
 10
697.4531699972426
 20
562.1124749926711
 30
0.0
 10
696.6417425790166
 20
561.910073483854
 30
0.0
 10
694.9882653971961
 20
561.4430228030878
 30
0.0
 10
692.6439753249524
 20
560.6055657436975
 30
0.0
 10
689.4988811484552
 20
559.1606255033472
 30
0.0
 10
687.4255824742627
 20
557.8052546205524
 30
0.0
 10
686.2873815915156
 20
557.0611822134027
 30
0.0
  0
LINE
  5
140
330
1F
100
AcDbEntity
  8
0
  6
Continuous
 62
     7
370
    25
100
AcDbLine
 10
683.7086163271
 20
557.9219418776
 30
0.0
 11
681.608533811
 21
557.8059509289
 31
0.0
  0
LINE
  5
141
330
1F
100
AcDbEntity
  8
0
  6
Continuous
 62
     7
370
    25
100
AcDbLine
 10
681.4127897753
 20
561.3500087333
 30
0.0
 11
681.608533811
 21
557.8059509289
 31
0.0
  0
LINE
  5
142
330
1F
100
AcDbEntity
  8
0
  6
Continuous
 62
     7
370
    25
100
AcDbLine
 10
683.7086163271
 20
557.9219418776
 30
0.0
 11
685.1492846892
 21
558.4460855596
 31
0.0
  0
LWPOLYLINE
  5
143
330
1F
100
AcDbEntity
  8
0
  6
Continuous
 62
     7
370
    25
100
AcDbPolyline
 90
        4
 70
   128
 43
0.0
 10
698.0802259856
 20
562.1032003037
 10
698.0779813499
 20
562.1205584506
 10
698.069006316
 20
562.1899911967
 10
698.0606991715
 20
562.25429588
  0
LINE
  5
144
330
1F
100
AcDbEntity
  8
0
  6
Continuous
 62
     7
370
    25
100
AcDbLine
 10
696.2921017018
 20
561.6736728004
 30
0.0
 11
698.0802259856
 21
562.1032003037
 31
0.0
  0
ARC
  5
145
330
1F
100
AcDbEntity
  8
0
  6
Continuous
 62
     7
370
    25
100
AcDbCircle
 10
704.4776601004
 20
531.2479792066
 30
0.0
 40
31.50755777528331
100
AcDbArc
 50
105.0579972479
 51
125.1719294169
  0
LINE
  5
146
330
1F
100
AcDbEntity
  8
0
  6
Continuous
 62
     7
370
    25
100
AcDbLine
 10
686.2873815915
 20
557.0611822134
 30
0.0
 11
686.3283014777
 21
557.0031142004
 31
0.0
  0
SPLINE
  5
147
330
1F
100
AcDbEntity
  8
0
  6
Continuous
 62
     7
370
    25
100
AcDbSpline
210
0.0
220
0.0
230
1.0
 70
     8
 71
     3
 72
     9
 73
     5
 74
     0
 42
0.00000001
 43
0.00000001
 40
0.0
 40
0.0
 40
0.0
 40
0.0
 40
0.4998978730609624
 40
1.0
 40
1.0
 40
1.0
 40
1.0
 10
681.6085338109764
 20
557.8059509288972
 30
0.0
 10
681.4603388950807
 20
557.785984590895
 30
0.0
 10
681.1638885121487
 20
557.7460437568203
 30
0.0
 10
680.9151552833721
 20
557.5798778142498
 30
0.0
 10
680.7907632666205
 20
557.4967778729454
 30
0.0
  0
ARC
  5
148
330
1F
100
AcDbEntity
  8
0
  6
Continuous
 62
     7
370
    25
100
AcDbCircle
 10
698.1620344864
 20
561.7645944401
 30
0.0
 40
0.5000763403827696
100
AcDbArc
 50
93.16262964
 51
101.6913635617
  0
SPLINE
  5
149
330
1F
100
AcDbEntity
  8
0
  6
Continuous
 62
     7
370
    25
100
AcDbSpline
210
0.0
220
0.0
230
1.0
 70
     8
 71
     3
 72
    12
 73
     8
 74
     0
 42
0.00000001
 43
0.00000001
 40
0.0
 40
0.0
 40
0.0
 40
0.0
 40
0.0460726725321159
 40
0.2494576442748312
 40
0.4755636088397377
 40
0.7057929889265024
 40
1.0
 40
1.0
 40
1.0
 40
1.0
 10
669.2476672921194
 20
575.4890590886756
 30
0.0
 10
669.376002701295
 20
575.551563788015
 30
0.0
 10
670.0708668602522
 20
575.8899916281283
 30
0.0
 10
671.4236658297743
 20
576.5055750442688
 30
0.0
 10
673.4315344738559
 20
577.3130343495233
 30
0.0
 10
675.9268062888614
 20
578.1861544670512
 30
0.0
 10
677.8657524769961
 20
578.6835041066943
 30
0.0
 10
678.9534946174326
 20
578.9625155433607
 30
0.0
  0
LINE
  5
14A
330
1F
100
AcDbEntity
  8
0
  6
Continuous
 62
     7
370
    25
100
AcDbLine
 10
679.4069546953
 20
577.0149130141
 30
0.0
 11
678.9534946174
 21
578.9625155434
 31
0.0
  0
SPLINE
  5
14B
330
1F
100
AcDbEntity
  8
0
  6
Continuous
 62
     7
370
    25
100
AcDbSpline
210
0.0
220
0.0
230
1.0
 70
     8
 71
     3
 72
    13
 73
     9
 74
     0
 42
0.00000001
 43
0.00000001
 40
0.0
 40
0.0
 40
0.0
 40
0.0
 40
0.2574896950994368
 40
0.4890886589321025
 40
0.7206004760683485
 40
0.9447506334961274
 40
0.9460032291293288
 40
1.0
 40
1.0
 40
1.0
 40
1.0
 10
679.4069546953197
 20
577.0149130141467
 30
0.0
 10
678.4882291193317
 20
577.0429759782614
 30
0.0
 10
676.7431563321936
 20
577.0962801599269
 30
0.0
 10
674.2485910862802
 20
576.9317160410889
 30
0.0
 10
671.9329412802794
 20
576.5183420460787
 30
0.0
 10
670.4558326786753
 20
576.0187848595154
 30
0.0
 10
669.5845712341346
 20
575.6445420045854
 30
0.0
 10
669.4145248253117
 20
575.5655615861003
 30
0.0
 10
669.2483336532564
 20
575.4883717859256
 30
0.0
  0
LINE
  5
14C
330
1F
100
AcDbEntity
  8
0
  6
Continuous
 62
     7
370
    25
100
AcDbLine
 10
669.2483336533
 20
575.4883717859
 30
0.0
 11
669.2476672921
 21
575.4890590887
 31
0.0
  0
ARC
  5
14D
330
1F
100
AcDbEntity
  8
0
  6
Continuous
 62
     7
370
    25
100
AcDbCircle
 10
689.8630251734
 20
532.1062864296
 30
0.0
 40
48.10950076354634
100
AcDbArc
 50
102.8580809319
 51
103.1066633214
  0
LWPOLYLINE
  5
14E
330
1F
100
AcDbEntity
  8
0
  6
Continuous
 62
     7
370
    25
100
AcDbPolyline
 90
        3
 70
   128
 43
0.0
 10
669.2476672921
 20
575.4890590887
 10
669.2043104155
 20
575.516450561
 10
669.0997323423
 20
575.5824485911
  0
ARC
  5
14F
330
1F
100
AcDbEntity
  8
0
  6
Continuous
 62
     7
370
    25
100
AcDbCircle
 10
689.8630251734
 20
532.1062864296
 30
0.0
 40
48.17977797259061
100
AcDbArc
 50
102.8580809319
 51
115.5281512988
  0
LINE
  5
150
330
1F
100
AcDbEntity
  8
0
  6
Continuous
 62
     7
370
    25
100
AcDbLine
 10
679.1568862089
 20
579.0094062852
 30
0.0
 11
679.141246937
 21
579.0779212418
 31
0.0
  0
LINE
  5
151
330
1F
100
AcDbEntity
  8
0
  6
Continuous
 62
     7
370
    25
100
AcDbLine
 10
681.4188311603
 20
573.3295499909
 30
0.0
 11
681.5621929893
 21
575.9251979603
 31
0.0
  0
LINE
  5
152
330
1F
100
AcDbEntity
  8
0
  6
Continuous
 62
     7
370
    25
100
AcDbLine
 10
681.5621929893
 20
575.9251979603
 30
0.0
 11
685.5122740111
 21
575.7070286067
 31
0.0
  0
SPLINE
  5
153
330
1F
100
AcDbEntity
  8
0
  6
Continuous
 62
     7
370
    25
100
AcDbSpline
210
0.0
220
0.0
230
1.0
 70
     8
 71
     3
 72
    17
 73
    13
 74
     0
 42
0.00000001
 43
0.00000001
 40
0.0
 40
0.0
 40
0.0
 40
0.0
 40
0.0068264277560524
 40
0.0088450004853816
 40
0.0223994102884418
 40
0.0309598270239211
 40
0.0563228448230689
 40
0.1198844474831666
 40
0.1957493698893797
 40
0.555871606010061
 40
0.7769840750939091
 40
1.0
 40
1.0
 40
1.0
 40
1.0
 10
697.9527395837697
 20
572.41635552867
 30
0.0
 10
697.9491194386005
 20
572.4173937117148
 30
0.0
 10
697.9444288175431
 20
572.418738885188
 30
0.0
 10
697.9008961049116
 20
572.4263288732664
 30
0.0
 10
697.8263641809522
 20
572.4380803799974
 30
0.0
 10
697.6595319426685
 20
572.4637992755783
 30
0.0
 10
697.2779556964168
 20
572.5223138481994
 30
0.0
 10
696.5950561701112
 20
572.6315109041598
 30
0.0
 10
694.4900403690789
 20
572.9986823197964
 30
0.0
 10
691.6819141006764
 20
573.6318492221523
 30
0.0
 10
688.2823484154188
 20
574.6442950986277
 30
0.0
 10
686.4382666154565
 20
575.3517733949951
 30
0.0
 10
685.5122740110963
 20
575.7070286066647
 30
0.0
  0
LINE
  5
154
330
1F
100
AcDbEntity
  8
0
  6
Continuous
 62
     7
370
    25
100
AcDbLine
 10
685.5122740111
 20
575.7070286067
 30
0.0
 11
686.6417494286
 21
577.3572003963
 31
0.0
  0
SPLINE
  5
155
330
1F
100
AcDbEntity
  8
0
  6
Continuous
 62
     7
370
    25
100
AcDbSpline
210
0.0
220
0.0
230
1.0
 70
     8
 71
     3
 72
    14
 73
    10
 74
     0
 42
0.00000001
 43
0.00000001
 40
0.0
 40
0.0
 40
0.0
 40
0.0
 40
0.2256458607195977
 40
0.4518169308148963
 40
0.815776144776343
 40
0.8946140573305373
 40
0.9637846180221654
 40
0.9940799143125669
 40
0.9999999999999999
 40
0.9999999999999999
 40
0.9999999999999999
 40
0.9999999999999999
 10
686.6417494285884
 20
577.3572003963035
 30
0.0
 10
687.4874969756595
 20
576.8121766738022
 30
0.0
 10
689.1809606170633
 20
575.7208606410751
 30
0.0
 10
692.3611827171156
 20
574.1554195562729
 30
0.0
 10
695.0324607802821
 20
573.202040722037
 30
0.0
 10
696.9829892675332
 20
572.680592575908
 30
0.0
 10
697.6270657779751
 20
572.5252119012658
 30
0.0
 10
697.9550166742018
 20
572.4496618404213
 30
0.0
 10
698.0475540068005
 20
572.4281410662762
 30
0.0
 10
698.0626809751866
 20
572.424623090763
 30
0.0
  0
SPLINE
  5
156
330
1F
100
AcDbEntity
  8
0
  6
Continuous
 62
     7
370
    25
100
AcDbSpline
210
0.0
220
0.0
230
1.0
 70
     8
 71
     3
 72
    11
 73
     7
 74
     0
 42
0.00000001
 43
0.00000001
 40
0.0
 40
0.0
 40
0.0
 40
0.0
 40
0.019556121229571
 40
0.168189199674442
 40
0.5898876540792781
 40
1.0
 40
1.0
 40
1.0
 40
1.0
 10
697.9527395837697
 20
572.41635552867
 30
0.0
 10
697.9546982969177
 20
572.4162974149542
 30
0.0
 10
697.9715438867403
 20
572.4157976175136
 30
0.0
 10
698.0234444504998
 20
572.4149512001001
 30
0.0
 10
698.0727290825653
 20
572.4170404986221
 30
0.0
 10
698.0659990974888
 20
572.4221191398057
 30
0.0
 10
698.0626809751867
 20
572.424623090763
 30
0.0
  0
LINE
  5
157
330
1F
100
AcDbEntity
  8
0
  6
Continuous
 62
     7
370
    25
100
AcDbLine
 10
678.6003789213
 20
574.3945239687
 30
0.0
 11
680.2093359146
 21
576.4363854697
 31
0.0
  0
LINE
  5
158
330
1F
100
AcDbEntity
  8
0
  6
Continuous
 62
     7
370
    25
100
AcDbLine
 10
669.2483336533
 20
575.4883717859
 30
0.0
 11
669.2489015388
 21
575.487784745
 31
0.0
  0
ARC
  5
159
330
1F
100
AcDbEntity
  8
0
  6
Continuous
 62
     7
370
    25
100
AcDbCircle
 10
673.0350457666
 20
567.3317873286
 30
0.0
 40
11.5915549620674
100
AcDbArc
 50
51.762407147
 51
56.6533814372
  0
LWPOLYLINE
  5
15A
330
1F
100
AcDbEntity
  8
0
  6
Continuous
 62
     7
370
    25
100
AcDbPolyline
 90
        4
 70
   128
 43
0.0
 10
698.0626809752
 20
572.4246230908
 10
698.0649232215
 20
572.4419813458
 10
698.0738957044
 20
572.5114142074
 10
698.0802259856
 20
572.5603743534
  0
ARC
  5
15B
330
1F
100
AcDbEntity
  8
0
  6
Continuous
 62
     7
370
    25
100
AcDbCircle
 10
704.4776601004
 20
603.4155954506
 30
0.0
 40
31.57783498432761
100
AcDbArc
 50
234.8280705831
 51
235.6099480104
  0
LINE
  5
15C
330
1F
100
AcDbEntity
  8
0
  6
Continuous
 62
     7
370
    25
100
AcDbLine
 10
686.2878195629
 20
577.603013954
 30
0.0
 11
686.3283014777
 21
577.6604604568
 31
0.0
  0
ARC
  5
15D
330
1F
100
AcDbEntity
  8
0
  6
Continuous
 62
     7
370
    25
100
AcDbCircle
 10
704.4776601004
 20
603.4155954506
 30
0.0
 40
31.50755777528349
100
AcDbArc
 50
234.8280705831
 51
254.9420027521
  0
LINE
  5
15E
330
1F
100
AcDbEntity
  8
0
  6
Continuous
 62
     7
370
    25
100
AcDbLine
 10
698.0802259856
 20
572.5603743534
 30
0.0
 11
696.2921017018
 21
572.9899018567
 31
0.0
  0
LINE
  5
15F
330
1F
100
AcDbEntity
  8
0
  6
Continuous
 62
     7
370
    25
100
AcDbLine
 10
698.1540633949
 20
562.1135186
 30
0.0
 11
698.0802259856
 21
562.1032003037
 31
0.0
  0
SPLINE
  5
160
330
1F
100
AcDbEntity
  8
0
  6
Continuous
 62
     7
370
    25
100
AcDbSpline
210
0.0
220
0.0
230
1.0
 70
     8
 71
     3
 72
    10
 73
     6
 74
     0
 42
0.00000001
 43
0.00000001
 40
0.0
 40
0.0
 40
0.0
 40
0.0
 40
0.0490769085761659
 40
0.599580584366531
 40
1.0
 40
1.0
 40
1.0
 40
1.0
 10
680.2093359145596
 20
576.436385469698
 30
0.0
 10
680.2282834529286
 20
576.4217627340968
 30
0.0
 10
680.4597686148352
 20
576.2431143919075
 30
0.0
 10
680.9056423896525
 20
576.0090623984863
 30
0.0
 10
681.3676489665369
 20
575.9500480254687
 30
0.0
 10
681.5621929892906
 20
575.9251979603365
 30
0.0
  0
ARC
  5
161
330
1F
100
AcDbEntity
  8
0
  6
Continuous
 62
     7
370
    25
100
AcDbCircle
 10
698.1640343761
 20
572.9143207878
 30
0.0
 40
0.5000763405298944
100
AcDbArc
 50
258.306520338
 51
266.8373700344
  0
SPLINE
  5
162
330
1F
100
AcDbEntity
  8
0
  6
Continuous
 62
     7
370
    25
100
AcDbSpline
210
0.0
220
0.0
230
1.0
 70
     8
 71
     3
 72
     9
 73
     5
 74
     0
 42
0.00000001
 43
0.00000001
 40
0.0
 40
0.0
 40
0.0
 40
0.0
 40
0.8458911907785723
 40
1.0
 40
1.0
 40
1.0
 40
1.0
 10
698.0802259855973
 20
572.5603743534493
 30
0.0
 10
698.1010665817083
 20
572.5565595464569
 30
0.0
 10
698.1257040248432
 20
572.5520497382996
 30
0.0
 10
698.1502765520195
 20
572.5503222745486
 30
0.0
 10
698.1540633949221
 20
572.550056057167
 30
0.0
  0
LINE
  5
163
330
1F
100
AcDbEntity
  8
0
  6
Continuous
 62
     7
370
    25
100
AcDbLine
 10
716.1494835926
 20
571.4838002039
 30
0.0
 11
716.1490255728
 21
571.4838252904
 31
0.0
  0
LINE
  5
164
330
1F
100
AcDbEntity
  8
0
  6
Continuous
 62
     7
370
    25
100
AcDbLine
 10
686.2873815915
 20
557.0611822134
 30
0.0
 11
684.4486407422
 21
556.0642159777
 31
0.0
  0
LINE
  5
165
330
1F
100
AcDbEntity
  8
0
  6
Continuous
 62
     7
370
    25
100
AcDbLine
 10
683.7086163271
 20
557.9219418776
 30
0.0
 11
684.4486407422
 21
556.0642159777
 31
0.0
  0
LINE
  5
166
330
1F
100
AcDbEntity
  8
0
  6
Continuous
 62
     7
370
    25
100
AcDbLine
 10
680.7218460003
 20
557.4428203906
 30
0.0
 11
680.6000122537
 21
555.4468398816
 31
0.0
  0
LINE
  5
167
330
1F
100
AcDbEntity
  8
0
  6
Continuous
 62
     7
370
    25
100
AcDbLine
 10
680.6000122537
 20
555.4468398816
 30
0.0
 11
679.1571050139
 21
555.6551269469
 31
0.0
  0
ARC
  5
168
330
1F
100
AcDbEntity
  8
0
  6
Continuous
 62
     7
370
    25
100
AcDbCircle
 10
681.1440609718
 20
570.3036818044
 30
0.0
 40
6.929946387144299
100
AcDbArc
 50
54.8280705831
 51
102.8580809319
  0
LINE
  5
169
330
1F
100
AcDbEntity
  8
0
  6
Continuous
 62
     7
370
    25
100
AcDbLine
 10
679.6018922139
 20
577.0598547189
 30
0.0
 11
679.1568862089
 21
579.0094062852
 31
0.0
  0
ARC
  5
16A
330
1F
100
AcDbEntity
  8
0
  6
Continuous
 62
     7
370
    25
100
AcDbCircle
 10
681.1440609718
 20
570.3036818044
 30
0.0
 40
8.929641777457059
100
AcDbArc
 50
54.8280705831
 51
102.8580809319
  0
LINE
  5
16B
330
1F
100
AcDbEntity
  8
0
  6
Continuous
 62
     7
370
    25
100
AcDbLine
 10
685.1359312117
 20
575.9684085336
 30
0.0
 11
686.2878195629
 21
577.603013954
 31
0.0
  0
ARC
  5
16C
330
1F
100
AcDbEntity
  8
0
  6
Continuous
 62
     7
370
    25
100
AcDbCircle
 10
704.4776601004
 20
603.4155954506
 30
0.0
 40
33.57753037464038
100
AcDbArc
 50
234.8280705831
 51
235.6099480104
  0
ARC
  5
16D
330
1F
100
AcDbEntity
  8
0
  6
Continuous
 62
     7
370
    25
100
AcDbCircle
 10
689.8630251734
 20
532.1062864296
 30
0.0
 40
46.10980537323358
100
AcDbArc
 50
102.8580809319
 51
103.1066633214
  0
ARC
  5
16E
330
1F
100
AcDbEntity
  8
0
  6
Continuous
 62
     7
370
    25
100
AcDbCircle
 10
681.1440609718
 20
564.3598928528
 30
0.0
 40
6.929946387144411
100
AcDbArc
 50
266.5070253286
 51
291.7198462835
  0
ARC
  5
16F
330
1F
100
AcDbEntity
  8
0
  6
Continuous
 62
     7
370
    25
100
AcDbCircle
 10
681.1440609718
 20
564.3598928528
 30
0.0
 40
8.929641777457107
100
AcDbArc
 50
266.5070253286
 51
291.7198462835
  0
ARC
  5
170
330
1F
100
AcDbEntity
  8
0
  6
Continuous
 62
     7
370
    25
100
AcDbCircle
 10
681.1440609718
 20
564.3598928528
 30
0.0
 40
8.999918986501363
100
AcDbArc
 50
257.1419190681
 51
305.1719294169
  0
ARC
  5
171
330
1F
100
AcDbEntity
  8
0
  6
Continuous
 62
     7
370
    25
100
AcDbCircle
 10
681.1440609718
 20
570.3036818044
 30
0.0
 40
8.999918986501244
100
AcDbArc
 50
54.8280705831
 51
102.8580809319
  0
SPLINE
  5
172
330
1F
100
AcDbEntity
  8
0
  6
Continuous
 62
     7
370
    25
100
AcDbSpline
210
0.0
220
0.0
230
1.0
 70
     8
 71
     3
 72
    11
 73
     7
 74
     0
 42
0.00000001
 43
0.00000001
 40
0.0
 40
0.0
 40
0.0
 40
0.0
 40
0.2200386424382255
 40
0.6637869905998169
 40
0.8890365590789576
 40
1.0
 40
1.0
 40
1.0
 40
1.0
 10
463.1574556219987
 20
561.3114690216222
 30
0.0
 10
462.9532341589972
 20
561.576487632881
 30
0.0
 10
462.3371625961137
 20
562.3759649631858
 30
0.0
 10
461.8136132450965
 20
563.6391342337135
 30
0.0
 10
461.5619840453354
 20
564.8057040470378
 30
0.0
 10
461.5826912400577
 20
565.3169838456972
 30
0.0
 10
461.5895254240838
 20
565.4857261731695
 30
0.0
  0
SPLINE
  5
173
330
1F
100
AcDbEntity
  8
0
  6
Continuous
 62
     7
370
    25
100
AcDbSpline
210
0.0
220
0.0
230
1.0
 70
     8
 71
     3
 72
     9
 73
     5
 74
     0
 42
0.00000001
 43
0.00000001
 40
0.0
 40
0.0
 40
0.0
 40
0.0
 40
0.9209630919903056
 40
1.0
 40
1.0
 40
1.0
 40
1.0
 10
461.5174132587514
 20
561.6317922972557
 30
0.0
 10
462.0318347966243
 20
561.5749652383372
 30
0.0
 10
462.5904039101391
 20
561.5132612901413
 30
0.0
 10
463.1159204218084
 20
561.3262498292532
 30
0.0
 10
463.1574556219988
 20
561.3114690216222
 30
0.0
  0
SPLINE
  5
174
330
1F
100
AcDbEntity
  8
0
  6
Continuous
 62
     7
370
    25
100
AcDbSpline
210
0.0
220
0.0
230
1.0
 70
     8
 71
     3
 72
    10
 73
     6
 74
     0
 42
0.00000001
 43
0.00000001
 40
0.0
 40
0.0
 40
0.0
 40
0.0
 40
0.2596150688488836
 40
0.629760644481066
 40
0.9999999999999999
 40
0.9999999999999999
 40
0.9999999999999999
 40
0.9999999999999999
 10
414.3422523048142
 20
564.2233498662448
 30
0.0
 10
418.4200725235373
 20
563.9235957291464
 30
0.0
 10
428.3118353569025
 20
563.1964678339823
 30
0.0
 10
444.0414080395757
 20
562.3706209640922
 30
0.0
 10
455.6915863008404
 20
561.8780893148264
 30
0.0
 10
461.5174132587514
 20
561.6317922972557
 30
0.0
  0
SPLINE
  5
175
330
1F
100
AcDbEntity
  8
0
  6
Continuous
 62
     7
370
    25
100
AcDbSpline
210
0.0
220
0.0
230
1.0
 70
     8
 71
     3
 72
    11
 73
     7
 74
     0
 42
0.00000001
 43
0.00000001
 40
0.0
 40
0.0
 40
0.0
 40
0.0
 40
0.061464119541392
 40
0.4999988937835378
 40
0.9375097801832794
 40
1.0
 40
1.0
 40
1.0
 40
1.0
 10
414.3422523048144
 20
569.9493822132467
 30
0.0
 10
414.330583108612
 20
569.8329252407947
 30
0.0
 10
414.2356564223426
 20
568.8855699734635
 30
0.0
 10
414.1519535950765
 20
567.0883257750153
 30
0.0
 10
414.2355235185966
 20
565.2891277507745
 30
0.0
 10
414.3303952236419
 20
564.3417529263412
 30
0.0
 10
414.3422523048142
 20
564.2233498662448
 30
0.0
  0
SPLINE
  5
176
330
1F
100
AcDbEntity
  8
0
  6
Continuous
 62
     7
370
    25
100
AcDbSpline
210
0.0
220
0.0
230
1.0
 70
     8
 71
     3
 72
    10
 73
     6
 74
     0
 42
0.00000001
 43
0.00000001
 40
0.0
 40
0.0
 40
0.0
 40
0.0
 40
0.2594618540778875
 40
0.6296073956705976
 40
1.0
 40
1.0
 40
1.0
 40
1.0
 10
461.5174132587514
 20
572.540939782234
 30
0.0
 10
457.4345450206559
 20
572.3735554727084
 30
0.0
 10
447.5271000615913
 20
571.9673824744807
 30
0.0
 10
431.795803500122
 20
571.1805991167502
 30
0.0
 10
420.1613965499106
 20
570.3598791189087
 30
0.0
 10
414.3422523048144
 20
569.9493822132467
 30
0.0
  0
SPLINE
  5
177
330
1F
100
AcDbEntity
  8
0
  6
Continuous
 62
     7
370
    25
100
AcDbSpline
210
0.0
220
0.0
230
1.0
 70
     8
 71
     3
 72
     9
 73
     5
 74
     0
 42
0.00000001
 43
0.00000001
 40
0.0
 40
0.0
 40
0.0
 40
0.0
 40
0.0790369080192139
 40
1.0
 40
1.0
 40
1.0
 40
1.0
 10
463.1574556219979
 20
572.8612630578673
 30
0.0
 10
463.1159204218026
 20
572.8464822502347
 30
0.0
 10
462.5904039101334
 20
572.6594707893466
 30
0.0
 10
462.0318347966188
 20
572.5977668411514
 30
0.0
 10
461.5174132587514
 20
572.540939782234
 30
0.0
  0
SPLINE
  5
178
330
1F
100
AcDbEntity
  8
0
  6
Continuous
 62
     7
370
    25
100
AcDbSpline
210
0.0
220
0.0
230
1.0
 70
     8
 71
     3
 72
    11
 73
     7
 74
     0
 42
0.00000001
 43
0.00000001
 40
0.0
 40
0.0
 40
0.0
 40
0.0
 40
0.0728838064943292
 40
0.4140719411596029
 40
0.9209668754550567
 40
1.0
 40
1.0
 40
1.0
 40
1.0
 10
461.5895254240875
 20
568.6870059063053
 30
0.0
 10
461.5818102749499
 20
568.7974523405445
 30
0.0
 10
461.5379784975852
 20
569.4249273808755
 30
0.0
 10
461.8824702090233
 20
570.8079194113404
 30
0.0
 10
462.5221595585098
 20
572.077850929118
 30
0.0
 10
463.0819483079425
 20
572.768151595291
 30
0.0
 10
463.1574556219979
 20
572.8612630578673
 30
0.0
  0
SPLINE
  5
179
330
1F
100
AcDbEntity
  8
0
  6
Continuous
 62
     7
370
    25
100
AcDbSpline
210
0.0
220
0.0
230
1.0
 70
     8
 71
     3
 72
    10
 73
     6
 74
     0
 42
0.00000001
 43
0.00000001
 40
0.0
 40
0.0
 40
0.0
 40
0.0
 40
0.3880207377811389
 40
0.979063776650686
 40
1.0
 40
1.0
 40
1.0
 40
1.0
 10
461.5895254240838
 20
565.4857261731695
 30
0.0
 10
461.6628399548431
 20
565.8965660350252
 30
0.0
 10
461.8478290401664
 20
566.9332076048736
 30
0.0
 10
461.7521221143355
 20
568.0269769264447
 30
0.0
 10
461.5949039630876
 20
568.6651727951643
 30
0.0
 10
461.5895254240875
 20
568.6870059063053
 30
0.0
  0
ARC
  5
17A
330
1F
100
AcDbEntity
  8
0
  6
Continuous
 62
     7
370
    25
100
AcDbCircle
 10
469.8350457666
 20
567.0863660397
 30
0.0
 40
8.399443654264505
100
AcDbArc
 50
190.985757993
 51
169.0142420071
  0
SPLINE
  5
17B
330
1F
100
AcDbEntity
  8
0
  6
Continuous
 62
     7
370
    25
100
AcDbSpline
210
0.0
220
0.0
230
1.0
 70
     8
 71
     3
 72
     9
 73
     5
 74
     0
 42
0.00000001
 43
0.00000001
 40
0.0
 40
0.0
 40
0.0
 40
0.0
 40
0.6817923421274312
 40
1.0
 40
1.0
 40
1.0
 40
1.0
 10
463.1574556219979
 20
572.8612630578673
 30
0.0
 10
463.299719182641
 20
573.0511734129724
 30
0.0
 10
463.5083803128014
 20
573.329719156846
 30
0.0
 10
463.7378061466818
 20
573.5626235297889
 30
0.0
 10
463.8108112039363
 20
573.6367354848114
 30
0.0
  0
ARC
  5
17C
330
1F
100
AcDbEntity
  8
0
  6
Continuous
 62
     7
370
    25
100
AcDbCircle
 10
469.8350457666
 20
567.0863660397
 30
0.0
 40
8.899367501836336
100
AcDbArc
 50
227.3959191961
 51
132.6040808039
  0
LINE
  5
17D
330
1F
100
AcDbEntity
  8
0
  6
Continuous
 62
     7
370
    25
100
AcDbLine
 10
463.8108112039
 20
560.5359965947
 30
0.0
 11
463.157455622
 21
561.3114690216
 31
0.0
  0
SPLINE
  5
17E
330
1F
100
AcDbEntity
  8
0
  6
Continuous
 62
     7
370
    25
100
AcDbSpline
210
0.0
220
0.0
230
1.0
 70
     8
 71
     3
 72
    10
 73
     6
 74
     0
 42
0.00000001
 43
0.00000001
 40
0.0
 40
0.0
 40
0.0
 40
0.0
 40
0.3702896688583046
 40
0.7405318123903298
 40
0.9999999999999999
 40
0.9999999999999999
 40
0.9999999999999999
 40
0.9999999999999999
 10
414.3307328416359
 20
570.39224179408
 30
0.0
 10
420.1507966878544
 20
570.7124328086063
 30
0.0
 10
431.790177396358
 20
571.3527737423119
 30
0.0
 10
447.5090458031327
 20
572.2220080741752
 30
0.0
 10
457.4062196191425
 20
572.7707490757842
 30
0.0
 10
461.4842879396066
 20
572.9968543596161
 30
0.0
  0
ARC
  5
17F
330
1F
100
AcDbEntity
  8
0
  6
Continuous
 62
     7
370
    25
100
AcDbCircle
 10
454.2691987322
 20
572.2434679929
 30
0.0
 40
7.254316183327737
100
AcDbArc
 50
2.3501399448
 51
5.9611177313
  0
ARC
  5
180
330
1F
100
AcDbEntity
  8
0
  6
Continuous
 62
     7
370
    25
100
AcDbCircle
 10
418.5912553828
 20
570.2814849701
 30
0.0
 40
4.26196191891074
100
AcDbArc
 50
178.5108705387
 51
184.4691613065
  0
SPLINE
  5
181
330
1F
100
AcDbEntity
  8
0
  6
Continuous
 62
     7
370
    25
100
AcDbSpline
210
0.0
220
0.0
230
1.0
 70
     8
 71
     3
 72
    10
 73
     6
 74
     0
 42
0.00000001
 43
0.00000001
 40
0.0
 40
0.0
 40
0.0
 40
0.0
 40
0.3702717503651152
 40
0.7405122151371749
 40
1.0
 40
1.0
 40
1.0
 40
1.0
 10
461.4842879396066
 20
561.1758777198736
 30
0.0
 10
455.6646158779375
 20
561.4984062055416
 30
0.0
 10
444.0257634796406
 20
562.1434359252846
 30
0.0
 10
428.306623895686
 20
563.0122504127636
 30
0.0
 10
418.4091264719873
 20
563.5563053235304
 30
0.0
 10
414.3307328416394
 20
563.7804902854095
 30
0.0
  0
ARC
  5
182
330
1F
100
AcDbEntity
  8
0
  6
Continuous
 62
     7
370
    25
100
AcDbCircle
 10
418.5912553857
 20
563.8912471094
 30
0.0
 40
4.26196192178327
100
AcDbArc
 50
175.530838696
 51
181.4891294598
  0
ARC
  5
183
330
1F
100
AcDbEntity
  8
0
  6
Continuous
 62
     7
370
    25
100
AcDbCircle
 10
454.2691987322
 20
561.9292640866
 30
0.0
 40
7.2543161834128
100
AcDbArc
 50
354.0388822687
 51
357.6498600551
  0
SPLINE
  5
184
330
1F
100
AcDbEntity
  8
0
  6
Continuous
 62
     7
370
    25
100
AcDbSpline
210
0.0
220
0.0
230
1.0
 70
     8
 71
     3
 72
    12
 73
     8
 74
     0
 42
0.00000001
 43
0.00000001
 40
0.0
 40
0.0
 40
0.0
 40
0.0
 40
0.1224290494151349
 40
0.3423522449770471
 40
0.5614228816909413
 40
0.7807229538533572
 40
1.0
 40
1.0
 40
1.0
 40
1.0
 10
412.4065248719667
 20
564.3340242359011
 30
0.0
 10
412.4155289478308
 20
564.3316655514602
 30
0.0
 10
412.4407073315618
 20
564.3250698871353
 30
0.0
 10
412.6566950152065
 20
564.3080619193962
 30
0.0
 10
413.0925931449356
 20
564.2825509452417
 30
0.0
 10
413.6765187583658
 20
564.2529987626824
 30
0.0
 10
414.1203488899339
 20
564.2332324858033
 30
0.0
 10
414.3422523048142
 20
564.2233498662448
 30
0.0
  0
SPLINE
  5
185
330
1F
100
AcDbEntity
  8
0
  6
Continuous
 62
     7
370
    25
100
AcDbSpline
210
0.0
220
0.0
230
1.0
 70
     8
 71
     3
 72
    11
 73
     7
 74
     0
 42
0.00000001
 43
0.00000001
 40
0.0
 40
0.0
 40
0.0
 40
0.0
 40
0.0800485240044433
 40
0.5000005853538798
 40
0.9209248322279645
 40
1.0
 40
1.0
 40
1.0
 40
1.0
 10
412.4065248719667
 20
564.3340242359011
 30
0.0
 10
412.4068111163809
 20
564.4802686610018
 30
0.0
 10
412.4085990615854
 20
565.3937433198348
 30
0.0
 10
412.4098347584154
 20
567.0881529075933
 30
0.0
 10
412.4085970603205
 20
568.7807797594479
 30
0.0
 10
412.4068078383526
 20
569.6942431350918
 30
0.0
 10
412.4065248719667
 20
569.8387078435832
 30
0.0
  0
SPLINE
  5
186
330
1F
100
AcDbEntity
  8
0
  6
Continuous
 62
     7
370
    25
100
AcDbSpline
210
0.0
220
0.0
230
1.0
 70
     8
 71
     3
 72
    12
 73
     8
 74
     0
 42
0.00000001
 43
0.00000001
 40
0.0
 40
0.0
 40
0.0
 40
0.0
 40
0.1130367476169362
 40
0.3328594693548023
 40
0.5544127937945006
 40
0.7774207483513244
 40
1.0
 40
1.0
 40
1.0
 40
1.0
 10
414.3422523048144
 20
569.9493822132467
 30
0.0
 10
414.2281814648275
 20
569.9443669675453
 30
0.0
 10
413.8922769022196
 20
569.9295985664895
 30
0.0
 10
413.3582090458249
 20
569.9040063623803
 30
0.0
 10
412.8416834079377
 20
569.8761310995092
 30
0.0
 10
412.4847886907832
 20
569.8526892259187
 30
0.0
 10
412.4325960732648
 20
569.843365314159
 30
0.0
 10
412.4065248719667
 20
569.8387078435832
 30
0.0
  0
SPLINE
  5
187
330
1F
100
AcDbEntity
  8
0
  6
Continuous
 62
     7
370
    25
100
AcDbSpline
210
0.0
220
0.0
230
1.0
 70
     8
 71
     3
 72
     9
 73
     5
 74
     0
 42
0.00000001
 43
0.00000001
 40
0.0
 40
0.0
 40
0.0
 40
0.0
 40
0.500010612381544
 40
1.0
 40
1.0
 40
1.0
 40
1.0
 10
464.3104190527793
 20
560.104164905432
 30
0.0
 10
463.8806976859584
 20
560.3920054435251
 30
0.0
 10
463.0212731933978
 20
560.9676743012767
 30
0.0
 10
461.9966091081196
 20
561.1064775623635
 30
0.0
 10
461.4842879396066
 20
561.1758777198736
 30
0.0
  0
SPLINE
  5
188
330
1F
100
AcDbEntity
  8
0
  6
Continuous
 62
     7
370
    25
100
AcDbSpline
210
0.0
220
0.0
230
1.0
 70
     8
 71
     3
 72
     9
 73
     5
 74
     0
 42
0.00000001
 43
0.00000001
 40
0.0
 40
0.0
 40
0.0
 40
0.0
 40
0.9838702326459385
 40
1.0
 40
1.0
 40
1.0
 40
1.0
 10
463.8108112039363
 20
560.5359965946782
 30
0.0
 10
463.972152018871
 20
560.3911641816594
 30
0.0
 10
464.1361378877195
 20
560.2439573568024
 30
0.0
 10
464.3076525610014
 20
560.1063839327559
 30
0.0
 10
464.3104190527793
 20
560.104164905432
 30
0.0
  0
SPLINE
  5
189
330
1F
100
AcDbEntity
  8
0
  6
Continuous
 62
     7
370
    25
100
AcDbSpline
210
0.0
220
0.0
230
1.0
 70
     8
 71
     3
 72
     9
 73
     5
 74
     0
 42
0.00000001
 43
0.00000001
 40
0.0
 40
0.0
 40
0.0
 40
0.0
 40
0.5055561057107305
 40
1.0
 40
1.0
 40
1.0
 40
1.0
 10
461.4842879396066
 20
572.9968543596161
 30
0.0
 10
462.0023474569397
 20
573.0675103938861
 30
0.0
 10
463.027079453015
 20
573.2072694304635
 30
0.0
 10
463.8858200217766
 20
573.7836027052593
 30
0.0
 10
464.3104190527793
 20
574.0685671740578
 30
0.0
  0
SPLINE
  5
18A
330
1F
100
AcDbEntity
  8
0
  6
Continuous
 62
     7
370
    25
100
AcDbSpline
210
0.0
220
0.0
230
1.0
 70
     8
 71
     3
 72
     9
 73
     5
 74
     0
 42
0.00000001
 43
0.00000001
 40
0.0
 40
0.0
 40
0.0
 40
0.0
 40
0.0161297673533178
 40
0.9999999999999999
 40
0.9999999999999999
 40
0.9999999999999999
 40
0.9999999999999999
 10
464.3104190527793
 20
574.0685671740578
 30
0.0
 10
464.3076525610015
 20
574.0663481467338
 30
0.0
 10
464.1361378877154
 20
573.9287747226842
 30
0.0
 10
463.972152018869
 20
573.781567897829
 30
0.0
 10
463.8108112039363
 20
573.6367354848114
 30
0.0
  0
SPLINE
  5
18B
330
1F
100
AcDbEntity
  8
0
  6
Continuous
 62
     7
370
    25
100
AcDbSpline
210
0.0
220
0.0
230
1.0
 70
     8
 71
     3
 72
    12
 73
     8
 74
     0
 42
0.00000001
 43
0.00000001
 40
0.0
 40
0.0
 40
0.0
 40
0.0
 40
0.2230315344150378
 40
0.4461337558340359
 40
0.6675099896777023
 40
0.8870667292265011
 40
1.0
 40
1.0
 40
1.0
 40
1.0
 10
412.8788791370512
 20
570.3378709146316
 30
0.0
 10
412.8984129231771
 20
570.3359806673368
 30
0.0
 10
412.9374866864136
 20
570.3321995736575
 30
0.0
 10
413.2050758684697
 20
570.3391424099281
 30
0.0
 10
413.5926049522949
 20
570.354731232418
 30
0.0
 10
413.9933270647579
 20
570.3740685124822
 30
0.0
 10
414.2451864870158
 20
570.3876341136587
 30
0.0
 10
414.3307328416359
 20
570.39224179408
 30
0.0
  0
ARC
  5
18C
330
1F
100
AcDbEntity
  8
0
  6
Continuous
 62
     7
370
    25
100
AcDbCircle
 10
412.9066247596
 20
569.8385412582
 30
0.0
 40
0.5000999153469704
100
AcDbArc
 50
93.1804119247
 51
179.9809145383
  0
SPLINE
  5
18D
330
1F
100
AcDbEntity
  8
0
  6
Continuous
 62
     7
370
    25
100
AcDbSpline
210
0.0
220
0.0
230
1.0
 70
     8
 71
     3
 72
    12
 73
     8
 74
     0
 42
0.00000001
 43
0.00000001
 40
0.0
 40
0.0
 40
0.0
 40
0.0
 40
0.2190444340109334
 40
0.4380981679380241
 40
0.6571027493691853
 40
0.8772791087290019
 40
1.0
 40
1.0
 40
1.0
 40
1.0
 10
414.3307328416394
 20
563.7804902854095
 30
0.0
 10
414.1643151008685
 20
563.7893190983593
 30
0.0
 10
413.8314725537694
 20
563.8069770991016
 30
0.0
 10
413.3933141111263
 20
563.8264955885106
 30
0.0
 10
413.0663482843666
 20
563.8378013721428
 30
0.0
 10
412.9045044073525
 20
563.8396252402196
 30
0.0
 10
412.8856330749403
 20
563.8361168108947
 30
0.0
 10
412.8788791370512
 20
563.8348611648581
 30
0.0
  0
ARC
  5
18E
330
1F
100
AcDbEntity
  8
0
  6
Continuous
 62
     7
370
    25
100
AcDbCircle
 10
412.9066247596
 20
564.3341908213
 30
0.0
 40
0.5000999153469722
100
AcDbArc
 50
180.0190854623
 51
266.8195880753
  0
LINE
  5
18F
330
1F
100
AcDbEntity
  8
0
  6
Continuous
 62
     7
370
    25
100
AcDbLine
 10
461.4842879396
 20
572.9968543596
 30
0.0
 11
461.4573017579
 21
573.068144635
 31
0.0
  0
LINE
  5
190
330
1F
100
AcDbEntity
  8
0
  6
Continuous
 62
     7
370
    25
100
AcDbLine
 10
412.8741887764
 20
570.3423093677
 30
0.0
 11
412.8788791371
 21
570.3378709146
 31
0.0
  0
ELLIPSE
  5
191
330
1F
100
AcDbEntity
  8
0
  6
Continuous
 62
     7
370
    25
100
AcDbEllipse
 10
414.3739603191
 20
570.4256018177
 30
0.0
 11
1.499999304622804
 21
0.0828726334386829
 31
0.0
210
0.0
220
0.0
230
1.0
 40
0.0174284859
 41
2.255125316696336
 42
3.158083049615214
  0
LINE
  5
192
330
1F
100
AcDbEntity
  8
0
  6
Continuous
 62
     7
370
    25
100
AcDbLine
 10
416.8895749881
 20
570.6343614057
 30
0.0
 11
413.4246117787
 21
570.3934701267
 31
0.0
  0
LINE
  5
193
330
1F
100
AcDbEntity
  8
0
  6
Continuous
 62
     7
370
    25
100
AcDbLine
 10
416.8895749881
 20
570.6342630145
 30
0.0
 11
416.8895749881
 21
570.6343614057
 31
0.0
  0
ELLIPSE
  5
194
330
1F
100
AcDbEntity
  8
0
  6
Continuous
 62
     7
370
    25
100
AcDbEllipse
 10
426.3390614091
 20
570.963909066
 30
0.0
 11
14.49999327802044
 21
0.8011021232407529
 31
0.0
210
0.0
220
0.0
230
1.0
 40
0.0174284859
 41
1.543516838852435
 42
2.279642175407482
  0
ELLIPSE
  5
195
330
1F
100
AcDbEntity
  8
0
  6
Continuous
 62
     7
370
    25
100
AcDbEllipse
 10
427.6600713246
 20
571.9141926152
 30
0.0
 11
35.70262504606006
 21
1.972514619921981
 31
0.0
210
0.0
220
0.0
230
1.0
 40
0.0174284859
 41
4.685109492442207
 42
5.167309992307954
  0
ELLIPSE
  5
196
330
1F
100
AcDbEntity
  8
0
  6
Continuous
 62
     7
370
    25
100
AcDbEllipse
 10
446.6802987967
 20
572.286588675
 30
0.0
 11
7.499996523114021
 21
0.4143631671935282
 31
0.0
210
0.0
220
0.0
230
1.0
 40
0.0174284859
 41
1.834826681007908
 42
2.025717338717969
  0
LINE
  5
197
330
1F
100
AcDbEntity
  8
0
  6
Continuous
 62
     7
370
    25
100
AcDbLine
 10
444.7356463956
 20
572.1542442238
 30
0.0
 11
444.7160281383
 21
572.3046347683
 31
0.0
  0
SPLINE
  5
198
330
1F
100
AcDbEntity
  8
0
  6
Continuous
 62
     7
370
    25
100
AcDbSpline
210
0.0
220
0.0
230
1.0
 70
     8
 71
     3
 72
    10
 73
     6
 74
     0
 42
0.00000001
 43
0.00000001
 40
0.0
 40
0.0
 40
0.0
 40
0.0
 40
0.0186368637457253
 40
0.3939469944633057
 40
1.0
 40
1.0
 40
1.0
 40
1.0
 10
444.9194176813369
 20
572.1547305910201
 30
0.0
 10
444.9169614740882
 20
572.1546428405406
 30
0.0
 10
444.8650420376112
 20
572.1527879663478
 30
0.0
 10
444.7610431891333
 20
572.1501079849696
 30
0.0
 10
444.745342531784
 20
572.1526650663671
 30
0.0
 10
444.7356463956405
 20
572.154244223775
 30
0.0
  0
LINE
  5
199
330
1F
100
AcDbEntity
  8
0
  6
Continuous
 62
     7
370
    25
100
AcDbLine
 10
461.4573017579
 20
573.068144635
 30
0.0
 11
444.9194176813
 21
572.154730591
 31
0.0
  0
LINE
  5
19A
330
1F
100
AcDbEntity
  8
0
  6
Continuous
 62
     7
370
    25
100
AcDbLine
 10
444.9173519494
 20
562.0017978396
 30
0.0
 11
461.4512603729
 21
561.0886033774
 31
0.0
  0
SPLINE
  5
19B
330
1F
100
AcDbEntity
  8
0
  6
Continuous
 62
     7
370
    25
100
AcDbSpline
210
0.0
220
0.0
230
1.0
 70
     8
 71
     3
 72
    11
 73
     7
 74
     0
 42
0.00000001
 43
0.00000001
 40
0.0
 40
0.0
 40
0.0
 40
0.0
 40
0.4177469294495291
 40
0.8392770662410922
 40
0.9817832068819584
 40
1.0
 40
1.0
 40
1.0
 40
1.0
 10
444.7336465087686
 20
562.0031472849282
 30
0.0
 10
444.7382835368005
 20
562.0042304761118
 30
0.0
 10
444.7475995868018
 20
562.0064066680949
 30
0.0
 10
444.823096052552
 20
562.0052044912035
 30
0.0
 10
444.893356253124
 20
562.0027339638634
 30
0.0
 10
444.9149090897816
 20
562.0018931409065
 30
0.0
 10
444.9173519494116
 20
562.001797839648
 30
0.0
  0
LINE
  5
19C
330
1F
100
AcDbEntity
  8
0
  6
Continuous
 62
     7
370
    25
100
AcDbLine
 10
444.7160281383
 20
561.8680973112
 30
0.0
 11
444.7336465088
 21
562.0031472849
 31
0.0
  0
ELLIPSE
  5
19D
330
1F
100
AcDbEntity
  8
0
  6
Continuous
 62
     7
370
    25
100
AcDbEllipse
 10
446.6802987967
 20
561.8861434045
 30
0.0
 11
7.499996523114022
 21
-0.4143631671934145
 31
0.0
210
0.0
220
0.0
230
1.0
 40
0.0174284859
 41
4.257467968461604
 42
4.4483586261719
  0
ELLIPSE
  5
19E
330
1F
100
AcDbEntity
  8
0
  6
Continuous
 62
     7
370
    25
100
AcDbEllipse
 10
427.6600713246
 20
562.2585394643
 30
0.0
 11
35.70262504606001
 21
-1.972514619921981
 31
0.0
210
0.0
220
0.0
230
1.0
 40
0.0174284859
 41
1.11587531487187
 42
1.598075814737371
  0
ELLIPSE
  5
19F
330
1F
100
AcDbEntity
  8
0
  6
Continuous
 62
     7
370
    25
100
AcDbEllipse
 10
426.3390614091
 20
563.2088230135
 30
0.0
 11
14.49999327802044
 21
-0.8011021232406392
 31
0.0
210
0.0
220
0.0
230
1.0
 40
0.0174284859
 41
4.003543131771957
 42
4.739668468327164
  0
LINE
  5
1A0
330
1F
100
AcDbEntity
  8
0
  6
Continuous
 62
     7
370
    25
100
AcDbLine
 10
416.8895749881
 20
563.5383706738
 30
0.0
 11
416.8895749881
 21
563.538469065
 31
0.0
  0
LINE
  5
1A1
330
1F
100
AcDbEntity
  8
0
  6
Continuous
 62
     7
370
    25
100
AcDbLine
 10
413.4246117787
 20
563.7792619528
 30
0.0
 11
416.8895749881
 21
563.5383706738
 31
0.0
  0
ELLIPSE
  5
1A2
330
1F
100
AcDbEntity
  8
0
  6
Continuous
 62
     7
370
    25
100
AcDbEllipse
 10
414.3739603191
 20
563.7471302618
 30
0.0
 11
1.499999304622804
 21
-0.0828726334386829
 31
0.0
210
0.0
220
0.0
230
1.0
 40
0.0174284859
 41
3.125102257569506
 42
4.028059990480771
  0
LINE
  5
1A3
330
1F
100
AcDbEntity
  8
0
  6
Continuous
 62
     7
370
    25
100
AcDbLine
 10
412.8788791371
 20
563.8348611649
 30
0.0
 11
412.8741887764
 21
563.8304227118
 31
0.0
  0
LINE
  5
1A4
330
1F
100
AcDbEntity
  8
0
  6
Continuous
 62
     7
370
    25
100
AcDbLine
 10
461.4512603729
 20
561.0886033774
 30
0.0
 11
461.4842879396
 21
561.1758777199
 31
0.0
  0
SPLINE
  5
1A5
330
1F
100
AcDbEntity
  8
0
  6
Continuous
 62
     7
370
    25
100
AcDbSpline
210
0.0
220
0.0
230
1.0
 70
     8
 71
     3
 72
     9
 73
     5
 74
     0
 42
0.00000001
 43
0.00000001
 40
0.0
 40
0.0
 40
0.0
 40
0.0
 40
0.5001021276704695
 40
1.0
 40
1.0
 40
1.0
 40
1.0
 10
464.2772001867238
 20
574.1342586210178
 30
0.0
 10
463.8482524110165
 20
573.8477329869294
 30
0.0
 10
462.9905320535659
 20
573.2747987436317
 30
0.0
 10
461.9683089249508
 20
573.1370199571775
 30
0.0
 10
461.4573017579101
 20
573.0681446349769
 30
0.0
  0
LINE
  5
1A6
330
1F
100
AcDbEntity
  8
0
  6
Continuous
 62
     7
370
    25
100
AcDbLine
 10
464.2772001867
 20
574.134258621
 30
0.0
 11
464.3104190528
 21
574.0685671741
 31
0.0
  0
SPLINE
  5
1A7
330
1F
100
AcDbEntity
  8
0
  6
Continuous
 62
     7
370
    25
100
AcDbSpline
210
0.0
220
0.0
230
1.0
 70
     8
 71
     3
 72
     9
 73
     5
 74
     0
 42
0.00000001
 43
0.00000001
 40
0.0
 40
0.0
 40
0.0
 40
0.0
 40
0.400722737156528
 40
1.0
 40
1.0
 40
1.0
 40
1.0
 10
461.4512603728584
 20
561.0886033774335
 30
0.0
 10
461.8599464962677
 20
561.0401961153678
 30
0.0
 10
462.8798190553075
 20
560.919396226624
 30
0.0
 10
463.7488950991334
 20
560.3592889532704
 30
0.0
 10
464.2697126118803
 20
560.0236293995963
 30
0.0
  0
LINE
  5
1A8
330
1F
100
AcDbEntity
  8
0
  6
Continuous
 62
     7
370
    25
100
AcDbLine
 10
464.3104190528
 20
560.1041649054
 30
0.0
 11
464.2697126119
 21
560.0236293996
 31
0.0
  0
ARC
  5
1A9
330
1F
100
AcDbEntity
  8
0
  6
Continuous
 62
     7
370
    25
100
AcDbCircle
 10
469.8350457666
 20
567.0863660397
 30
0.0
 40
8.975658044222202
100
AcDbArc
 50
65.1648853947
 51
128.2586979829
  0
LWPOLYLINE
  5
1AA
330
1F
100
AcDbEntity
  8
0
  6
Continuous
 62
     7
370
    25
100
AcDbPolyline
 90
        3
 70
   128
 43
0.0
 10
473.7703591908
 20
575.337025763
 10
473.6657776267
 20
575.2707733518
 10
473.604897084
 20
575.2319573855
  0
ARC
  5
1AB
330
1F
100
AcDbEntity
  8
0
  6
Continuous
 62
     7
370
    25
100
AcDbCircle
 10
469.8350457666
 20
567.0863660397
 30
0.0
 40
9.14112015109221
100
AcDbArc
 50
295.4997164176
 51
64.5002794289
  0
LWPOLYLINE
  5
1AC
330
1F
100
AcDbEntity
  8
0
  6
Continuous
 62
     7
370
    25
100
AcDbPolyline
 90
        3
 70
   128
 43
0.0
 10
473.6211899944
 20
558.9303686233
 10
473.6657776267
 20
558.9019587277
 10
473.7703591911
 20
558.8357063163
  0
ARC
  5
1AD
330
1F
100
AcDbEntity
  8
0
  6
Continuous
 62
     7
370
    25
100
AcDbCircle
 10
469.8350457666
 20
567.0863660397
 30
0.0
 40
8.991950954660686
100
AcDbArc
 50
231.762407147
 51
294.9014811666
  0
LINE
  5
1AE
330
1F
100
AcDbEntity
  8
0
  6
Continuous
 62
     7
370
    25
100
AcDbLine
 10
412.4018345113
 20
564.3295857828
 30
0.0
 11
412.406524872
 21
564.3340242359
 31
0.0
  0
LINE
  5
1AF
330
1F
100
AcDbEntity
  8
0
  6
Continuous
 62
     7
370
    25
100
AcDbLine
 10
412.4018345113
 20
569.8431462967
 30
0.0
 11
412.4018345113
 21
564.3295857828
 31
0.0
  0
LINE
  5
1B0
330
1F
100
AcDbEntity
  8
0
  6
Continuous
 62
     7
370
    25
100
AcDbLine
 10
412.406524872
 20
569.8387078436
 30
0.0
 11
412.4018345113
 21
569.8431462967
 31
0.0
  0
ARC
  5
1B1
330
1F
100
AcDbEntity
  8
0
  6
Continuous
 62
     7
370
    25
100
AcDbCircle
 10
412.9019343989
 20
564.3297523682
 30
0.0
 40
0.5000999153469574
100
AcDbArc
 50
180.0190854617
 51
266.8195880753
  0
ARC
  5
1B2
330
1F
100
AcDbEntity
  8
0
  6
Continuous
 62
     7
370
    25
100
AcDbCircle
 10
412.9019343989
 20
569.8429797113
 30
0.0
 40
0.5000999153467998
100
AcDbArc
 50
93.1804119247
 51
179.9809145383
  0
LINE
  5
1B3
330
1F
100
AcDbEntity
  8
0
  6
Continuous
 62
     7
370
    25
100
AcDbLine
 10
413.4246117787
 20
563.7792619528
 30
0.0
 11
413.4175040479
 21
563.7796289894
 31
0.0
  0
LINE
  5
1B4
330
1F
100
AcDbEntity
  8
0
  6
Continuous
 62
     7
370
    25
100
AcDbLine
 10
413.4246117787
 20
570.3934701267
 30
0.0
 11
413.4175040479
 21
570.3931030901
 31
0.0
  0
SPLINE
  5
1B5
330
1F
100
AcDbEntity
  8
0
  6
Continuous
 62
     7
370
    25
100
AcDbSpline
210
0.0
220
0.0
230
1.0
 70
     8
 71
     3
 72
    11
 73
     7
 74
     0
 42
0.00000001
 43
0.00000001
 40
0.0
 40
0.0
 40
0.0
 40
0.0
 40
0.1345990676765959
 40
0.4126978815969493
 40
0.6969472592954598
 40
1.0
 40
1.0
 40
1.0
 40
1.0
 10
473.6056756904146
 20
575.2327640025652
 30
0.0
 10
473.1763696701663
 20
575.4236478877262
 30
0.0
 10
471.860062743442
 20
576.0089221871461
 30
0.0
 10
469.4842526925588
 20
576.6313900711698
 30
0.0
 10
466.4305633076777
 20
577.0078927536701
 30
0.0
 10
464.239533399317
 20
577.035034082003
 30
0.0
 10
463.1089438817791
 20
577.049039231448
 30
0.0
  0
ARC
  5
1B6
330
1F
100
AcDbEntity
  8
0
  6
Continuous
 62
     7
370
    25
100
AcDbCircle
 10
467.6014748748
 20
576.4292151869
 30
0.0
 40
4.535087272517062
100
AcDbArc
 50
149.0284626407
 51
172.1446266983
  0
SPLINE
  5
1B7
330
1F
100
AcDbEntity
  8
0
  6
Continuous
 62
     7
370
    25
100
AcDbSpline
210
0.0
220
0.0
230
1.0
 70
     8
 71
     3
 72
    12
 73
     8
 74
     0
 42
0.00000001
 43
0.00000001
 40
0.0
 40
0.0
 40
0.0
 40
0.0
 40
0.1662426524176545
 40
0.3368059756191297
 40
0.6054181071254586
 40
0.8801435087136193
 40
1.0
 40
1.0
 40
1.0
 40
1.0
 10
463.71298651928
 20
578.7630264214158
 30
0.0
 10
464.3506680398162
 20
578.6075412459328
 30
0.0
 10
465.6426045166168
 20
578.2925298125776
 30
0.0
 10
467.8267908989662
 20
577.6295647075791
 30
0.0
 10
470.188765242526
 20
576.7773697907736
 30
0.0
 10
472.1543028044185
 20
575.9347411121615
 30
0.0
 10
473.2680777892141
 20
575.3968830194665
 30
0.0
 10
473.6063932673716
 20
575.2335055686392
 30
0.0
  0
LINE
  5
1B8
330
1F
100
AcDbEntity
  8
0
  6
Continuous
 62
     7
370
    25
100
AcDbLine
 10
473.6063932674
 20
575.2335055686
 30
0.0
 11
473.6056756904
 21
575.2327640026
 31
0.0
  0
LINE
  5
1B9
330
1F
100
AcDbEntity
  8
0
  6
Continuous
 62
     7
370
    25
100
AcDbLine
 10
463.7129865193
 20
578.7630264214
 30
0.0
 11
463.7288445962
 21
578.832499953
 31
0.0
  0
ARC
  5
1BA
330
1F
100
AcDbEntity
  8
0
  6
Continuous
 62
     7
370
    25
100
AcDbCircle
 10
453.0070663597
 20
531.8608651407
 30
0.0
 40
48.17977797259064
100
AcDbArc
 50
64.4718479123
 51
77.1419190681
  0
LWPOLYLINE
  5
1BB
330
1F
100
AcDbEntity
  8
0
  6
Continuous
 62
     7
370
    25
100
AcDbPolyline
 90
        3
 70
   128
 43
0.0
 10
473.6063932674
 20
575.2335055686
 10
473.6657811177
 20
575.2710292722
 10
473.7703591905
 20
575.3370273021
  0
LINE
  5
1BC
330
1F
100
AcDbEntity
  8
0
  6
Continuous
 62
     7
370
    25
100
AcDbLine
 10
464.2772001867
 20
574.134258621
 30
0.0
 11
462.0793282666
 21
576.9213754954
 31
0.0
  0
ARC
  5
1BD
330
1F
100
AcDbEntity
  8
0
  6
Continuous
 62
     7
370
    25
100
AcDbCircle
 10
469.8350457666
 20
567.0863660397
 30
0.0
 40
12.52511736202731
100
AcDbArc
 50
127.8583068702
 51
128.2586979829
  0
LINE
  5
1BE
330
1F
100
AcDbEntity
  8
0
  6
Continuous
 62
     7
370
    25
100
AcDbLine
 10
463.1089438818
 20
577.0490392314
 30
0.0
 11
462.1482455329
 21
576.9753329777
 31
0.0
  0
LINE
  5
1BF
330
1F
100
AcDbEntity
  8
0
  6
Continuous
 62
     7
370
    25
100
AcDbLine
 10
473.604897084
 20
575.2319573855
 30
0.0
 11
473.6056756904
 21
575.2327640026
 31
0.0
  0
ARC
  5
1C0
330
1F
100
AcDbEntity
  8
0
  6
Continuous
 62
     7
370
    25
100
AcDbCircle
 10
451.9173740529
 20
572.3629654279
 30
0.0
 40
6.834138728219215
100
AcDbArc
 50
31.8771071303
 51
46.9488007428
  0
SPLINE
  5
1C1
330
1F
100
AcDbEntity
  8
0
  6
Continuous
 62
     7
370
    25
100
AcDbSpline
210
0.0
220
0.0
230
1.0
 70
     8
 71
     3
 72
    16
 73
    12
 74
     0
 42
0.00000001
 43
0.00000001
 40
0.0
 40
0.0
 40
0.0
 40
0.0
 40
0.2861254310575669
 40
0.7591203623085425
 40
0.8520758313858449
 40
0.9266344548631255
 40
0.9604862301433736
 40
0.9835335436569232
 40
0.9930756629548352
 40
0.9972242292023619
 40
1.0
 40
1.0
 40
1.0
 40
1.0
 10
457.7208068440311
 20
575.97206780873
 30
0.0
 10
456.4926600069074
 20
575.442000499378
 30
0.0
 10
453.2342594218231
 20
574.0356771032508
 30
0.0
 10
449.4366779672158
 20
573.0178651003664
 30
0.0
 10
446.6390163173113
 20
572.4559448825947
 30
0.0
 10
445.7738833784169
 20
572.3014423667018
 30
0.0
 10
445.2482972096827
 20
572.2129217008716
 30
0.0
 10
445.0146349509687
 20
572.1738123172229
 30
0.0
 10
444.9369848038079
 20
572.1594923482533
 30
0.0
 10
444.9209031487728
 20
572.1557586096303
 30
0.0
 10
444.9198427608511
 20
572.155024767547
 30
0.0
 10
444.9194176813369
 20
572.1547305910201
 30
0.0
  0
SPLINE
  5
1C2
330
1F
100
AcDbEntity
  8
0
  6
Continuous
 62
     7
370
    25
100
AcDbSpline
210
0.0
220
0.0
230
1.0
 70
     8
 71
     3
 72
    10
 73
     6
 74
     0
 42
0.00000001
 43
0.00000001
 40
0.0
 40
0.0
 40
0.0
 40
0.0
 40
0.5975855365574454
 40
0.9790563563181981
 40
1.0
 40
1.0
 40
1.0
 40
1.0
 10
444.8093923616492
 20
572.1638574883594
 30
0.0
 10
444.8068732222958
 20
572.160118190633
 30
0.0
 10
444.8027459815152
 20
572.1539918991095
 30
0.0
 10
444.8771171080707
 20
572.1536153402529
 30
0.0
 10
444.917325060175
 20
572.1546754192534
 30
0.0
 10
444.9194176813369
 20
572.1547305910201
 30
0.0
  0
SPLINE
  5
1C3
330
1F
100
AcDbEntity
  8
0
  6
Continuous
 62
     7
370
    25
100
AcDbSpline
210
0.0
220
0.0
230
1.0
 70
     8
 71
     3
 72
    14
 73
    10
 74
     0
 42
0.00000001
 43
0.00000001
 40
0.0
 40
0.0
 40
0.0
 40
0.0
 40
0.0129036569231464
 40
0.0519665716781148
 40
0.131889182426121
 40
0.2280032005552168
 40
0.4679440229400842
 40
0.7079115564493631
 40
0.9999999999999999
 40
0.9999999999999999
 40
0.9999999999999999
 40
0.9999999999999999
 10
444.8093923616492
 20
572.1638574883594
 30
0.0
 10
444.8428609381135
 20
572.1717024624206
 30
0.0
 10
444.9776480909462
 20
572.2032963283532
 30
0.0
 10
445.4169215359387
 20
572.3056783756471
 30
0.0
 10
446.2283489541646
 20
572.5080798844641
 30
0.0
 10
447.8818261359852
 20
572.9751305652302
 30
0.0
 10
450.2261162082289
 20
573.8125876246205
 30
0.0
 10
453.3712103847261
 20
575.2575278649708
 30
0.0
 10
455.4445090589186
 20
576.6128987477656
 30
0.0
 10
456.5827099416658
 20
577.3569711549153
 30
0.0
  0
LINE
  5
1C4
330
1F
100
AcDbEntity
  8
0
  6
Continuous
 62
     7
370
    25
100
AcDbLine
 10
459.1614752061
 20
576.4962114907
 30
0.0
 11
461.2615577222
 21
576.6122024394
 31
0.0
  0
LINE
  5
1C5
330
1F
100
AcDbEntity
  8
0
  6
Continuous
 62
     7
370
    25
100
AcDbLine
 10
461.4573017579
 20
573.068144635
 30
0.0
 11
461.2615577222
 21
576.6122024394
 31
0.0
  0
LINE
  5
1C6
330
1F
100
AcDbEntity
  8
0
  6
Continuous
 62
     7
370
    25
100
AcDbLine
 10
459.1614752061
 20
576.4962114907
 30
0.0
 11
457.720806844
 21
575.9720678087
 31
0.0
  0
LWPOLYLINE
  5
1C7
330
1F
100
AcDbEntity
  8
0
  6
Continuous
 62
     7
370
    25
100
AcDbPolyline
 90
        4
 70
   128
 43
0.0
 10
444.7898655476
 20
572.3149530646
 10
444.7921101832
 20
572.2975949178
 10
444.8010852172
 20
572.2281621716
 10
444.8093923616
 20
572.1638574884
  0
LINE
  5
1C8
330
1F
100
AcDbEntity
  8
0
  6
Continuous
 62
     7
370
    25
100
AcDbLine
 10
446.5779898314
 20
572.7444805679
 30
0.0
 11
444.7898655476
 21
572.3149530646
 31
0.0
  0
ARC
  5
1C9
330
1F
100
AcDbEntity
  8
0
  6
Continuous
 62
     7
370
    25
100
AcDbCircle
 10
438.3924314328
 20
603.1701741618
 30
0.0
 40
31.50755777528343
100
AcDbArc
 50
285.0579972479
 51
305.1719294169
  0
LINE
  5
1CA
330
1F
100
AcDbEntity
  8
0
  6
Continuous
 62
     7
370
    25
100
AcDbLine
 10
456.5827099417
 20
577.3569711549
 30
0.0
 11
456.5417900555
 21
577.415039168
 31
0.0
  0
SPLINE
  5
1CB
330
1F
100
AcDbEntity
  8
0
  6
Continuous
 62
     7
370
    25
100
AcDbSpline
210
0.0
220
0.0
230
1.0
 70
     8
 71
     3
 72
     9
 73
     5
 74
     0
 42
0.00000001
 43
0.00000001
 40
0.0
 40
0.0
 40
0.0
 40
0.0
 40
0.4998978730609624
 40
1.0
 40
1.0
 40
1.0
 40
1.0
 10
461.2615577222048
 20
576.6122024394208
 30
0.0
 10
461.4097526381007
 20
576.632168777423
 30
0.0
 10
461.7062030210326
 20
576.6721096114977
 30
0.0
 10
461.9549362498092
 20
576.8382755540683
 30
0.0
 10
462.0793282665608
 20
576.9213754953727
 30
0.0
  0
ARC
  5
1CC
330
1F
100
AcDbEntity
  8
0
  6
Continuous
 62
     7
370
    25
100
AcDbCircle
 10
444.7080570468
 20
572.6535589282
 30
0.0
 40
0.5000763404110647
100
AcDbArc
 50
273.1626296403
 51
281.6913635616
  0
SPLINE
  5
1CD
330
1F
100
AcDbEntity
  8
0
  6
Continuous
 62
     7
370
    25
100
AcDbSpline
210
0.0
220
0.0
230
1.0
 70
     8
 71
     3
 72
    12
 73
     8
 74
     0
 42
0.00000001
 43
0.00000001
 40
0.0
 40
0.0
 40
0.0
 40
0.0
 40
0.046072672532115
 40
0.2494576442748305
 40
0.4755636088397373
 40
0.7057929889265022
 40
1.0
 40
1.0
 40
1.0
 40
1.0
 10
473.6224242410618
 20
558.9290942796423
 30
0.0
 10
473.4940888318864
 20
558.8665895803031
 30
0.0
 10
472.7992246729292
 20
558.5281617401897
 30
0.0
 10
471.446425703407
 20
557.9125783240493
 30
0.0
 10
469.4385570593255
 20
557.1051190187948
 30
0.0
 10
466.94328524432
 20
556.2319989012668
 30
0.0
 10
465.0043390561852
 20
555.7346492616239
 30
0.0
 10
463.9165969157487
 20
555.4556378249573
 30
0.0
  0
LINE
  5
1CE
330
1F
100
AcDbEntity
  8
0
  6
Continuous
 62
     7
370
    25
100
AcDbLine
 10
463.4631368379
 20
557.4032403542
 30
0.0
 11
463.9165969157
 21
555.455637825
 31
0.0
  0
SPLINE
  5
1CF
330
1F
100
AcDbEntity
  8
0
  6
Continuous
 62
     7
370
    25
100
AcDbSpline
210
0.0
220
0.0
230
1.0
 70
     8
 71
     3
 72
    13
 73
     9
 74
     0
 42
0.00000001
 43
0.00000001
 40
0.0
 40
0.0
 40
0.0
 40
0.0
 40
0.2574896950994368
 40
0.4890886589321025
 40
0.7206004760683485
 40
0.9447506334961274
 40
0.9460032291293288
 40
1.0
 40
1.0
 40
1.0
 40
1.0
 10
463.4631368378617
 20
557.4032403541713
 30
0.0
 10
464.3818624138496
 20
557.3751773900566
 30
0.0
 10
466.1269352009877
 20
557.3218732083913
 30
0.0
 10
468.6215004469012
 20
557.4864373272293
 30
0.0
 10
470.937150252902
 20
557.8998113222394
 30
0.0
 10
472.414258854506
 20
558.3993685088027
 30
0.0
 10
473.2855202990467
 20
558.7736113637326
 30
0.0
 10
473.4555667078696
 20
558.8525917822178
 30
0.0
 10
473.6217578799249
 20
558.9297815823925
 30
0.0
  0
LINE
  5
1D0
330
1F
100
AcDbEntity
  8
0
  6
Continuous
 62
     7
370
    25
100
AcDbLine
 10
473.6217578799
 20
558.9297815824
 30
0.0
 11
473.6224242411
 21
558.9290942796
 31
0.0
  0
ARC
  5
1D1
330
1F
100
AcDbEntity
  8
0
  6
Continuous
 62
     7
370
    25
100
AcDbCircle
 10
453.0070663597
 20
602.3118669388
 30
0.0
 40
48.10950076354632
100
AcDbArc
 50
282.8580809319
 51
283.1066633214
  0
LWPOLYLINE
  5
1D2
330
1F
100
AcDbEntity
  8
0
  6
Continuous
 62
     7
370
    25
100
AcDbPolyline
 90
        3
 70
   128
 43
0.0
 10
473.6224242411
 20
558.9290942796
 10
473.6657811177
 20
558.9017028073
 10
473.7703591908
 20
558.8357047772
  0
ARC
  5
1D3
330
1F
100
AcDbEntity
  8
0
  6
Continuous
 62
     7
370
    25
100
AcDbCircle
 10
453.0070663597
 20
602.3118669388
 30
0.0
 40
48.17977797259052
100
AcDbArc
 50
282.8580809319
 51
295.5281512988
  0
LINE
  5
1D4
330
1F
100
AcDbEntity
  8
0
  6
Continuous
 62
     7
370
    25
100
AcDbLine
 10
463.7132053243
 20
555.4087470831
 30
0.0
 11
463.7288445962
 21
555.3402321265
 31
0.0
  0
LINE
  5
1D5
330
1F
100
AcDbEntity
  8
0
  6
Continuous
 62
     7
370
    25
100
AcDbLine
 10
461.4512603729
 20
561.0886033774
 30
0.0
 11
461.3078985439
 21
558.492955408
 31
0.0
  0
LINE
  5
1D6
330
1F
100
AcDbEntity
  8
0
  6
Continuous
 62
     7
370
    25
100
AcDbLine
 10
461.3078985439
 20
558.492955408
 30
0.0
 11
457.3578175221
 21
558.7111247617
 31
0.0
  0
SPLINE
  5
1D7
330
1F
100
AcDbEntity
  8
0
  6
Continuous
 62
     7
370
    25
100
AcDbSpline
210
0.0
220
0.0
230
1.0
 70
     8
 71
     3
 72
    17
 73
    13
 74
     0
 42
0.00000001
 43
0.00000001
 40
0.0
 40
0.0
 40
0.0
 40
0.0
 40
0.0068264277560524
 40
0.0088450004853816
 40
0.0223994102884418
 40
0.0309598270239211
 40
0.0563228448230689
 40
0.1198844474831666
 40
0.1957493698893797
 40
0.555871606010061
 40
0.7769840750939091
 40
1.0
 40
1.0
 40
1.0
 40
1.0
 10
444.9173519494116
 20
562.001797839648
 30
0.0
 10
444.9209720945808
 20
562.0007596566033
 30
0.0
 10
444.9256627156382
 20
561.9994144831301
 30
0.0
 10
444.9691954282697
 20
561.9918244950516
 30
0.0
 10
445.0437273522292
 20
561.9800729883207
 30
0.0
 10
445.2105595905128
 20
561.9543540927399
 30
0.0
 10
445.5921358367646
 20
561.8958395201187
 30
0.0
 10
446.2750353630701
 20
561.7866424641583
 30
0.0
 10
448.3800511641024
 20
561.4194710485216
 30
0.0
 10
451.188177432505
 20
560.7863041461658
 30
0.0
 10
454.5877431177625
 20
559.7738582696903
 30
0.0
 10
456.4318249177247
 20
559.066379973323
 30
0.0
 10
457.3578175220849
 20
558.7111247616534
 30
0.0
  0
LINE
  5
1D8
330
1F
100
AcDbEntity
  8
0
  6
Continuous
 62
     7
370
    25
100
AcDbLine
 10
457.3578175221
 20
558.7111247617
 30
0.0
 11
456.2283421046
 21
557.060952972
 31
0.0
  0
SPLINE
  5
1D9
330
1F
100
AcDbEntity
  8
0
  6
Continuous
 62
     7
370
    25
100
AcDbSpline
210
0.0
220
0.0
230
1.0
 70
     8
 71
     3
 72
    14
 73
    10
 74
     0
 42
0.00000001
 43
0.00000001
 40
0.0
 40
0.0
 40
0.0
 40
0.0
 40
0.2256458607195977
 40
0.4518169308148961
 40
0.8157761447763431
 40
0.8946140573305374
 40
0.9637846180221655
 40
0.994079914312567
 40
1.0
 40
1.0
 40
1.0
 40
1.0
 10
456.228342104593
 20
557.0609529720147
 30
0.0
 10
455.3825945575218
 20
557.6059766945158
 30
0.0
 10
453.689130916118
 20
558.697292727243
 30
0.0
 10
450.5089088160656
 20
560.2627338120451
 30
0.0
 10
447.8376307528992
 20
561.216112646281
 30
0.0
 10
445.8871022656481
 20
561.7375607924101
 30
0.0
 10
445.2430257552062
 20
561.8929414670523
 30
0.0
 10
444.9150748589795
 20
561.9684915278967
 30
0.0
 10
444.8225375263808
 20
561.9900123020418
 30
0.0
 10
444.8074105579946
 20
561.993530277555
 30
0.0
  0
SPLINE
  5
1DA
330
1F
100
AcDbEntity
  8
0
  6
Continuous
 62
     7
370
    25
100
AcDbSpline
210
0.0
220
0.0
230
1.0
 70
     8
 71
     3
 72
    11
 73
     7
 74
     0
 42
0.00000001
 43
0.00000001
 40
0.0
 40
0.0
 40
0.0
 40
0.0
 40
0.0195561212295927
 40
0.1681891996744411
 40
0.5898876540792777
 40
1.0
 40
1.0
 40
1.0
 40
1.0
 10
444.9173519494116
 20
562.001797839648
 30
0.0
 10
444.9153932362636
 20
562.0018559533637
 30
0.0
 10
444.8985476464408
 20
562.0023557508044
 30
0.0
 10
444.8466470826817
 20
562.003202168218
 30
0.0
 10
444.797362450616
 20
562.0011128696959
 30
0.0
 10
444.8040924356925
 20
561.9960342285124
 30
0.0
 10
444.8074105579946
 20
561.993530277555
 30
0.0
  0
LINE
  5
1DB
330
1F
100
AcDbEntity
  8
0
  6
Continuous
 62
     7
370
    25
100
AcDbLine
 10
464.2697126119
 20
560.0236293996
 30
0.0
 11
462.6607556186
 21
557.9817678986
 31
0.0
  0
LINE
  5
1DC
330
1F
100
AcDbEntity
  8
0
  6
Continuous
 62
     7
370
    25
100
AcDbLine
 10
473.6217578799
 20
558.9297815824
 30
0.0
 11
473.6211899944
 21
558.9303686233
 31
0.0
  0
ARC
  5
1DD
330
1F
100
AcDbEntity
  8
0
  6
Continuous
 62
     7
370
    25
100
AcDbCircle
 10
469.8350457666
 20
567.0863660397
 30
0.0
 40
11.59155496206734
100
AcDbArc
 50
231.762407147
 51
236.6533814372
  0
LWPOLYLINE
  5
1DE
330
1F
100
AcDbEntity
  8
0
  6
Continuous
 62
     7
370
    25
100
AcDbPolyline
 90
        4
 70
   128
 43
0.0
 10
444.807410558
 20
561.9935302776
 10
444.8051683117
 20
561.9761720226
 10
444.7961958288
 20
561.9067391609
 10
444.7898655476
 20
561.8577790149
  0
ARC
  5
1DF
330
1F
100
AcDbEntity
  8
0
  6
Continuous
 62
     7
370
    25
100
AcDbCircle
 10
438.3924314328
 20
531.0025579177
 30
0.0
 40
31.57783498432758
100
AcDbArc
 50
54.8280705831
 51
55.6099480104
  0
LINE
  5
1E0
330
1F
100
AcDbEntity
  8
0
  6
Continuous
 62
     7
370
    25
100
AcDbLine
 10
456.5822719703
 20
556.8151394143
 30
0.0
 11
456.5417900555
 21
556.7576929115
 31
0.0
  0
ARC
  5
1E1
330
1F
100
AcDbEntity
  8
0
  6
Continuous
 62
     7
370
    25
100
AcDbCircle
 10
438.3924314328
 20
531.0025579177
 30
0.0
 40
31.50755777528337
100
AcDbArc
 50
54.8280705831
 51
74.9420027521
  0
LINE
  5
1E2
330
1F
100
AcDbEntity
  8
0
  6
Continuous
 62
     7
370
    25
100
AcDbLine
 10
444.7898655476
 20
561.8577790149
 30
0.0
 11
446.5779898314
 21
561.4282515116
 31
0.0
  0
LINE
  5
1E3
330
1F
100
AcDbEntity
  8
0
  6
Continuous
 62
     7
370
    25
100
AcDbLine
 10
444.7160281383
 20
572.3046347683
 30
0.0
 11
444.7898655476
 21
572.3149530646
 31
0.0
  0
SPLINE
  5
1E4
330
1F
100
AcDbEntity
  8
0
  6
Continuous
 62
     7
370
    25
100
AcDbSpline
210
0.0
220
0.0
230
1.0
 70
     8
 71
     3
 72
    10
 73
     6
 74
     0
 42
0.00000001
 43
0.00000001
 40
0.0
 40
0.0
 40
0.0
 40
0.0
 40
0.0490769085761659
 40
0.599580584366531
 40
1.0
 40
1.0
 40
1.0
 40
1.0
 10
462.6607556186218
 20
557.98176789862
 30
0.0
 10
462.6418080802527
 20
557.9963906342214
 30
0.0
 10
462.4103229183461
 20
558.1750389764104
 30
0.0
 10
461.9644491435288
 20
558.4090909698317
 30
0.0
 10
461.5024425666444
 20
558.4681053428493
 30
0.0
 10
461.3078985438908
 20
558.4929554079816
 30
0.0
  0
ARC
  5
1E5
330
1F
100
AcDbEntity
  8
0
  6
Continuous
 62
     7
370
    25
100
AcDbCircle
 10
444.706057157
 20
561.5038325805
 30
0.0
 40
0.5000763405363362
100
AcDbArc
 50
78.306520338
 51
86.8373700343
  0
SPLINE
  5
1E6
330
1F
100
AcDbEntity
  8
0
  6
Continuous
 62
     7
370
    25
100
AcDbSpline
210
0.0
220
0.0
230
1.0
 70
     8
 71
     3
 72
     9
 73
     5
 74
     0
 42
0.00000001
 43
0.00000001
 40
0.0
 40
0.0
 40
0.0
 40
0.0
 40
0.8458911907785839
 40
1.0
 40
1.0
 40
1.0
 40
1.0
 10
444.789865547584
 20
561.8577790148688
 30
0.0
 10
444.769024951473
 20
561.8615938218611
 30
0.0
 10
444.7443875083381
 20
561.8661036300184
 30
0.0
 10
444.7198149811618
 20
561.8678310937695
 30
0.0
 10
444.7160281382592
 20
561.868097311151
 30
0.0
  0
LINE
  5
1E7
330
1F
100
AcDbEntity
  8
0
  6
Continuous
 62
     7
370
    25
100
AcDbLine
 10
426.7206079406
 20
562.9343531644
 30
0.0
 11
426.7210659604
 21
562.934328078
 31
0.0
  0
LINE
  5
1E8
330
1F
100
AcDbEntity
  8
0
  6
Continuous
 62
     7
370
    25
100
AcDbLine
 10
456.5827099417
 20
577.3569711549
 30
0.0
 11
458.421450791
 21
578.3539373906
 31
0.0
  0
LINE
  5
1E9
330
1F
100
AcDbEntity
  8
0
  6
Continuous
 62
     7
370
    25
100
AcDbLine
 10
459.1614752061
 20
576.4962114907
 30
0.0
 11
458.421450791
 21
578.3539373906
 31
0.0
  0
LINE
  5
1EA
330
1F
100
AcDbEntity
  8
0
  6
Continuous
 62
     7
370
    25
100
AcDbLine
 10
462.1482455329
 20
576.9753329777
 30
0.0
 11
462.2700792795
 21
578.9713134867
 31
0.0
  0
LINE
  5
1EB
330
1F
100
AcDbEntity
  8
0
  6
Continuous
 62
     7
370
    25
100
AcDbLine
 10
462.2700792795
 20
578.9713134867
 30
0.0
 11
463.7129865193
 21
578.7630264214
 31
0.0
  0
ARC
  5
1EC
330
1F
100
AcDbEntity
  8
0
  6
Continuous
 62
     7
370
    25
100
AcDbCircle
 10
461.7260305614
 20
564.1144715639
 30
0.0
 40
6.929946387144284
100
AcDbArc
 50
234.8280705831
 51
282.8580809319
  0
LINE
  5
1ED
330
1F
100
AcDbEntity
  8
0
  6
Continuous
 62
     7
370
    25
100
AcDbLine
 10
463.2681993193
 20
557.3582986494
 30
0.0
 11
463.7132053243
 21
555.4087470831
 31
0.0
  0
ARC
  5
1EE
330
1F
100
AcDbEntity
  8
0
  6
Continuous
 62
     7
370
    25
100
AcDbCircle
 10
461.7260305614
 20
564.1144715639
 30
0.0
 40
8.929641777457059
100
AcDbArc
 50
234.8280705831
 51
282.8580809319
  0
LINE
  5
1EF
330
1F
100
AcDbEntity
  8
0
  6
Continuous
 62
     7
370
    25
100
AcDbLine
 10
457.7341603214
 20
558.4497448348
 30
0.0
 11
456.5822719703
 21
556.8151394143
 31
0.0
  0
ARC
  5
1F0
330
1F
100
AcDbEntity
  8
0
  6
Continuous
 62
     7
370
    25
100
AcDbCircle
 10
453.0070663597
 20
602.3118669388
 30
0.0
 40
46.10980537323358
100
AcDbArc
 50
282.8580809319
 51
283.1066633214
  0
ARC
  5
1F1
330
1F
100
AcDbEntity
  8
0
  6
Continuous
 62
     7
370
    25
100
AcDbCircle
 10
438.3924314328
 20
531.0025579177
 30
0.0
 40
33.57753037464038
100
AcDbArc
 50
54.8280705831
 51
55.6099480104
  0
ARC
  5
1F2
330
1F
100
AcDbEntity
  8
0
  6
Continuous
 62
     7
370
    25
100
AcDbCircle
 10
461.7260305614
 20
570.0582605156
 30
0.0
 40
6.929946387144279
100
AcDbArc
 50
86.5070253286
 51
111.7198462835
  0
ARC
  5
1F3
330
1F
100
AcDbEntity
  8
0
  6
Continuous
 62
     7
370
    25
100
AcDbCircle
 10
461.7260305614
 20
570.0582605156
 30
0.0
 40
8.929641777457103
100
AcDbArc
 50
86.5070253286
 51
111.7198462835
  0
ARC
  5
1F4
330
1F
100
AcDbEntity
  8
0
  6
Continuous
 62
     7
370
    25
100
AcDbCircle
 10
461.7260305614
 20
570.0582605156
 30
0.0
 40
8.999918986501244
100
AcDbArc
 50
77.1419190681
 51
125.1719294169
  0
ARC
  5
1F5
330
1F
100
AcDbEntity
  8
0
  6
Continuous
 62
     7
370
    25
100
AcDbCircle
 10
461.7260305614
 20
564.1144715639
 30
0.0
 40
8.999918986501303
100
AcDbArc
 50
234.8280705831
 51
282.8580809319
  0
ARC
  5
1F6
330
1F
100
AcDbEntity
  8
0
  6
Continuous
 62
     7
370
    25
100
AcDbCircle
 10
469.8350457666
 20
567.0863660397
 30
0.0
 40
10.30000000000002
100
AcDbArc
 50
292.7308609266
 51
307.2691390734
  0
SPLINE
  5
1F7
330
1F
100
AcDbEntity
  8
0
  6
Continuous
 62
     7
370
    25
100
AcDbSpline
210
0.0
220
0.0
230
1.0
 70
    24
 71
     3
 72
    10
 73
     6
 74
     0
 42
0.00000001
 43
0.00000001
 40
0.0
 40
0.0
 40
0.0
 40
0.0
 40
0.076279423592935
 40
0.6729425033993409
 40
1.0
 40
1.0
 40
1.0
 40
1.0
 10
473.8149955150171
 20
557.5863660397449
 30
0.0
 10
473.739783549782
 20
557.5863660397449
 30
0.0
 10
473.0762582399818
 20
557.5863660397449
 30
0.0
 10
472.0625696935547
 20
557.5863660397449
 30
0.0
 10
471.0922741718155
 20
557.5863660397449
 30
0.0
 10
470.7487260985039
 20
557.5863660397449
 30
0.0
  0
SPLINE
  5
1F8
330
1F
100
AcDbEntity
  8
0
  6
Continuous
 62
     7
370
    25
100
AcDbSpline
210
0.0
220
0.0
230
1.0
 70
    24
 71
     3
 72
    10
 73
     6
 74
     0
 42
0.00000001
 43
0.00000001
 40
0.0
 40
0.0
 40
0.0
 40
0.0
 40
0.3848035719694788
 40
0.9302662133992883
 40
1.0
 40
1.0
 40
1.0
 40
1.0
 10
470.4541501877428
 20
576.5863660397449
 30
0.0
 10
470.8965718844682
 20
576.5863660397449
 30
0.0
 10
471.9661304502373
 20
576.5863660397449
 30
0.0
 10
473.0762938466598
 20
576.5863660397449
 30
0.0
 10
473.739787174952
 20
576.5863660397449
 30
0.0
 10
473.8149955150171
 20
576.5863660397449
 30
0.0
  0
ARC
  5
1F9
330
1F
100
AcDbEntity
  8
0
  6
Continuous
 62
     7
370
    25
100
AcDbCircle
 10
469.8350457666
 20
567.0863660397
 30
0.0
 40
10.3000000000001
100
AcDbArc
 50
52.7308609266
 51
67.2691390734
  0
SPLINE
  5
1FA
330
1F
100
AcDbEntity
  8
0
  6
Continuous
 62
     7
370
    25
100
AcDbSpline
210
0.0
220
0.0
230
1.0
 70
    24
 71
     3
 72
    11
 73
     7
 74
     0
 42
0.00000001
 43
0.00000001
 40
0.0
 40
0.0
 40
0.0
 40
0.0
 40
0.2431641197380913
 40
0.4936284730588932
 40
0.7421706076863291
 40
1.0
 40
1.0
 40
1.0
 40
1.0
 10
476.0723122283296
 20
575.2831036276676
 30
0.0
 10
476.3860712300263
 20
574.7396570953969
 30
0.0
 10
477.0230088550462
 20
573.63644876761
 30
0.0
 10
478.0333978240528
 20
571.8864037378835
 30
0.0
 10
479.0651049518889
 20
570.0994345739406
 30
0.0
 10
479.7192106947871
 20
568.9664901937183
 30
0.0
 10
480.052261976756
 20
568.3896284518221
 30
0.0
  0
ARC
  5
1FB
330
1F
100
AcDbEntity
  8
0
  6
Continuous
 62
     7
370
    25
100
AcDbCircle
 10
469.8350457666
 20
567.0863660397
 30
0.0
 40
10.30000000000002
100
AcDbArc
 50
352.7308609266
 51
7.2691390734
  0
SPLINE
  5
1FC
330
1F
100
AcDbEntity
  8
0
  6
Continuous
 62
     7
370
    25
100
AcDbSpline
210
0.0
220
0.0
230
1.0
 70
    24
 71
     3
 72
    11
 73
     7
 74
     0
 42
0.00000001
 43
0.00000001
 40
0.0
 40
0.0
 40
0.0
 40
0.0
 40
0.2431641197380911
 40
0.493628473058894
 40
0.742170607686329
 40
1.0
 40
1.0
 40
1.0
 40
1.0
 10
480.052261976756
 20
565.7831036276677
 30
0.0
 10
479.7385029750592
 20
565.2396570953968
 30
0.0
 10
479.1015653500393
 20
564.1364487676101
 30
0.0
 10
478.0911763810327
 20
562.3864037378835
 30
0.0
 10
477.0594692531968
 20
560.5994345739406
 30
0.0
 10
476.4053635102986
 20
559.4664901937183
 30
0.0
 10
476.0723122283296
 20
558.889628451822
 30
0.0
  0
SPLINE
  5
1FD
330
1F
100
AcDbEntity
  8
0
  6
Continuous
 62
     7
370
    25
100
AcDbSpline
210
0.0
220
0.0
230
1.0
 70
    24
 71
     3
 72
    10
 73
     6
 74
     0
 42
0.00000001
 43
0.00000001
 40
0.0
 40
0.0
 40
0.0
 40
0.0
 40
0.4659072110093477
 40
0.9422777323363251
 40
1.0
 40
1.0
 40
1.0
 40
1.0
 10
673.0673805619133
 20
557.5863660397449
 30
0.0
 10
672.4291621954577
 20
557.5863660397449
 30
0.0
 10
671.1383924008104
 20
557.5863660397449
 30
0.0
 10
669.814147142487
 20
557.5863660397449
 30
0.0
 10
669.129129538731
 20
557.5863660397449
 30
0.0
 10
669.0550960181641
 20
557.5863660397449
 30
0.0
  0
ARC
  5
1FE
330
1F
100
AcDbEntity
  8
0
  6
Continuous
 62
     7
370
    25
100
AcDbCircle
 10
673.0350457666
 20
567.0863660397
 30
0.0
 40
10.30000000000002
100
AcDbArc
 50
232.7308609266
 51
247.2691390734
  0
SPLINE
  5
1FF
330
1F
100
AcDbEntity
  8
0
  6
Continuous
 62
     7
370
    25
100
AcDbSpline
210
0.0
220
0.0
230
1.0
 70
    24
 71
     3
 72
    11
 73
     7
 74
     0
 42
0.00000001
 43
0.00000001
 40
0.0
 40
0.0
 40
0.0
 40
0.0
 40
0.2431641197380911
 40
0.4936284730588937
 40
0.7421706076863289
 40
1.0
 40
1.0
 40
1.0
 40
1.0
 10
666.7977793048517
 20
558.889628451822
 30
0.0
 10
666.484020303155
 20
559.4330749840929
 30
0.0
 10
665.847082678135
 20
560.5362833118796
 30
0.0
 10
664.8366937091284
 20
562.2863283416062
 30
0.0
 10
663.8049865812925
 20
564.0732975055491
 30
0.0
 10
663.1508808383942
 20
565.2062418857714
 30
0.0
 10
662.8178295564253
 20
565.7831036276677
 30
0.0
  0
ARC
  5
200
330
1F
100
AcDbEntity
  8
0
  6
Continuous
 62
     7
370
    25
100
AcDbCircle
 10
673.0350457666
 20
567.0863660397
 30
0.0
 40
10.29999999999997
100
AcDbArc
 50
172.7308609266
 51
187.2691390734
  0
SPLINE
  5
201
330
1F
100
AcDbEntity
  8
0
  6
Continuous
 62
     7
370
    25
100
AcDbSpline
210
0.0
220
0.0
230
1.0
 70
    24
 71
     3
 72
    11
 73
     7
 74
     0
 42
0.00000001
 43
0.00000001
 40
0.0
 40
0.0
 40
0.0
 40
0.0
 40
0.2431641197380909
 40
0.4936284730588934
 40
0.7421706076863288
 40
1.0
 40
1.0
 40
1.0
 40
1.0
 10
662.8178295564253
 20
568.3896284518221
 30
0.0
 10
663.1315885581221
 20
568.9330749840929
 30
0.0
 10
663.768526183142
 20
570.0362833118797
 30
0.0
 10
664.7789151521484
 20
571.7863283416062
 30
0.0
 10
665.8106222799845
 20
573.5732975055491
 30
0.0
 10
666.4647280228828
 20
574.7062418857714
 30
0.0
 10
666.7977793048517
 20
575.2831036276676
 30
0.0
  0
ARC
  5
202
330
1F
100
AcDbEntity
  8
0
  6
Continuous
 62
     7
370
    25
100
AcDbCircle
 10
673.0350457666
 20
567.0863660397
 30
0.0
 40
10.30000000000008
100
AcDbArc
 50
112.7308609266
 51
127.2691390734
  0
SPLINE
  5
203
330
1F
100
AcDbEntity
  8
0
  6
Continuous
 62
     7
370
    25
100
AcDbSpline
210
0.0
220
0.0
230
1.0
 70
    24
 71
     3
 72
    10
 73
     6
 74
     0
 42
0.00000001
 43
0.00000001
 40
0.0
 40
0.0
 40
0.0
 40
0.0
 40
0.0993746184585311
 40
0.9194937980719894
 40
1.0
 40
1.0
 40
1.0
 40
1.0
 10
669.0550960181642
 20
576.5863660397449
 30
0.0
 10
669.1291536333763
 20
576.5863660397449
 30
0.0
 10
669.8143941801453
 20
576.5863660397449
 30
0.0
 10
670.5771010567562
 20
576.5863660397449
 30
0.0
 10
671.2905696014499
 20
576.5863660397449
 30
0.0
 10
671.3543459993901
 20
576.5863660397449
 30
0.0
  0
LINE
  5
204
330
1F
100
AcDbEntity
  8
0
  6
Continuous
 62
     7
370
    25
100
AcDbLine
 10
664.5912980797
 20
562.2113660397
 30
0.0
 11
664.0054961294
 21
563.4080874547
 31
0.0
  0
LINE
  5
205
330
1F
100
AcDbEntity
  8
0
  6
Continuous
 62
     7
370
    25
100
AcDbLine
 10
663.9308704031
 20
570.5758489458
 30
0.0
 11
664.0361556184
 21
570.8390285747
 31
0.0
  0
LWPOLYLINE
  5
206
330
1F
100
AcDbEntity
  8
0
  6
Continuous
 62
     7
370
    25
100
AcDbPolyline
 90
        3
 70
   128
 43
0.0
 10
665.8586937338
 20
560.4861788075
 10
665.6664874166
 20
560.7014738838
 10
664.5912980797
 20
562.2113660397
  0
ARC
  5
207
330
1F
100
AcDbEntity
  8
0
  6
Continuous
 62
     7
370
    25
100
AcDbCircle
 10
673.0350457666
 20
567.0863660397
 30
0.0
 40
14.87500000000014
100
AcDbArc
 50
55.1611835908
 51
308.4167037132
  0
ARC
  5
208
330
1F
100
AcDbEntity
  8
0
  6
Continuous
 62
     7
370
    25
100
AcDbCircle
 10
673.0350457666
 20
567.0863660397
 30
0.0
 40
10.57500000000004
100
AcDbArc
 50
84.5490172093
 51
281.0490866707
  0
SPLINE
  5
209
330
1F
100
AcDbEntity
  8
0
  6
Continuous
 62
     7
370
    25
100
AcDbSpline
210
0.0
220
0.0
230
1.0
 70
     8
 71
     3
 72
     9
 73
     5
 74
     0
 42
0.00000001
 43
0.00000001
 40
0.0
 40
0.0
 40
0.0
 40
0.0
 40
0.5850553834534097
 40
1.0
 40
1.0
 40
1.0
 40
1.0
 10
661.9086351186758
 20
553.8578745878086
 30
0.0
 10
662.1684100384847
 20
553.4713280622447
 30
0.0
 10
662.6124276941731
 20
552.8106273209194
 30
0.0
 10
663.2842788862059
 20
552.3324684887932
 30
0.0
 10
663.5630599214603
 20
552.1340590555484
 30
0.0
  0
SPLINE
  5
20A
330
1F
100
AcDbEntity
  8
0
  6
Continuous
 62
     7
370
    25
100
AcDbSpline
210
0.0
220
0.0
230
1.0
 70
    24
 71
     3
 72
    11
 73
     7
 74
     0
 42
0.00000001
 43
0.00000001
 40
0.0
 40
0.0
 40
0.0
 40
0.0
 40
0.2379053903768482
 40
0.4814905141303176
 40
0.7366519444348056
 40
0.9999999999999999
 40
0.9999999999999999
 40
0.9999999999999999
 40
0.9999999999999999
 10
656.0156307915103
 20
564.0648574916827
 30
0.0
 10
656.4723629022855
 20
563.2737742703719
 30
0.0
 10
657.3967311080191
 20
561.6727215731399
 30
0.0
 10
658.8730572005388
 20
559.1156497723563
 30
0.0
 10
660.4051905850023
 20
556.461916906493
 30
0.0
 10
661.4022395496487
 20
554.7349774420913
 30
0.0
 10
661.9086351186758
 20
553.8578745878086
 30
0.0
  0
SPLINE
  5
20B
330
1F
100
AcDbEntity
  8
0
  6
Continuous
 62
     7
370
    25
100
AcDbSpline
210
0.0
220
0.0
230
1.0
 70
     8
 71
     3
 72
     9
 73
     5
 74
     0
 42
0.00000001
 43
0.00000001
 40
0.0
 40
0.0
 40
0.0
 40
0.0
 40
0.5841917497409942
 40
1.0
 40
1.0
 40
1.0
 40
1.0
 10
655.3499751505278
 20
566.3595391656736
 30
0.0
 10
655.406667298936
 20
565.8791810401074
 30
0.0
 10
655.503711032322
 20
565.0569199832212
 30
0.0
 10
655.8652852490951
 20
564.3562159921566
 30
0.0
 10
656.0156307915103
 20
564.0648574916827
 30
0.0
  0
ARC
  5
20C
330
1F
100
AcDbEntity
  8
0
  6
Continuous
 62
     7
370
    25
100
AcDbCircle
 10
673.0350457666
 20
567.0863660397
 30
0.0
 40
17.70000000000003
100
AcDbArc
 50
177.6465635726
 51
182.3534364274
  0
SPLINE
  5
20D
330
1F
100
AcDbEntity
  8
0
  6
Continuous
 62
     7
370
    25
100
AcDbSpline
210
0.0
220
0.0
230
1.0
 70
     8
 71
     3
 72
     9
 73
     5
 74
     0
 42
0.00000001
 43
0.00000001
 40
0.0
 40
0.0
 40
0.0
 40
0.0
 40
0.5850553834536183
 40
1.0
 40
1.0
 40
1.0
 40
1.0
 10
656.0156307915105
 20
570.1078745878073
 30
0.0
 10
655.810759140532
 20
569.6896296452047
 30
0.0
 10
655.4605843420898
 20
568.9747487049875
 30
0.0
 10
655.3824122424412
 20
568.1538290890618
 30
0.0
 10
655.3499751505278
 20
567.813192913816
 30
0.0
  0
SPLINE
  5
20E
330
1F
100
AcDbEntity
  8
0
  6
Continuous
 62
     7
370
    25
100
AcDbSpline
210
0.0
220
0.0
230
1.0
 70
    24
 71
     3
 72
    11
 73
     7
 74
     0
 42
0.00000001
 43
0.00000001
 40
0.0
 40
0.0
 40
0.0
 40
0.0
 40
0.2328716322111468
 40
0.4710265024313225
 40
0.7311421212560294
 40
1.0
 40
1.0
 40
1.0
 40
1.0
 10
661.9086351186767
 20
580.3148574916825
 30
0.0
 10
661.4617069035164
 20
579.540755115689
 30
0.0
 10
660.5577108606069
 20
577.9749880395282
 30
0.0
 10
659.0938744903253
 20
575.4395490722334
 30
0.0
 10
657.5503250350864
 20
572.7660429917643
 30
0.0
 10
656.5328010245933
 20
571.003639707669
 30
0.0
 10
656.0156307915104
 20
570.1078745878073
 30
0.0
  0
SPLINE
  5
20F
330
1F
100
AcDbEntity
  8
0
  6
Continuous
 62
     7
370
    25
100
AcDbSpline
210
0.0
220
0.0
230
1.0
 70
     8
 71
     3
 72
     9
 73
     5
 74
     0
 42
0.00000001
 43
0.00000001
 40
0.0
 40
0.0
 40
0.0
 40
0.0
 40
0.584191749740925
 40
1.0
 40
1.0
 40
1.0
 40
1.0
 10
663.5630599214603
 20
582.0386730239413
 30
0.0
 10
663.1754036560098
 20
581.7493971204416
 30
0.0
 10
662.5118265588966
 20
581.2542242536081
 30
0.0
 10
662.0857862104882
 20
580.5907398009969
 30
0.0
 10
661.9086351186767
 20
580.3148574916825
 30
0.0
  0
ARC
  5
210
330
1F
100
AcDbEntity
  8
0
  6
Continuous
 62
     7
370
    25
100
AcDbCircle
 10
673.0350457666
 20
567.0863660397
 30
0.0
 40
17.70000000000005
100
AcDbArc
 50
117.6465635726
 51
122.3534364274
  0
SPLINE
  5
211
330
1F
100
AcDbEntity
  8
0
  6
Continuous
 62
     7
370
    25
100
AcDbSpline
210
0.0
220
0.0
230
1.0
 70
     8
 71
     3
 72
     9
 73
     5
 74
     0
 42
0.00000001
 43
0.00000001
 40
0.0
 40
0.0
 40
0.0
 40
0.0
 40
0.5850553834536162
 40
1.0
 40
1.0
 40
1.0
 40
1.0
 10
667.1420414394245
 20
583.3363660397448
 30
0.0
 10
666.6773948686371
 20
583.3046676227061
 30
0.0
 10
665.8832024145066
 20
583.2504874238136
 30
0.0
 10
665.1331791228257
 20
582.9077266400137
 30
0.0
 10
664.8219609956582
 20
582.7654998980125
 30
0.0
  0
SPLINE
  5
212
330
1F
100
AcDbEntity
  8
0
  6
Continuous
 62
     7
370
    25
100
AcDbSpline
210
0.0
220
0.0
230
1.0
 70
    24
 71
     3
 72
    11
 73
     7
 74
     0
 42
0.00000001
 43
0.00000001
 40
0.0
 40
0.0
 40
0.0
 40
0.0
 40
0.2328716322111479
 40
0.4710265024313248
 40
0.7311421212560302
 40
0.9999999999999999
 40
0.9999999999999999
 40
0.9999999999999999
 40
0.9999999999999999
 10
678.928050093757
 20
583.3363660397448
 30
0.0
 10
678.0341936634366
 20
583.3363660397448
 30
0.0
 10
676.2262015776172
 20
583.3363660397448
 30
0.0
 10
673.2985288370542
 20
583.3363660397448
 30
0.0
 10
670.2114299265762
 20
583.3363660397448
 30
0.0
 10
668.17638190559
 20
583.3363660397448
 30
0.0
 10
667.1420414394245
 20
583.3363660397448
 30
0.0
  0
SPLINE
  5
213
330
1F
100
AcDbEntity
  8
0
  6
Continuous
 62
     7
370
    25
100
AcDbSpline
210
0.0
220
0.0
230
1.0
 70
     8
 71
     3
 72
     9
 73
     5
 74
     0
 42
0.00000001
 43
0.00000001
 40
0.0
 40
0.0
 40
0.0
 40
0.0
 40
0.5841917497409234
 40
1.0
 40
1.0
 40
1.0
 40
1.0
 10
681.2481305375233
 20
582.7654998980125
 30
0.0
 10
680.8037821236644
 20
582.956582120079
 30
0.0
 10
680.0431612931652
 20
583.2836703101318
 30
0.0
 10
679.2555467279836
 20
583.3208898485851
 30
0.0
 10
678.928050093757
 20
583.3363660397448
 30
0.0
  0
ARC
  5
214
330
1F
100
AcDbEntity
  8
0
  6
Continuous
 62
     7
370
    25
100
AcDbCircle
 10
673.0350457666
 20
567.0863660397
 30
0.0
 40
17.70000000000007
100
AcDbArc
 50
57.6465635726
 51
62.3534364274
  0
SPLINE
  5
215
330
1F
100
AcDbEntity
  8
0
  6
Continuous
 62
     7
370
    25
100
AcDbSpline
210
0.0
220
0.0
230
1.0
 70
     8
 71
     3
 72
     9
 73
     5
 74
     0
 42
0.00000001
 43
0.00000001
 40
0.0
 40
0.0
 40
0.0
 40
0.0
 40
0.5850553834536193
 40
1.0
 40
1.0
 40
1.0
 40
1.0
 10
684.1614564145046
 20
580.3148574916825
 30
0.0
 10
683.9016814946958
 20
580.7014040172462
 30
0.0
 10
683.4576638390075
 20
581.3621047585709
 30
0.0
 10
682.7858126469752
 20
581.8402635906966
 30
0.0
 10
682.507031611721
 20
582.0386730239413
 30
0.0
  0
LINE
  5
216
330
1F
100
AcDbEntity
  8
0
  6
Continuous
 62
     7
370
    25
100
AcDbLine
 10
685.4765118739
 20
578.0371146212
 30
0.0
 11
684.1614564145
 21
580.3148574917
 31
0.0
  0
SPLINE
  5
217
330
1F
100
AcDbEntity
  8
0
  6
Continuous
 62
     7
370
    25
100
AcDbSpline
210
0.0
220
0.0
230
1.0
 70
    24
 71
     3
 72
     9
 73
     5
 74
     0
 42
0.00000001
 43
0.00000001
 40
0.0
 40
0.0
 40
0.0
 40
0.0
 40
0.7598805654552347
 40
1.0
 40
1.0
 40
1.0
 40
1.0
 10
684.1614564145046
 20
553.8578745878073
 30
0.0
 10
684.6065349865175
 20
554.6287732878939
 30
0.0
 10
685.1922567331269
 20
555.6432731121191
 30
0.0
 10
685.804121290872
 20
556.7030536134841
 30
0.0
 10
685.9510418624957
 20
556.9575275082136
 30
0.0
  0
SPLINE
  5
218
330
1F
100
AcDbEntity
  8
0
  6
Continuous
 62
     7
370
    25
100
AcDbSpline
210
0.0
220
0.0
230
1.0
 70
     8
 71
     3
 72
     9
 73
     5
 74
     0
 42
0.00000001
 43
0.00000001
 40
0.0
 40
0.0
 40
0.0
 40
0.0
 40
0.5841917497409237
 40
1.0
 40
1.0
 40
1.0
 40
1.0
 10
682.507031611721
 20
552.1340590555484
 30
0.0
 10
682.8946878771716
 20
552.423334959048
 30
0.0
 10
683.5582649742847
 20
552.9185078258816
 30
0.0
 10
683.9843053226932
 20
553.5819922784929
 30
0.0
 10
684.1614564145046
 20
553.8578745878073
 30
0.0
  0
ARC
  5
219
330
1F
100
AcDbEntity
  8
0
  6
Continuous
 62
     7
370
    25
100
AcDbCircle
 10
673.0350457666
 20
567.0863660397
 30
0.0
 40
17.69999999999996
100
AcDbArc
 50
297.6465635726
 51
302.3534364274
  0
SPLINE
  5
21A
330
1F
100
AcDbEntity
  8
0
  6
Continuous
 62
     7
370
    25
100
AcDbSpline
210
0.0
220
0.0
230
1.0
 70
     8
 71
     3
 72
     9
 73
     5
 74
     0
 42
0.00000001
 43
0.00000001
 40
0.0
 40
0.0
 40
0.0
 40
0.0
 40
0.5850553834536171
 40
1.0
 40
1.0
 40
1.0
 40
1.0
 10
678.928050093757
 20
550.8363660397448
 30
0.0
 10
679.3926966645442
 20
550.8680644567835
 30
0.0
 10
680.1868891186748
 20
550.9222446556761
 30
0.0
 10
680.9369124103557
 20
551.2650054394761
 30
0.0
 10
681.2481305375233
 20
551.4072321814772
 30
0.0
  0
SPLINE
  5
21B
330
1F
100
AcDbEntity
  8
0
  6
Continuous
 62
     7
370
    25
100
AcDbSpline
210
0.0
220
0.0
230
1.0
 70
    24
 71
     3
 72
    11
 73
     7
 74
     0
 42
0.00000001
 43
0.00000001
 40
0.0
 40
0.0
 40
0.0
 40
0.0
 40
0.2328716322111485
 40
0.471026502431326
 40
0.7311421212560308
 40
1.0
 40
1.0
 40
1.0
 40
1.0
 10
667.1420414394245
 20
550.8363660397448
 30
0.0
 10
668.0358978697449
 20
550.8363660397448
 30
0.0
 10
669.8438899555642
 20
550.8363660397448
 30
0.0
 10
672.7715626961271
 20
550.8363660397448
 30
0.0
 10
675.8586616066051
 20
550.8363660397448
 30
0.0
 10
677.8937096275912
 20
550.8363660397448
 30
0.0
 10
678.928050093757
 20
550.8363660397448
 30
0.0
  0
SPLINE
  5
21C
330
1F
100
AcDbEntity
  8
0
  6
Continuous
 62
     7
370
    25
100
AcDbSpline
210
0.0
220
0.0
230
1.0
 70
     8
 71
     3
 72
     9
 73
     5
 74
     0
 42
0.00000001
 43
0.00000001
 40
0.0
 40
0.0
 40
0.0
 40
0.0
 40
0.5841917497409266
 40
1.0
 40
1.0
 40
1.0
 40
1.0
 10
664.8219609956583
 20
551.4072321814772
 30
0.0
 10
665.2663094095169
 20
551.2161499594106
 30
0.0
 10
666.0269302400161
 20
550.8890617693578
 30
0.0
 10
666.8145448051978
 20
550.8518422309046
 30
0.0
 10
667.1420414394245
 20
550.8363660397448
 30
0.0
  0
ARC
  5
21D
330
1F
100
AcDbEntity
  8
0
  6
Continuous
 62
     7
370
    25
100
AcDbCircle
 10
673.0350457666
 20
567.0863660397
 30
0.0
 40
17.69999999999996
100
AcDbArc
 50
237.6465635726
 51
242.3534364274
  0
ARC
  5
21E
330
1F
100
AcDbEntity
  8
0
  6
Continuous
 62
     7
370
    25
100
AcDbCircle
 10
673.0350457666
 20
567.0863660397
 30
0.0
 40
16.19999999999998
100
AcDbArc
 50
210.0
 51
318.1420914366
  0
ARC
  5
21F
330
1F
100
AcDbEntity
  8
0
  6
Continuous
 62
     7
370
    25
100
AcDbCircle
 10
673.0350457666
 20
567.0863660397
 30
0.0
 40
16.19999999999999
100
AcDbArc
 50
45.9729863763
 51
210.0
  0
ARC
  5
220
330
1F
100
AcDbEntity
  8
0
  6
Continuous
 62
     7
370
    25
100
AcDbCircle
 10
469.8350457666
 20
567.0863660397
 30
0.0
 40
14.87500000000005
100
AcDbArc
 50
233.3837470415
 51
30.0
  0
ARC
  5
221
330
1F
100
AcDbEntity
  8
0
  6
Continuous
 62
     7
370
    25
100
AcDbCircle
 10
469.8350457666
 20
567.0863660397
 30
0.0
 40
14.87500000000005
100
AcDbArc
 50
30.0
 51
126.6162529585
  0
ARC
  5
222
330
1F
100
AcDbEntity
  8
0
  6
Continuous
 62
     7
370
    25
100
AcDbCircle
 10
469.8350457666
 20
567.0863660397
 30
0.0
 40
10.57500000000001
100
AcDbArc
 50
261.6509017607
 51
30.0
  0
ARC
  5
223
330
1F
100
AcDbEntity
  8
0
  6
Continuous
 62
     7
370
    25
100
AcDbCircle
 10
469.8350457666
 20
567.0863660397
 30
0.0
 40
10.57500000000004
100
AcDbArc
 50
30.0
 51
98.3490982393
  0
SPLINE
  5
224
330
1F
100
AcDbEntity
  8
0
  6
Continuous
 62
     7
370
    25
100
AcDbSpline
210
0.0
220
0.0
230
1.0
 70
     8
 71
     3
 72
     9
 73
     5
 74
     0
 42
0.00000001
 43
0.00000001
 40
0.0
 40
0.0
 40
0.0
 40
0.0
 40
0.5850553834534097
 40
1.0
 40
1.0
 40
1.0
 40
1.0
 10
458.7086351186758
 20
553.8578745878086
 30
0.0
 10
458.9684100384846
 20
553.4713280622447
 30
0.0
 10
459.4124276941731
 20
552.8106273209194
 30
0.0
 10
460.0842788862059
 20
552.3324684887933
 30
0.0
 10
460.3630599214603
 20
552.1340590555484
 30
0.0
  0
LINE
  5
225
330
1F
100
AcDbEntity
  8
0
  6
Continuous
 62
     7
370
    25
100
AcDbLine
 10
457.2033098393
 20
556.4651744535
 30
0.0
 11
458.7086351187
 21
553.8578745878
 31
0.0
  0
SPLINE
  5
226
330
1F
100
AcDbEntity
  8
0
  6
Continuous
 62
     7
370
    25
100
AcDbSpline
210
0.0
220
0.0
230
1.0
 70
    24
 71
     3
 72
     9
 73
     5
 74
     0
 42
0.00000001
 43
0.00000001
 40
0.0
 40
0.0
 40
0.0
 40
0.0
 40
0.9286188355902005
 40
1.0
 40
1.0
 40
1.0
 40
1.0
 10
458.7086351186767
 20
580.3148574916825
 30
0.0
 10
458.2646738985344
 20
579.5458941018059
 30
0.0
 10
457.7865862234551
 20
578.717821958096
 30
0.0
 10
457.2871061176529
 20
577.8526970374766
 30
0.0
 10
457.2514526461011
 20
577.7909434132829
 30
0.0
  0
SPLINE
  5
227
330
1F
100
AcDbEntity
  8
0
  6
Continuous
 62
     7
370
    25
100
AcDbSpline
210
0.0
220
0.0
230
1.0
 70
     8
 71
     3
 72
     9
 73
     5
 74
     0
 42
0.00000001
 43
0.00000001
 40
0.0
 40
0.0
 40
0.0
 40
0.0
 40
0.584191749740925
 40
1.0
 40
1.0
 40
1.0
 40
1.0
 10
460.3630599214603
 20
582.0386730239413
 30
0.0
 10
459.9754036560097
 20
581.7493971204416
 30
0.0
 10
459.3118265588966
 20
581.2542242536081
 30
0.0
 10
458.8857862104881
 20
580.5907398009969
 30
0.0
 10
458.7086351186767
 20
580.3148574916825
 30
0.0
  0
ARC
  5
228
330
1F
100
AcDbEntity
  8
0
  6
Continuous
 62
     7
370
    25
100
AcDbCircle
 10
469.8350457666
 20
567.0863660397
 30
0.0
 40
17.70000000000002
100
AcDbArc
 50
117.6465635726
 51
122.3534364274
  0
SPLINE
  5
229
330
1F
100
AcDbEntity
  8
0
  6
Continuous
 62
     7
370
    25
100
AcDbSpline
210
0.0
220
0.0
230
1.0
 70
     8
 71
     3
 72
     9
 73
     5
 74
     0
 42
0.00000001
 43
0.00000001
 40
0.0
 40
0.0
 40
0.0
 40
0.0
 40
0.5850553834536162
 40
1.0
 40
1.0
 40
1.0
 40
1.0
 10
463.9420414394244
 20
583.3363660397448
 30
0.0
 10
463.477394868637
 20
583.3046676227061
 30
0.0
 10
462.6832024145066
 20
583.2504874238136
 30
0.0
 10
461.9331791228255
 20
582.9077266400137
 30
0.0
 10
461.6219609956582
 20
582.7654998980125
 30
0.0
  0
SPLINE
  5
22A
330
1F
100
AcDbEntity
  8
0
  6
Continuous
 62
     7
370
    25
100
AcDbSpline
210
0.0
220
0.0
230
1.0
 70
    24
 71
     3
 72
    11
 73
     7
 74
     0
 42
0.00000001
 43
0.00000001
 40
0.0
 40
0.0
 40
0.0
 40
0.0
 40
0.2328716322111479
 40
0.4710265024313248
 40
0.7311421212560302
 40
0.9999999999999999
 40
0.9999999999999999
 40
0.9999999999999999
 40
0.9999999999999999
 10
475.7280500937568
 20
583.3363660397448
 30
0.0
 10
474.8341936634365
 20
583.3363660397448
 30
0.0
 10
473.0262015776171
 20
583.3363660397448
 30
0.0
 10
470.0985288370542
 20
583.3363660397448
 30
0.0
 10
467.0114299265762
 20
583.3363660397448
 30
0.0
 10
464.97638190559
 20
583.3363660397448
 30
0.0
 10
463.9420414394244
 20
583.3363660397448
 30
0.0
  0
SPLINE
  5
22B
330
1F
100
AcDbEntity
  8
0
  6
Continuous
 62
     7
370
    25
100
AcDbSpline
210
0.0
220
0.0
230
1.0
 70
     8
 71
     3
 72
     9
 73
     5
 74
     0
 42
0.00000001
 43
0.00000001
 40
0.0
 40
0.0
 40
0.0
 40
0.0
 40
0.5841917497409234
 40
1.0
 40
1.0
 40
1.0
 40
1.0
 10
478.0481305375231
 20
582.7654998980125
 30
0.0
 10
477.6037821236644
 20
582.956582120079
 30
0.0
 10
476.8431612931651
 20
583.2836703101318
 30
0.0
 10
476.0555467279835
 20
583.3208898485851
 30
0.0
 10
475.7280500937568
 20
583.3363660397448
 30
0.0
  0
ARC
  5
22C
330
1F
100
AcDbEntity
  8
0
  6
Continuous
 62
     7
370
    25
100
AcDbCircle
 10
469.8350457666
 20
567.0863660397
 30
0.0
 40
17.70000000000005
100
AcDbArc
 50
57.6465635726
 51
62.3534364274
  0
SPLINE
  5
22D
330
1F
100
AcDbEntity
  8
0
  6
Continuous
 62
     7
370
    25
100
AcDbSpline
210
0.0
220
0.0
230
1.0
 70
     8
 71
     3
 72
     9
 73
     5
 74
     0
 42
0.00000001
 43
0.00000001
 40
0.0
 40
0.0
 40
0.0
 40
0.0
 40
0.5850553834536193
 40
1.0
 40
1.0
 40
1.0
 40
1.0
 10
480.9614564145046
 20
580.3148574916825
 30
0.0
 10
480.7016814946957
 20
580.7014040172462
 30
0.0
 10
480.2576638390075
 20
581.3621047585709
 30
0.0
 10
479.5858126469751
 20
581.8402635906966
 30
0.0
 10
479.307031611721
 20
582.0386730239413
 30
0.0
  0
SPLINE
  5
22E
330
1F
100
AcDbEntity
  8
0
  6
Continuous
 62
     7
370
    25
100
AcDbSpline
210
0.0
220
0.0
230
1.0
 70
    24
 71
     3
 72
    11
 73
     7
 74
     0
 42
0.00000001
 43
0.00000001
 40
0.0
 40
0.0
 40
0.0
 40
0.0
 40
0.2556279644380972
 40
0.5185037642963867
 40
0.7560467972580103
 40
1.0
 40
1.0
 40
1.0
 40
1.0
 10
486.8544607416709
 20
570.1078745878074
 30
0.0
 10
486.3631676634027
 20
570.9588191607747
 30
0.0
 10
485.3666518439587
 20
572.6848351905978
 30
0.0
 10
483.8464409375055
 20
575.3179177187951
 30
0.0
 10
482.3547252159573
 20
577.9016451389658
 30
0.0
 10
481.4299830524509
 20
579.5033455500602
 30
0.0
 10
480.9614564145046
 20
580.3148574916825
 30
0.0
  0
SPLINE
  5
22F
330
1F
100
AcDbEntity
  8
0
  6
Continuous
 62
     7
370
    25
100
AcDbSpline
210
0.0
220
0.0
230
1.0
 70
     8
 71
     3
 72
     9
 73
     5
 74
     0
 42
0.00000001
 43
0.00000001
 40
0.0
 40
0.0
 40
0.0
 40
0.0
 40
0.5841917497409242
 40
1.0
 40
1.0
 40
1.0
 40
1.0
 10
487.5201163826534
 20
567.813192913816
 30
0.0
 10
487.4634242342453
 20
568.2935510393824
 30
0.0
 10
487.3663805008592
 20
569.1158120962688
 30
0.0
 10
487.0048062840861
 20
569.8165160873332
 30
0.0
 10
486.8544607416709
 20
570.1078745878074
 30
0.0
  0
ARC
  5
230
330
1F
100
AcDbEntity
  8
0
  6
Continuous
 62
     7
370
    25
100
AcDbCircle
 10
469.8350457666
 20
567.0863660397
 30
0.0
 40
17.70000000000003
100
AcDbArc
 50
357.6465635726
 51
2.3534364274
  0
SPLINE
  5
231
330
1F
100
AcDbEntity
  8
0
  6
Continuous
 62
     7
370
    25
100
AcDbSpline
210
0.0
220
0.0
230
1.0
 70
     8
 71
     3
 72
     9
 73
     5
 74
     0
 42
0.00000001
 43
0.00000001
 40
0.0
 40
0.0
 40
0.0
 40
0.0
 40
0.5850553834536182
 40
0.9999999999999999
 40
0.9999999999999999
 40
0.9999999999999999
 40
0.9999999999999999
 10
486.8544607416709
 20
564.0648574916825
 30
0.0
 10
487.0593323926493
 20
564.4831024342849
 30
0.0
 10
487.4095071910916
 20
565.1979833745021
 30
0.0
 10
487.4876792907401
 20
566.0189029904279
 30
0.0
 10
487.5201163826534
 20
566.3595391656736
 30
0.0
  0
SPLINE
  5
232
330
1F
100
AcDbEntity
  8
0
  6
Continuous
 62
     7
370
    25
100
AcDbSpline
210
0.0
220
0.0
230
1.0
 70
    24
 71
     3
 72
    11
 73
     7
 74
     0
 42
0.00000001
 43
0.00000001
 40
0.0
 40
0.0
 40
0.0
 40
0.0
 40
0.2328716322111471
 40
0.471026502431323
 40
0.7311421212560296
 40
1.0
 40
1.0
 40
1.0
 40
1.0
 10
480.9614564145046
 20
553.8578745878073
 30
0.0
 10
481.4083846296649
 20
554.6319769638009
 30
0.0
 10
482.3123806725745
 20
556.1977440399615
 30
0.0
 10
483.776217042856
 20
558.7331830072562
 30
0.0
 10
485.319766498095
 20
561.4066890877255
 30
0.0
 10
486.337290508588
 20
563.1690923718207
 30
0.0
 10
486.8544607416709
 20
564.0648574916825
 30
0.0
  0
SPLINE
  5
233
330
1F
100
AcDbEntity
  8
0
  6
Continuous
 62
     7
370
    25
100
AcDbSpline
210
0.0
220
0.0
230
1.0
 70
     8
 71
     3
 72
     9
 73
     5
 74
     0
 42
0.00000001
 43
0.00000001
 40
0.0
 40
0.0
 40
0.0
 40
0.0
 40
0.5841917497409237
 40
1.0
 40
1.0
 40
1.0
 40
1.0
 10
479.307031611721
 20
552.1340590555484
 30
0.0
 10
479.6946878771715
 20
552.423334959048
 30
0.0
 10
480.3582649742847
 20
552.9185078258816
 30
0.0
 10
480.7843053226931
 20
553.5819922784929
 30
0.0
 10
480.9614564145046
 20
553.8578745878073
 30
0.0
  0
ARC
  5
234
330
1F
100
AcDbEntity
  8
0
  6
Continuous
 62
     7
370
    25
100
AcDbCircle
 10
469.8350457666
 20
567.0863660397
 30
0.0
 40
17.69999999999996
100
AcDbArc
 50
297.6465635726
 51
302.3534364274
  0
SPLINE
  5
235
330
1F
100
AcDbEntity
  8
0
  6
Continuous
 62
     7
370
    25
100
AcDbSpline
210
0.0
220
0.0
230
1.0
 70
     8
 71
     3
 72
     9
 73
     5
 74
     0
 42
0.00000001
 43
0.00000001
 40
0.0
 40
0.0
 40
0.0
 40
0.0
 40
0.5850553834536171
 40
1.0
 40
1.0
 40
1.0
 40
1.0
 10
475.7280500937568
 20
550.8363660397448
 30
0.0
 10
476.1926966645441
 20
550.8680644567835
 30
0.0
 10
476.9868891186747
 20
550.9222446556761
 30
0.0
 10
477.7369124103557
 20
551.2650054394761
 30
0.0
 10
478.0481305375231
 20
551.4072321814772
 30
0.0
  0
SPLINE
  5
236
330
1F
100
AcDbEntity
  8
0
  6
Continuous
 62
     7
370
    25
100
AcDbSpline
210
0.0
220
0.0
230
1.0
 70
    24
 71
     3
 72
    11
 73
     7
 74
     0
 42
0.00000001
 43
0.00000001
 40
0.0
 40
0.0
 40
0.0
 40
0.0
 40
0.2328716322111485
 40
0.471026502431326
 40
0.7311421212560308
 40
1.0
 40
1.0
 40
1.0
 40
1.0
 10
463.9420414394244
 20
550.8363660397448
 30
0.0
 10
464.8358978697449
 20
550.8363660397448
 30
0.0
 10
466.6438899555641
 20
550.8363660397448
 30
0.0
 10
469.5715626961271
 20
550.8363660397448
 30
0.0
 10
472.6586616066051
 20
550.8363660397448
 30
0.0
 10
474.6937096275913
 20
550.8363660397448
 30
0.0
 10
475.7280500937568
 20
550.8363660397448
 30
0.0
  0
SPLINE
  5
237
330
1F
100
AcDbEntity
  8
0
  6
Continuous
 62
     7
370
    25
100
AcDbSpline
210
0.0
220
0.0
230
1.0
 70
     8
 71
     3
 72
     9
 73
     5
 74
     0
 42
0.00000001
 43
0.00000001
 40
0.0
 40
0.0
 40
0.0
 40
0.0
 40
0.5841917497409266
 40
1.0
 40
1.0
 40
1.0
 40
1.0
 10
461.6219609956582
 20
551.4072321814772
 30
0.0
 10
462.0663094095169
 20
551.2161499594106
 30
0.0
 10
462.8269302400161
 20
550.8890617693578
 30
0.0
 10
463.6145448051977
 20
550.8518422309046
 30
0.0
 10
463.9420414394244
 20
550.8363660397448
 30
0.0
  0
ARC
  5
238
330
1F
100
AcDbEntity
  8
0
  6
Continuous
 62
     7
370
    25
100
AcDbCircle
 10
469.8350457666
 20
567.0863660397
 30
0.0
 40
17.69999999999993
100
AcDbArc
 50
237.6465635726
 51
242.3534364274
  0
ARC
  5
239
330
1F
100
AcDbEntity
  8
0
  6
Continuous
 62
     7
370
    25
100
AcDbCircle
 10
469.8350457666
 20
567.0863660397
 30
0.0
 40
16.20000000000004
100
AcDbArc
 50
223.9250761661
 51
136.0749238339
  0
SPLINE
  5
23A
330
1F
100
AcDbEntity
  8
0
  6
Continuous
 62
     7
370
    25
100
AcDbSpline
210
0.0
220
0.0
230
1.0
 70
    24
 71
     3
 72
    10
 73
     6
 74
     0
 42
0.00000001
 43
0.00000001
 40
0.0
 40
0.0
 40
0.0
 40
0.0
 40
0.1516742927762401
 40
0.573718668931815
 40
1.0
 40
1.0
 40
1.0
 40
1.0
 10
687.4064121300602
 20
577.008650556164
 30
0.0
 10
687.1840179979898
 20
577.3938484922148
 30
0.0
 10
686.342796568213
 20
578.8508867490041
 30
0.0
 10
684.8908265495436
 20
581.3657725924062
 30
0.0
 10
683.688973575436
 20
583.4474430067881
 30
0.0
 10
683.0850457665907
 20
584.4934766558121
 30
0.0
  0
SPLINE
  5
23B
330
1F
100
AcDbEntity
  8
0
  6
Continuous
 62
     7
370
    25
100
AcDbSpline
210
0.0
220
0.0
230
1.0
 70
    24
 71
     3
 72
     9
 73
     5
 74
     0
 42
0.00000001
 43
0.00000001
 40
0.0
 40
0.0
 40
0.0
 40
0.0
 40
0.6197129473236728
 40
1.0
 40
1.0
 40
1.0
 40
1.0
 10
683.0850457665907
 20
549.6792554236777
 30
0.0
 10
683.9562937925455
 20
551.1883012706255
 30
0.0
 10
685.3621834543922
 20
553.6233735947797
 30
0.0
 10
686.8161724163582
 20
556.1417563505491
 30
0.0
 10
687.3691055933282
 20
557.0994647062518
 30
0.0
  0
SPLINE
  5
23C
330
1F
100
AcDbEntity
  8
0
  6
Continuous
 62
     7
370
    25
100
AcDbSpline
210
0.0
220
0.0
230
1.0
 70
    24
 71
     3
 72
     9
 73
     5
 74
     0
 42
0.00000001
 43
0.00000001
 40
0.0
 40
0.0
 40
0.0
 40
0.0
 40
0.5881605129007254
 40
1.0
 40
1.0
 40
1.0
 40
1.0
 10
662.9850457665907
 20
549.6792554236775
 30
0.0
 10
664.7281688234087
 20
549.6792554236775
 30
0.0
 10
667.6918547876724
 20
549.6792554236775
 30
0.0
 10
670.7569000182839
 20
549.6792554236775
 30
0.0
 10
672.0192066739951
 20
549.6792554236775
 30
0.0
  0
SPLINE
  5
23D
330
1F
100
AcDbEntity
  8
0
  6
Continuous
 62
     7
370
    25
100
AcDbSpline
210
0.0
220
0.0
230
1.0
 70
    24
 71
     3
 72
     9
 73
     5
 74
     0
 42
0.00000001
 43
0.00000001
 40
0.0
 40
0.0
 40
0.0
 40
0.0
 40
0.4345208978429723
 40
1.0
 40
1.0
 40
1.0
 40
1.0
 10
674.7661097906978
 20
549.6792554236775
 30
0.0
 10
675.9913153359633
 20
549.6792554236775
 30
0.0
 10
678.8109853480335
 20
549.6792554236777
 30
0.0
 10
681.541178560238
 20
549.6792554236777
 30
0.0
 10
683.0850457665907
 20
549.6792554236777
 30
0.0
  0
SPLINE
  5
23E
330
1F
100
AcDbEntity
  8
0
  6
Continuous
 62
     7
370
    25
100
AcDbSpline
210
0.0
220
0.0
230
1.0
 70
    24
 71
     3
 72
     9
 73
     5
 74
     0
 42
0.00000001
 43
0.00000001
 40
0.0
 40
0.0
 40
0.0
 40
0.0
 40
0.5290062514329625
 40
1.0
 40
1.0
 40
1.0
 40
1.0
 10
660.2521059892525
 20
554.4128459720533
 30
0.0
 10
660.7413201149384
 20
553.565502250585
 30
0.0
 10
661.6660995941235
 20
551.9637372068393
 30
0.0
 10
662.5627357448564
 20
550.410717837867
 30
0.0
 10
662.9850457665907
 20
549.6792554236775
 30
0.0
  0
SPLINE
  5
23F
330
1F
100
AcDbEntity
  8
0
  6
Continuous
 62
     7
370
    25
100
AcDbSpline
210
0.0
220
0.0
230
1.0
 70
    24
 71
     3
 72
     9
 73
     5
 74
     0
 42
0.00000001
 43
0.00000001
 40
0.0
 40
0.0
 40
0.0
 40
0.0
 40
0.9659881130670709
 40
1.0
 40
1.0
 40
1.0
 40
1.0
 10
662.9850457665907
 20
584.4934766558121
 30
0.0
 10
662.11723830287
 20
582.9903900374603
 30
0.0
 10
661.2188758365189
 20
581.4343806021275
 30
0.0
 10
660.2896560970421
 20
579.8249248019576
 30
0.0
 10
660.2580515803271
 20
579.7701841732587
 30
0.0
  0
SPLINE
  5
240
330
1F
100
AcDbEntity
  8
0
  6
Continuous
 62
     7
370
    25
100
AcDbSpline
210
0.0
220
0.0
230
1.0
 70
    24
 71
     3
 72
     9
 73
     5
 74
     0
 42
0.00000001
 43
0.00000001
 40
0.0
 40
0.0
 40
0.0
 40
0.0
 40
0.6058510256477487
 40
1.0
 40
1.0
 40
1.0
 40
1.0
 10
683.0850457665907
 20
584.4934766558121
 30
0.0
 10
681.3422742528003
 20
584.4934766558121
 30
0.0
 10
678.4657065158269
 20
584.4934766558121
 30
0.0
 10
675.4907391466691
 20
584.4934766558121
 30
0.0
 10
674.318158809384
 20
584.4934766558121
 30
0.0
  0
SPLINE
  5
241
330
1F
100
AcDbEntity
  8
0
  6
Continuous
 62
     7
370
    25
100
AcDbSpline
210
0.0
220
0.0
230
1.0
 70
    24
 71
     3
 72
     9
 73
     5
 74
     0
 42
0.00000001
 43
0.00000001
 40
0.0
 40
0.0
 40
0.0
 40
0.0
 40
0.4538337404283768
 40
1.0
 40
1.0
 40
1.0
 40
1.0
 10
671.6017237797906
 20
584.4934766558121
 30
0.0
 10
670.276541959141
 20
584.4934766558121
 30
0.0
 10
667.3565699460447
 20
584.4934766558121
 30
0.0
 10
664.5292386985855
 20
584.4934766558121
 30
0.0
 10
662.9850457665907
 20
584.4934766558121
 30
0.0
  0
SPLINE
  5
242
330
1F
100
AcDbEntity
  8
0
  6
Continuous
 62
     7
370
    25
100
AcDbSpline
210
0.0
220
0.0
230
1.0
 70
    24
 71
     3
 72
    10
 73
     6
 74
     0
 42
0.00000001
 43
0.00000001
 40
0.0
 40
0.0
 40
0.0
 40
0.0
 40
0.1444117226198174
 40
0.5700692474338062
 40
1.0
 40
1.0
 40
1.0
 40
1.0
 10
455.5009859398533
 20
557.0994647062514
 30
0.0
 10
455.7109265958026
 20
556.7358368235728
 30
0.0
 10
456.5396731100858
 20
555.3004057542387
 30
0.0
 10
457.9792464049024
 20
552.806991666397
 30
0.0
 10
459.1811117442475
 20
550.7252998347954
 30
0.0
 10
459.7850457665907
 20
549.6792554236775
 30
0.0
  0
SPLINE
  5
243
330
1F
100
AcDbEntity
  8
0
  6
Continuous
 62
     7
370
    25
100
AcDbSpline
210
0.0
220
0.0
230
1.0
 70
    24
 71
     3
 72
     9
 73
     5
 74
     0
 42
0.00000001
 43
0.00000001
 40
0.0
 40
0.0
 40
0.0
 40
0.0
 40
0.5920686517903692
 40
1.0
 40
1.0
 40
1.0
 40
1.0
 10
459.7850457665907
 20
584.4934766558121
 30
0.0
 10
458.9135230691357
 20
582.9839550638707
 30
0.0
 10
457.4415270517491
 20
580.4343831732181
 30
0.0
 10
455.9191859283497
 20
577.7976110010388
 30
0.0
 10
455.2981752614464
 20
576.7219889739201
 30
0.0
  0
SPLINE
  5
244
330
1F
100
AcDbEntity
  8
0
  6
Continuous
 62
     7
370
    25
100
AcDbSpline
210
0.0
220
0.0
230
1.0
 70
    24
 71
     3
 72
     9
 73
     5
 74
     0
 42
0.00000001
 43
0.00000001
 40
0.0
 40
0.0
 40
0.0
 40
0.0
 40
0.6162682864357912
 40
1.0
 40
1.0
 40
1.0
 40
1.0
 10
479.8850457665906
 20
584.4934766558121
 30
0.0
 10
478.1424812629331
 20
584.4934766558121
 30
0.0
 10
475.3148742904314
 20
584.4934766558121
 30
0.0
 10
472.390531011041
 20
584.4934766558121
 30
0.0
 10
471.2683677533905
 20
584.4934766558121
 30
0.0
  0
SPLINE
  5
245
330
1F
100
AcDbEntity
  8
0
  6
Continuous
 62
     7
370
    25
100
AcDbSpline
210
0.0
220
0.0
230
1.0
 70
    24
 71
     3
 72
     9
 73
     5
 74
     0
 42
0.00000001
 43
0.00000001
 40
0.0
 40
0.0
 40
0.0
 40
0.0
 40
0.4630847895199843
 40
1.0
 40
1.0
 40
1.0
 40
1.0
 10
468.5519327237973
 20
584.4934766558121
 30
0.0
 10
467.1763052142607
 20
584.4934766558121
 30
0.0
 10
464.205731486364
 20
584.4934766558121
 30
0.0
 10
461.3293947244989
 20
584.4934766558121
 30
0.0
 10
459.7850457665907
 20
584.4934766558121
 30
0.0
  0
SPLINE
  5
246
330
1F
100
AcDbEntity
  8
0
  6
Continuous
 62
     7
370
    25
100
AcDbSpline
210
0.0
220
0.0
230
1.0
 70
    24
 71
     3
 72
     9
 73
     5
 74
     0
 42
0.00000001
 43
0.00000001
 40
0.0
 40
0.0
 40
0.0
 40
0.0
 40
0.5286328760408042
 40
1.0
 40
1.0
 40
1.0
 40
1.0
 10
482.6157997510762
 20
579.7636720117118
 30
0.0
 10
482.1273200041558
 20
580.6097437518465
 30
0.0
 10
481.2032765534743
 20
582.210233956828
 30
0.0
 10
480.3073541385867
 20
583.7620170990531
 30
0.0
 10
479.8850457665906
 20
584.4934766558121
 30
0.0
  0
SPLINE
  5
247
330
1F
100
AcDbEntity
  8
0
  6
Continuous
 62
     7
370
    25
100
AcDbSpline
210
0.0
220
0.0
230
1.0
 70
    24
 71
     3
 72
     9
 73
     5
 74
     0
 42
0.00000001
 43
0.00000001
 40
0.0
 40
0.0
 40
0.0
 40
0.0
 40
0.9651475940341748
 40
1.0
 40
1.0
 40
1.0
 40
1.0
 10
479.8850457665906
 20
549.6792554236777
 30
0.0
 10
480.752861581641
 20
551.1823565069566
 30
0.0
 10
481.6520150586993
 20
552.7397360130238
 30
0.0
 10
482.5820526815872
 20
554.3506084288163
 30
0.0
 10
482.6144667303835
 20
554.4067512082106
 30
0.0
  0
SPLINE
  5
248
330
1F
100
AcDbEntity
  8
0
  6
Continuous
 62
     7
370
    25
100
AcDbSpline
210
0.0
220
0.0
230
1.0
 70
    24
 71
     3
 72
     9
 73
     5
 74
     0
 42
0.00000001
 43
0.00000001
 40
0.0
 40
0.0
 40
0.0
 40
0.0
 40
0.6380134089095435
 40
1.0
 40
1.0
 40
1.0
 40
1.0
 10
459.7850457665907
 20
549.6792554236775
 30
0.0
 10
461.5271781546674
 20
549.6792554236775
 30
0.0
 10
464.2577357945992
 20
549.6792554236777
 30
0.0
 10
467.081732721621
 20
549.6792554236777
 30
0.0
 10
468.1039817424836
 20
549.6792554236777
 30
0.0
  0
SPLINE
  5
249
330
1F
100
AcDbEntity
  8
0
  6
Continuous
 62
     7
370
    25
100
AcDbSpline
210
0.0
220
0.0
230
1.0
 70
    24
 71
     3
 72
     9
 73
     5
 74
     0
 42
0.00000001
 43
0.00000001
 40
0.0
 40
0.0
 40
0.0
 40
0.0
 40
0.4787933681683263
 40
1.0
 40
1.0
 40
1.0
 40
1.0
 10
470.8508848591863
 20
549.6792554236777
 30
0.0
 10
472.3162854803135
 20
549.6792554236777
 30
0.0
 10
475.3768972568159
 20
549.6792554236777
 30
0.0
 10
478.3404318716673
 20
549.6792554236777
 30
0.0
 10
479.8850457665906
 20
549.6792554236777
 30
0.0
  0
ARC
  5
24A
330
1F
100
AcDbEntity
  8
0
  6
Continuous
 62
     7
370
    25
100
AcDbCircle
 10
673.0350457666
 20
567.0863660397
 30
0.0
 40
25.79999999999995
100
AcDbArc
 50
207.7177476896
 51
270.0
  0
ARC
  5
24B
330
1F
100
AcDbEntity
  8
0
  6
Continuous
 62
     7
370
    25
100
AcDbCircle
 10
673.0350457666
 20
567.0863660397
 30
0.0
 40
25.80000000000007
100
AcDbArc
 50
12.355358281
 51
152.2822523104
  0
ARC
  5
24C
330
1F
100
AcDbEntity
  8
0
  6
Continuous
 62
     7
370
    25
100
AcDbCircle
 10
673.0350457666
 20
567.0863660397
 30
0.0
 40
25.80000000000004
100
AcDbArc
 50
270.0
 51
348.632283567
  0
ARC
  5
24D
330
1F
100
AcDbEntity
  8
0
  6
Continuous
 62
     7
370
    25
100
AcDbCircle
 10
469.8350457666
 20
567.0863660397
 30
0.0
 40
25.80000000000007
100
AcDbArc
 50
27.7177476896
 51
90.0
  0
ARC
  5
24E
330
1F
100
AcDbEntity
  8
0
  6
Continuous
 62
     7
370
    25
100
AcDbCircle
 10
469.8350457666
 20
567.0863660397
 30
0.0
 40
25.79999999999998
100
AcDbArc
 50
191.8273896223
 51
332.2822523104
  0
ARC
  5
24F
330
1F
100
AcDbEntity
  8
0
  6
Continuous
 62
     7
370
    25
100
AcDbCircle
 10
469.8350457666
 20
567.0863660397
 30
0.0
 40
25.80000000000007
100
AcDbArc
 50
90.0
 51
168.1084633881
  0
ARC
  5
250
330
1F
100
AcDbEntity
  8
0
  6
Continuous
 62
     8
370
    25
100
AcDbCircle
 10
571.4829860202
 20
354.3102212349
 30
0.0
 40
8.552179660359718
100
AcDbArc
 50
269.6788200558
 51
359.6965866989
  0
ARC
  5
251
330
1F
100
AcDbEntity
  8
0
  6
Continuous
 62
     8
370
    25
100
AcDbCircle
 10
571.387105513
 20
354.3102212349
 30
0.0
 40
8.552179660359888
100
AcDbArc
 50
180.3034133011
 51
270.3211799442
  0
ARC
  5
252
330
1F
100
AcDbEntity
  8
0
  6
Continuous
 62
     8
370
    25
100
AcDbCircle
 10
571.5312838008
 20
353.833009267
 30
0.0
 40
9.955997552053141
100
AcDbArc
 50
269.4461510226
 51
31.3357400043
  0
ARC
  5
253
330
1F
100
AcDbEntity
  8
0
  6
Continuous
 62
     8
370
    25
100
AcDbCircle
 10
571.3388077324
 20
353.833009267
 30
0.0
 40
9.955997552053367
100
AcDbArc
 50
148.6642599957
 51
270.5538489774
  0
LINE
  5
254
330
1F
100
AcDbEntity
  8
0
  6
Continuous
 62
     8
370
    25
100
AcDbLine
 10
581.7953464203
 20
351.5079689333
 30
0.0
 11
581.9971837372
 21
351.4478645634
 31
0.0
  0
SPLINE
  5
255
330
1F
100
AcDbEntity
  8
0
  6
Continuous
 62
     8
370
    25
100
AcDbSpline
210
0.0
220
0.0
230
1.0
 70
     8
 71
     3
 72
    17
 73
    13
 74
     0
 42
0.00000001
 43
0.00000001
 40
0.0
 40
0.0
 40
0.0
 40
0.0
 40
0.0731312447878047
 40
0.1443713787281192
 40
0.2157940506389751
 40
0.2235404521581152
 40
0.3262571899665899
 40
0.4292520996701576
 40
0.5722351771141763
 40
0.7154264869982963
 40
0.9581468428673594
 40
1.0
 40
1.0
 40
1.0
 40
1.0
 10
549.6547137957253
 20
567.0863660397448
 30
0.0
 10
549.6891378542894
 20
567.6169329050732
 30
0.0
 10
549.7570957949852
 20
568.6643466346926
 30
0.0
 10
550.2699838481379
 20
570.1292112538114
 30
0.0
 10
550.769380285528
 20
571.053177272412
 30
0.0
 10
551.4587434002822
 20
572.096103216623
 30
0.0
 10
552.3913976140825
 20
573.2101953158708
 30
0.0
 10
554.1393299972297
 20
574.7120531957889
 30
0.0
 10
556.2744438802323
 20
576.0607667989302
 30
0.0
 10
559.3525234134175
 20
577.4194186358008
 30
0.0
 10
561.9204541309966
 20
578.2738240129144
 30
0.0
 10
563.6944628757719
 20
578.4888112529649
 30
0.0
 10
563.955372143
 20
578.5204301293826
 30
0.0
  0
SPLINE
  5
256
330
1F
100
AcDbEntity
  8
0
  6
Continuous
 62
     8
370
    25
100
AcDbSpline
210
0.0
220
0.0
230
1.0
 70
     8
 71
     3
 72
    22
 73
    18
 74
     0
 42
0.00000001
 43
0.00000001
 40
0.0
 40
0.0
 40
0.0
 40
0.0
 40
0.1107535219701287
 40
0.1958060594754305
 40
0.2807166115734699
 40
0.3370134190752447
 40
0.3931574830570968
 40
0.4657173715461822
 40
0.5175164266427882
 40
0.5372547423498474
 40
0.5971589127659271
 40
0.6104455118500777
 40
0.6583619606931747
 40
0.7064176563005073
 40
0.8119189207152679
 40
0.917903846436298
 40
1.0
 40
1.0
 40
1.0
 40
1.0
 10
578.7867126850074
 20
578.564416036693
 30
0.0
 10
580.1061419683128
 20
578.2934596224081
 30
0.0
 10
582.4388194680879
 20
577.8144237703018
 30
0.0
 10
585.6654007104609
 20
576.5360839179801
 30
0.0
 10
588.135209484155
 20
575.1421581521616
 30
0.0
 10
590.1125090589268
 20
573.5706208517822
 30
0.0
 10
591.7437301132525
 20
571.7752244691019
 30
0.0
 10
592.9369282789937
 20
569.5764719120752
 30
0.0
 10
593.2584066381735
 20
567.5369009958838
 30
0.0
 10
593.150193239305
 20
565.687874147845
 30
0.0
 10
592.76542069527
 20
564.4185610679984
 30
0.0
 10
592.0202110256523
 20
562.9525051285051
 30
0.0
 10
591.1833753058216
 20
561.7464679771332
 30
0.0
 10
589.3459510053401
 20
559.8719020790609
 30
0.0
 10
586.5968837771612
 20
558.0465414551625
 30
0.0
 10
583.2474244547054
 20
556.6132412206964
 30
0.0
 10
581.0111603388802
 20
556.1087949035096
 30
0.0
 10
580.0350457665905
 20
555.8886074052353
 30
0.0
  0
SPLINE
  5
257
330
1F
100
AcDbEntity
  8
0
  6
Continuous
 62
     8
370
    25
100
AcDbSpline
210
0.0
220
0.0
230
1.0
 70
     8
 71
     3
 72
    15
 73
    11
 74
     0
 42
0.00000001
 43
0.00000001
 40
0.0
 40
0.0
 40
0.0
 40
0.0
 40
0.1802452008580825
 40
0.3707932583356554
 40
0.560842282800682
 40
0.6690977579283565
 40
0.7770395974925335
 40
0.851009936672266
 40
0.9248044152513846
 40
1.0
 40
1.0
 40
1.0
 40
1.0
 10
562.8350457665906
 20
555.8937806748878
 30
0.0
 10
561.8007319789516
 20
556.1269690577071
 30
0.0
 10
559.6729827926521
 20
556.6066749242707
 30
0.0
 10
556.5852812109304
 20
557.9248442377777
 30
0.0
 10
554.0534786780761
 20
559.4932535908594
 30
0.0
 10
552.1742343568893
 20
561.1888231423094
 30
0.0
 10
551.0145740979581
 20
562.6463290240299
 30
0.0
 10
550.2331297546639
 20
564.1321413419389
 30
0.0
 10
549.7503444062384
 20
565.5594673689646
 30
0.0
 10
549.686789888638
 20
566.574218900147
 30
0.0
 10
549.6547137957253
 20
567.0863660397448
 30
0.0
  0
SPLINE
  5
258
330
1F
100
AcDbEntity
  8
0
  6
Continuous
 62
     8
370
    25
100
AcDbSpline
210
0.0
220
0.0
230
1.0
 70
     8
 71
     3
 72
    13
 73
     9
 74
     0
 42
0.00000001
 43
0.00000001
 40
0.0
 40
0.0
 40
0.0
 40
0.0
 40
0.246873581239535
 40
0.4413811989636142
 40
0.6398169724544361
 40
0.7569724566612596
 40
0.8777345843649657
 40
1.0
 40
1.0
 40
1.0
 40
1.0
 10
650.4217753264264
 20
574.286366039745
 30
0.0
 10
651.0726072022978
 20
574.9469821540323
 30
0.0
 10
652.2362187651613
 20
576.1280867951804
 30
0.0
 10
654.0119691959629
 20
577.3928704965244
 30
0.0
 10
655.3511948336203
 20
578.2060004706423
 30
0.0
 10
656.3034508142534
 20
578.7162351517594
 30
0.0
 10
656.9278943675645
 20
579.0261918620944
 30
0.0
 10
656.9937599699826
 20
579.0571545053468
 30
0.0
 10
657.0268964825981
 20
579.0727315893037
 30
0.0
  0
SPLINE
  5
259
330
1F
100
AcDbEntity
  8
0
  6
Continuous
 62
     8
370
    25
100
AcDbSpline
210
0.0
220
0.0
230
1.0
 70
     8
 71
     3
 72
    14
 73
    10
 74
     0
 42
0.00000001
 43
0.00000001
 40
0.0
 40
0.0
 40
0.0
 40
0.0
 40
0.0338406719493978
 40
0.1227065900592135
 40
0.2392973242781097
 40
0.3605097605622855
 40
0.5545600826377888
 40
0.7532538867057824
 40
1.0
 40
1.0
 40
1.0
 40
1.0
 10
485.8670240451093
 20
579.0612812903396
 30
0.0
 10
485.8504762250111
 20
579.0692740099014
 30
0.0
 10
485.7904736760013
 20
579.0982556850938
 30
0.0
 10
486.0437101692047
 20
578.976618665632
 30
0.0
 10
486.5441188953241
 20
578.7272155683718
 30
0.0
 10
487.5052293277081
 20
578.2144447778885
 30
0.0
 10
488.8438764256164
 20
577.4017042540667
 30
0.0
 10
490.6232364830886
 20
576.1390124982311
 30
0.0
 10
491.7977232905073
 20
574.946785771866
 30
0.0
 10
492.4483162067463
 20
574.2863660397546
 30
0.0
  0
SPLINE
  5
25A
330
1F
100
AcDbEntity
  8
0
  6
Continuous
 62
     8
370
    25
100
AcDbSpline
210
0.0
220
0.0
230
1.0
 70
     8
 71
     3
 72
    13
 73
     9
 74
     0
 42
0.00000001
 43
0.00000001
 40
0.0
 40
0.0
 40
0.0
 40
0.0
 40
0.0616988709538129
 40
0.2371847626742214
 40
0.2807307886799653
 40
0.487411842866282
 40
0.6949099454175248
 40
0.9999999999999999
 40
0.9999999999999999
 40
0.9999999999999999
 40
0.9999999999999999
 10
657.0536648837506
 20
555.0870360687213
 30
0.0
 10
657.04155775844
 20
555.0928254816039
 30
0.0
 10
656.9950151621327
 20
555.1150813267975
 30
0.0
 10
656.5630062427792
 20
555.3243703491048
 30
0.0
 10
655.7114809433364
 20
555.7707418079477
 30
0.0
 10
654.5795914602992
 20
556.4199635201304
 30
0.0
 10
652.5886792778546
 20
557.7359723710904
 30
0.0
 10
651.2302851232432
 20
559.0840165184502
 30
0.0
 10
650.4217753264264
 20
559.8863660397449
 30
0.0
  0
SPLINE
  5
25B
330
1F
100
AcDbEntity
  8
0
  6
Continuous
 62
     8
370
    25
100
AcDbSpline
210
0.0
220
0.0
230
1.0
 70
     8
 71
     3
 72
    13
 73
     9
 74
     0
 42
0.00000001
 43
0.00000001
 40
0.0
 40
0.0
 40
0.0
 40
0.0
 40
0.3086570593896741
 40
0.5142462440525061
 40
0.7190373955263313
 40
0.8855430685586471
 40
0.9382954799300373
 40
1.0
 40
1.0
 40
1.0
 40
1.0
 10
492.4483162067548
 20
559.8863660397449
 30
0.0
 10
491.6296503260865
 20
559.0751229270966
 30
0.0
 10
490.2656904182843
 20
557.7235299179565
 30
0.0
 10
488.2764057638655
 20
556.4113971650547
 30
0.0
 10
486.8512871376244
 20
555.595813847097
 30
0.0
 10
486.1009720977813
 20
555.2245830961807
 30
0.0
 10
485.848950264892
 20
555.1025606173467
 30
0.0
 10
485.8278037662425
 20
555.0924666728547
 30
0.0
 10
485.8164035431726
 20
555.0870249578563
 30
0.0
  0
ARC
  5
25C
330
1F
100
AcDbEntity
  8
0
  6
Continuous
 62
     8
370
    25
100
AcDbCircle
 10
673.0350457666
 20
567.0863660397
 30
0.0
 40
24.80000000000006
100
AcDbArc
 50
270.0
 51
347.7891131326
  0
ARC
  5
25D
330
1F
100
AcDbEntity
  8
0
  6
Continuous
 62
     8
370
    25
100
AcDbCircle
 10
673.0350457666
 20
567.0863660397
 30
0.0
 40
24.80000000000004
100
AcDbArc
 50
13.4605379577
 51
151.0614722598
  0
ARC
  5
25E
330
1F
100
AcDbEntity
  8
0
  6
Continuous
 62
     8
370
    25
100
AcDbCircle
 10
673.0350457666
 20
567.0863660397
 30
0.0
 40
24.80000000000001
100
AcDbArc
 50
208.9385277402
 51
270.0
  0
ARC
  5
25F
330
1F
100
AcDbEntity
  8
0
  6
Continuous
 62
     8
370
    25
100
AcDbCircle
 10
469.8350457666
 20
567.0863660397
 30
0.0
 40
24.80000000000007
100
AcDbArc
 50
90.0
 51
167.1597533419
  0
ARC
  5
260
330
1F
100
AcDbEntity
  8
0
  6
Continuous
 62
     8
370
    25
100
AcDbCircle
 10
469.8350457666
 20
567.0863660397
 30
0.0
 40
24.80000000000001
100
AcDbArc
 50
192.8474248147
 51
331.0614722598
  0
ARC
  5
261
330
1F
100
AcDbEntity
  8
0
  6
Continuous
 62
     8
370
    25
100
AcDbCircle
 10
469.8350457666
 20
567.0863660397
 30
0.0
 40
24.80000000000007
100
AcDbArc
 50
28.9385277402
 51
90.0
  0
ENDSEC
  0
SECTION
  2
OBJECTS
  0
DICTIONARY
  5
C
330
0
100
AcDbDictionary
281
     1
  3
ACAD_GROUP
350
D
  3
ACAD_LAYOUT
350
1A
  3
ACAD_MLINESTYLE
350
17
  3
ACAD_PLOTSETTINGS
350
19
  3
ACAD_PLOTSTYLENAME
350
E
  3
ACAD_SCALELIST
350
47
  3
DWGPROPS
350
262
  0
DICTIONARY
  5
D
102
{ACAD_REACTORS
330
C
102
}
330
C
100
AcDbDictionary
281
     1
  0
DICTIONARY
  5
1A
102
{ACAD_REACTORS
330
C
102
}
330
C
100
AcDbDictionary
281
     1
  3
Layout1
350
1E
  3
Layout2
350
26
  3
Model
350
22
  0
DICTIONARY
  5
17
102
{ACAD_REACTORS
330
C
102
}
330
C
100
AcDbDictionary
281
     1
  3
Standard
350
18
  0
DICTIONARY
  5
19
102
{ACAD_REACTORS
330
C
102
}
330
C
100
AcDbDictionary
281
     1
  0
ACDBDICTIONARYWDFLT
  5
E
102
{ACAD_REACTORS
330
C
102
}
330
C
100
AcDbDictionary
281
     1
  3
Normal
350
F
100
AcDbDictionaryWithDefault
340
F
  0
DICTIONARY
  5
47
102
{ACAD_REACTORS
330
C
102
}
330
C
100
AcDbDictionary
281
     1
  3
A0
350
48
  3
A1
350
49
  3
A2
350
4A
  3
A3
350
4B
  3
A4
350
4C
  3
A5
350
4D
  3
A6
350
4E
  3
A7
350
4F
  3
A8
350
50
  3
A9
350
51
  3
B0
350
52
  3
B1
350
53
  3
B2
350
54
  3
B3
350
55
  3
B4
350
56
  3
B5
350
57
  3
B6
350
58
  3
B7
350
59
  3
B8
350
5A
  3
B9
350
5B
  3
C0
350
5C
  3
C1
350
5D
  3
C2
350
5E
  3
C3
350
5F
  3
C4
350
60
  3
C5
350
61
  3
C6
350
62
  3
C7
350
63
  3
C8
350
64
  3
C9
350
65
  3
D0
350
66
  3
D1
350
67
  3
D2
350
68
  0
XRECORD
  5
262
102
{ACAD_REACTORS
330
C
102
}
330
C
100
AcDbXrecord
280
     1
  1
DWGPROPS COOKIE
  2

  3

  4

  6

  7

  8
designer5
  9

300
=
301
=
302
=
303
=
304
=
305
=
306
=
307
=
308
=
309
=
 40
0.0
 41
2460383.248863044
 42
2460383.248863762
  1

 90
        0
  0
LAYOUT
  5
1E
102
{ACAD_REACTORS
330
1A
102
}
330
1A
100
AcDbPlotSettings
  1

  2
none_device
  4

  6

 40
0.0
 41
0.0
 42
0.0
 43
0.0
 44
0.0
 45
0.0
 46
0.0
 47
0.0
 48
0.0
 49
0.0
140
0.0
141
0.0
142
1.0
143
1.0
 70
   688
 72
     1
 73
     0
 74
     5
  7

 75
    16
147
1.0
148
0.0
149
0.0
100
AcDbLayout
  1
Layout1
 70
     1
 71
     1
 10
0.0
 20
0.0
 11
420.0
 21
297.0
 12
0.0
 22
0.0
 32
0.0
 14
1.0000000000E+20
 24
1.0000000000E+20
 34
1.0000000000E+20
 15
-1.0000000000E+20
 25
-1.0000000000E+20
 35
-1.0000000000E+20
146
0.0
 13
0.0
 23
0.0
 33
0.0
 16
1.0
 26
0.0
 36
0.0
 17
0.0
 27
1.0
 37
0.0
 76
     0
330
1B
  0
LAYOUT
  5
26
102
{ACAD_REACTORS
330
1A
102
}
330
1A
100
AcDbPlotSettings
  1

  2
none_device
  4

  6

 40
0.0
 41
0.0
 42
0.0
 43
0.0
 44
0.0
 45
0.0
 46
0.0
 47
0.0
 48
0.0
 49
0.0
140
0.0
141
0.0
142
1.0
143
1.0
 70
   688
 72
     1
 73
     0
 74
     5
  7

 75
    16
147
1.0
148
0.0
149
0.0
100
AcDbLayout
  1
Layout2
 70
     1
 71
     2
 10
0.0
 20
0.0
 11
0.0
 21
0.0
 12
0.0
 22
0.0
 32
0.0
 14
0.0
 24
0.0
 34
0.0
 15
0.0
 25
0.0
 35
0.0
146
0.0
 13
0.0
 23
0.0
 33
0.0
 16
1.0
 26
0.0
 36
0.0
 17
0.0
 27
1.0
 37
0.0
 76
     0
330
23
  0
LAYOUT
  5
22
102
{ACAD_REACTORS
330
1A
102
}
330
1A
100
AcDbPlotSettings
  1

  2
none_device
  4
Letter_(8.50_x_11.00_Inches)
  6

 40
6.35
 41
6.35
 42
6.35000508
 43
6.35000508
 44
215.9
 45
279.4
 46
0.0
 47
0.0
 48
0.0
 49
0.0
140
0.0
141
0.0
142
1.0
143
1.0
 70
  1712
 72
     1
 73
     0
 74
     0
  7

 75
     0
147
1.0
148
0.0
149
0.0
100
AcDbLayout
  1
Model
 70
     1
 71
     0
 10
0.0
 20
0.0
 11
1189.0
 21
841.0
 12
0.0
 22
0.0
 32
0.0
 14
0.0
 24
0.0
 34
0.0
 15
1189.0
 25
841.0
 35
0.0
146
0.0
 13
0.0
 23
0.0
 33
0.0
 16
1.0
 26
0.0
 36
0.0
 17
0.0
 27
1.0
 37
0.0
 76
     0
330
1F
331
29
  0
MLINESTYLE
  5
18
102
{ACAD_REACTORS
330
17
102
}
330
17
100
AcDbMlineStyle
  2
Standard
 70
     0
  3

 62
   256
 51
90.0
 52
90.0
 71
     2
 49
0.5
 62
   256
  6
BYLAYER
 49
-0.5
 62
   256
  6
BYLAYER
  0
ACDBPLACEHOLDER
  5
F
102
{ACAD_REACTORS
330
E
102
}
330
E
  0
SCALE
  5
48
102
{ACAD_REACTORS
330
47
102
}
330
47
100
AcDbScale
 70
     0
300
1:1
140
1.0
141
1.0
290
     1
  0
SCALE
  5
49
102
{ACAD_REACTORS
330
47
102
}
330
47
100
AcDbScale
 70
     0
300
1:2
140
1.0
141
2.0
290
     0
  0
SCALE
  5
4A
102
{ACAD_REACTORS
330
47
102
}
330
47
100
AcDbScale
 70
     0
300
1:4
140
1.0
141
4.0
290
     0
  0
SCALE
  5
4B
102
{ACAD_REACTORS
330
47
102
}
330
47
100
AcDbScale
 70
     0
300
1:5
140
1.0
141
5.0
290
     0
  0
SCALE
  5
4C
102
{ACAD_REACTORS
330
47
102
}
330
47
100
AcDbScale
 70
     0
300
1:8
140
1.0
141
8.0
290
     0
  0
SCALE
  5
4D
102
{ACAD_REACTORS
330
47
102
}
330
47
100
AcDbScale
 70
     0
300
1:10
140
1.0
141
10.0
290
     0
  0
SCALE
  5
4E
102
{ACAD_REACTORS
330
47
102
}
330
47
100
AcDbScale
 70
     0
300
1:16
140
1.0
141
16.0
290
     0
  0
SCALE
  5
4F
102
{ACAD_REACTORS
330
47
102
}
330
47
100
AcDbScale
 70
     0
300
1:20
140
1.0
141
20.0
290
     0
  0
SCALE
  5
50
102
{ACAD_REACTORS
330
47
102
}
330
47
100
AcDbScale
 70
     0
300
1:30
140
1.0
141
30.0
290
     0
  0
SCALE
  5
51
102
{ACAD_REACTORS
330
47
102
}
330
47
100
AcDbScale
 70
     0
300
1:40
140
1.0
141
40.0
290
     0
  0
SCALE
  5
52
102
{ACAD_REACTORS
330
47
102
}
330
47
100
AcDbScale
 70
     0
300
1:50
140
1.0
141
50.0
290
     0
  0
SCALE
  5
53
102
{ACAD_REACTORS
330
47
102
}
330
47
100
AcDbScale
 70
     0
300
1:100
140
1.0
141
100.0
290
     0
  0
SCALE
  5
54
102
{ACAD_REACTORS
330
47
102
}
330
47
100
AcDbScale
 70
     0
300
2:1
140
2.0
141
1.0
290
     0
  0
SCALE
  5
55
102
{ACAD_REACTORS
330
47
102
}
330
47
100
AcDbScale
 70
     0
300
4:1
140
4.0
141
1.0
290
     0
  0
SCALE
  5
56
102
{ACAD_REACTORS
330
47
102
}
330
47
100
AcDbScale
 70
     0
300
8:1
140
8.0
141
1.0
290
     0
  0
SCALE
  5
57
102
{ACAD_REACTORS
330
47
102
}
330
47
100
AcDbScale
 70
     0
300
10:1
140
10.0
141
1.0
290
     0
  0
SCALE
  5
58
102
{ACAD_REACTORS
330
47
102
}
330
47
100
AcDbScale
 70
     0
300
100:1
140
100.0
141
1.0
290
     0
  0
SCALE
  5
59
102
{ACAD_REACTORS
330
47
102
}
330
47
100
AcDbScale
 70
     0
300
1/128" = 1'-0"
140
0.0078125
141
12.0
290
     0
  0
SCALE
  5
5A
102
{ACAD_REACTORS
330
47
102
}
330
47
100
AcDbScale
 70
     0
300
1/64" = 1'-0"
140
0.015625
141
12.0
290
     0
  0
SCALE
  5
5B
102
{ACAD_REACTORS
330
47
102
}
330
47
100
AcDbScale
 70
     0
300
1/32" = 1'-0"
140
0.03125
141
12.0
290
     0
  0
SCALE
  5
5C
102
{ACAD_REACTORS
330
47
102
}
330
47
100
AcDbScale
 70
     0
300
1/16" = 1'-0"
140
0.0625
141
12.0
290
     0
  0
SCALE
  5
5D
102
{ACAD_REACTORS
330
47
102
}
330
47
100
AcDbScale
 70
     0
300
3/32" = 1'-0"
140
0.09375
141
12.0
290
     0
  0
SCALE
  5
5E
102
{ACAD_REACTORS
330
47
102
}
330
47
100
AcDbScale
 70
     0
300
1/8" = 1'-0"
140
0.125
141
12.0
290
     0
  0
SCALE
  5
5F
102
{ACAD_REACTORS
330
47
102
}
330
47
100
AcDbScale
 70
     0
300
3/16" = 1'-0"
140
0.1875
141
12.0
290
     0
  0
SCALE
  5
60
102
{ACAD_REACTORS
330
47
102
}
330
47
100
AcDbScale
 70
     0
300
1/4" = 1'-0"
140
0.25
141
12.0
290
     0
  0
SCALE
  5
61
102
{ACAD_REACTORS
330
47
102
}
330
47
100
AcDbScale
 70
     0
300
3/8" = 1'-0"
140
0.375
141
12.0
290
     0
  0
SCALE
  5
62
102
{ACAD_REACTORS
330
47
102
}
330
47
100
AcDbScale
 70
     0
300
1/2" = 1'-0"
140
0.5
141
12.0
290
     0
  0
SCALE
  5
63
102
{ACAD_REACTORS
330
47
102
}
330
47
100
AcDbScale
 70
     0
300
3/4" = 1'-0"
140
0.75
141
12.0
290
     0
  0
SCALE
  5
64
102
{ACAD_REACTORS
330
47
102
}
330
47
100
AcDbScale
 70
     0
300
1" = 1'-0"
140
1.0
141
12.0
290
     0
  0
SCALE
  5
65
102
{ACAD_REACTORS
330
47
102
}
330
47
100
AcDbScale
 70
     0
300
1-1/2" = 1'-0"
140
1.5
141
12.0
290
     0
  0
SCALE
  5
66
102
{ACAD_REACTORS
330
47
102
}
330
47
100
AcDbScale
 70
     0
300
3" = 1'-0"
140
3.0
141
12.0
290
     0
  0
SCALE
  5
67
102
{ACAD_REACTORS
330
47
102
}
330
47
100
AcDbScale
 70
     0
300
6" = 1'-0"
140
6.0
141
12.0
290
     0
  0
SCALE
  5
68
102
{ACAD_REACTORS
330
47
102
}
330
47
100
AcDbScale
 70
     0
300
1'-0" = 1'-0"
140
12.0
141
12.0
290
     0
  0
ENDSEC
  0
EOF
