  0
SECTION
  2
HEADER
  9
$ACADVER
  1
AC1015
  9
$ACADMAINTVER
 70
     6
  9
$DWGCODEPAGE
  3
ANSI_1252
  9
$INSBASE
 10
0.0
 20
0.0
 30
0.0
  9
$EXTMIN
 10
0.0
 20
0.0
 30
0.0
  9
$EXTMAX
 10
1189.0
 20
841.0
 30
0.0
  9
$LIMMIN
 10
0.0
 20
0.0
  9
$LIMMAX
 10
1189.0
 20
841.0
  9
$ORTHOMODE
 70
     0
  9
$REGENMODE
 70
     1
  9
$FILLMODE
 70
     1
  9
$QTEXTMODE
 70
     0
  9
$MIRRTEXT
 70
     1
  9
$LTSCALE
 40
1.0
  9
$ATTMODE
 70
     1
  9
$TEXTSIZE
 40
3.5
  9
$TRACEWID
 40
1.0
  9
$TEXTSTYLE
  7
Standard
  9
$CLAYER
  8
0
  9
$CELTYPE
  6
ByLayer
  9
$CECOLOR
 62
   256
  9
$CELTSCALE
 40
1.0
  9
$DISPSILH
 70
     0
  9
$DIMSCALE
 40
1.0
  9
$DIMASZ
 40
3.302
  9
$DIMEXO
 40
1.0
  9
$DIMDLI
 40
3.75
  9
$DIMRND
 40
0.0
  9
$DIMDLE
 40
0.0
  9
$DIMEXE
 40
1.0
  9
$DIMTP
 40
0.0
  9
$DIMTM
 40
0.0
  9
$DIMTXT
 40
3.5
  9
$DIMCEN
 40
2.5
  9
$DIMTSZ
 40
0.0
  9
$DIMTOL
 70
     0
  9
$DIMLIM
 70
     0
  9
$DIMTIH
 70
     1
  9
$DIMTOH
 70
     1
  9
$DIMSE1
 70
     0
  9
$DIMSE2
 70
     0
  9
$DIMTAD
 70
     1
  9
$DIMZIN
 70
     1
  9
$DIMBLK
  1

  9
$DIMASO
 70
     1
  9
$DIMSHO
 70
     1
  9
$DIMPOST
  1

  9
$DIMAPOST
  1

  9
$DIMALT
 70
     0
  9
$DIMALTD
 70
     3
  9
$DIMALTF
 40
0.0393700787
  9
$DIMLFAC
 40
1.0
  9
$DIMTOFL
 70
     1
  9
$DIMTVP
 40
0.0
  9
$DIMTIX
 70
     0
  9
$DIMSOXD
 70
     0
  9
$DIMSAH
 70
     0
  9
$DIMBLK1
  1

  9
$DIMBLK2
  1

  9
$DIMSTYLE
  2
ISO-25
  9
$DIMCLRD
 70
     0
  9
$DIMCLRE
 70
     0
  9
$DIMCLRT
 70
     0
  9
$DIMTFAC
 40
1.0
  9
$DIMGAP
 40
1.524
  9
$DIMJUST
 70
     0
  9
$DIMSD1
 70
     0
  9
$DIMSD2
 70
     0
  9
$DIMTOLJ
 70
     0
  9
$DIMTZIN
 70
     1
  9
$DIMALTZ
 70
     0
  9
$DIMALTTZ
 70
     0
  9
$DIMUPT
 70
     0
  9
$DIMDEC
 70
     2
  9
$DIMTDEC
 70
     2
  9
$DIMALTU
 70
     2
  9
$DIMALTTD
 70
     3
  9
$DIMTXSTY
  7
Standard
  9
$DIMAUNIT
 70
     0
  9
$DIMADEC
 70
     2
  9
$DIMALTRND
 40
0.0
  9
$DIMAZIN
 70
     0
  9
$DIMDSEP
 70
    44
  9
$DIMATFIT
 70
     3
  9
$DIMFRAC
 70
     0
  9
$DIMLDRBLK
  1

  9
$DIMLUNIT
 70
     2
  9
$DIMLWD
 70
    -2
  9
$DIMLWE
 70
    -2
  9
$DIMTMOVE
 70
     0
  9
$LUNITS
 70
     2
  9
$LUPREC
 70
     2
  9
$SKETCHINC
 40
1.0
  9
$FILLETRAD
 40
10.0
  9
$AUNITS
 70
     0
  9
$AUPREC
 70
     2
  9
$MENU
  1
.
  9
$ELEVATION
 40
0.0
  9
$PELEVATION
 40
0.0
  9
$THICKNESS
 40
0.0
  9
$LIMCHECK
 70
     0
  9
$CHAMFERA
 40
0.0
  9
$CHAMFERB
 40
0.0
  9
$CHAMFERC
 40
0.0
  9
$CHAMFERD
 40
0.0
  9
$SKPOLY
 70
     0
  9
$TDCREATE
 40
2460383.471419155
  9
$TDUCREATE
 40
2460383.242252489
  9
$TDUPDATE
 40
2460383.471419884
  9
$TDUUPDATE
 40
2460383.242253217
  9
$TDINDWG
 40
0.0000000116
  9
$TDUSRTIMER
 40
0.0000000116
  9
$USRTIMER
 70
     1
  9
$ANGBASE
 50
0.0
  9
$ANGDIR
 70
     0
  9
$PDMODE
 70
     0
  9
$PDSIZE
 40
-1.0
  9
$PLINEWID
 40
0.0
  9
$SPLFRAME
 70
     0
  9
$SPLINETYPE
 70
     6
  9
$SPLINESEGS
 70
     8
  9
$HANDSEED
  5
2DD
  9
$SURFTAB1
 70
     6
  9
$SURFTAB2
 70
     6
  9
$SURFTYPE
 70
     6
  9
$SURFU
 70
     6
  9
$SURFV
 70
     6
  9
$UCSBASE
  2

  9
$UCSNAME
  2

  9
$UCSORG
 10
0.0
 20
0.0
 30
0.0
  9
$UCSXDIR
 10
1.0
 20
0.0
 30
0.0
  9
$UCSYDIR
 10
0.0
 20
1.0
 30
0.0
  9
$UCSORTHOREF
  2

  9
$UCSORTHOVIEW
 70
     0
  9
$UCSORGTOP
 10
0.0
 20
0.0
 30
0.0
  9
$UCSORGBOTTOM
 10
0.0
 20
0.0
 30
0.0
  9
$UCSORGLEFT
 10
0.0
 20
0.0
 30
0.0
  9
$UCSORGRIGHT
 10
0.0
 20
0.0
 30
0.0
  9
$UCSORGFRONT
 10
0.0
 20
0.0
 30
0.0
  9
$UCSORGBACK
 10
0.0
 20
0.0
 30
0.0
  9
$PUCSBASE
  2

  9
$PUCSNAME
  2

  9
$PUCSORG
 10
0.0
 20
0.0
 30
0.0
  9
$PUCSXDIR
 10
1.0
 20
0.0
 30
0.0
  9
$PUCSYDIR
 10
0.0
 20
1.0
 30
0.0
  9
$PUCSORTHOREF
  2

  9
$PUCSORTHOVIEW
 70
     0
  9
$PUCSORGTOP
 10
0.0
 20
0.0
 30
0.0
  9
$PUCSORGBOTTOM
 10
0.0
 20
0.0
 30
0.0
  9
$PUCSORGLEFT
 10
0.0
 20
0.0
 30
0.0
  9
$PUCSORGRIGHT
 10
0.0
 20
0.0
 30
0.0
  9
$PUCSORGFRONT
 10
0.0
 20
0.0
 30
0.0
  9
$PUCSORGBACK
 10
0.0
 20
0.0
 30
0.0
  9
$USERI1
 70
     0
  9
$USERI2
 70
     0
  9
$USERI3
 70
     0
  9
$USERI4
 70
     0
  9
$USERI5
 70
     0
  9
$USERR1
 40
0.0
  9
$USERR2
 40
0.0
  9
$USERR3
 40
0.0
  9
$USERR4
 40
0.0
  9
$USERR5
 40
0.0
  9
$WORLDVIEW
 70
     1
  9
$SHADEDGE
 70
     3
  9
$SHADEDIF
 70
    70
  9
$TILEMODE
 70
     1
  9
$MAXACTVP
 70
    64
  9
$PINSBASE
 10
0.0
 20
0.0
 30
0.0
  9
$PLIMCHECK
 70
     0
  9
$PEXTMIN
 10
1.0000000000E+20
 20
1.0000000000E+20
 30
1.0000000000E+20
  9
$PEXTMAX
 10
-1.0000000000E+20
 20
-1.0000000000E+20
 30
-1.0000000000E+20
  9
$PLIMMIN
 10
0.0
 20
0.0
  9
$PLIMMAX
 10
420.0
 20
297.0
  9
$UNITMODE
 70
     0
  9
$VISRETAIN
 70
     1
  9
$PLINEGEN
 70
     0
  9
$PSLTSCALE
 70
     1
  9
$TREEDEPTH
 70
  3020
  9
$CMLSTYLE
  2
Standard
  9
$CMLJUST
 70
     0
  9
$CMLSCALE
 40
20.0
  9
$PROXYGRAPHICS
 70
     1
  9
$MEASUREMENT
 70
     1
  9
$CELWEIGHT
370
    -1
  9
$ENDCAPS
280
     0
  9
$JOINSTYLE
280
     0
  9
$LWDISPLAY
290
     1
  9
$INSUNITS
 70
     4
  9
$HYPERLINKBASE
  1

  9
$STYLESHEET
  1

  9
$XEDIT
290
     1
  9
$CEPSNTYPE
380
     0
  9
$PSTYLEMODE
290
     1
  9
$FINGERPRINTGUID
  2
{04ddd5c8-1ead-42cf-9459-0f19bde430d2}
  9
$VERSIONGUID
  2
{FAEB1C32-E019-11D5-929B-00C0DF256EC4}
  9
$EXTNAMES
290
     1
  9
$PSVPSCALE
 40
0.0
  9
$OLESTARTUP
290
     0
  0
ENDSEC
  0
SECTION
  2
CLASSES
  0
CLASS
  1
ACDBDICTIONARYWDFLT
  2
AcDbDictionaryWithDefault
  3
ObjectDBX Classes
 90
        0
280
     0
281
     0
  0
CLASS
  1
VISUALSTYLE
  2
AcDbVisualStyle
  3
ObjectDBX Classes
 90
     4095
280
     0
281
     0
  0
CLASS
  1
MATERIAL
  2
AcDbMaterial
  3
ObjectDBX Classes
 90
     1153
280
     0
281
     0
  0
CLASS
  1
SCALE
  2
AcDbScale
  3
ObjectDBX Classes
 90
     1153
280
     0
281
     0
  0
CLASS
  1
TABLESTYLE
  2
AcDbTableStyle
  3
ObjectDBX Classes
 90
     4095
280
     0
281
     0
  0
CLASS
  1
MLEADERSTYLE
  2
AcDbMLeaderStyle
  3
ACDB_MLEADERSTYLE_CLASS
 90
     4095
280
     0
281
     0
  0
CLASS
  1
SUN
  2
AcDbSun
  3
SCENEOE
 90
     1153
280
     0
281
     0
  0
CLASS
  1
ACDBPLACEHOLDER
  2
AcDbPlaceHolder
  3
ObjectDBX Classes
 90
        0
280
     0
281
     0
  0
CLASS
  1
LAYOUT
  2
AcDbLayout
  3
ObjectDBX Classes
 90
        0
280
     0
281
     0
  0
ENDSEC
  0
SECTION
  2
TABLES
  0
TABLE
  2
VPORT
  5
8
330
0
100
AcDbSymbolTable
 70
     1
  0
VPORT
  5
29
330
8
100
AcDbSymbolTableRecord
100
AcDbViewportTableRecord
  2
*Active
 70
     0
 10
0.0
 20
0.0
 11
1.0
 21
1.0
 12
594.5
 22
420.5
 13
0.0
 23
0.0
 14
10.0
 24
10.0
 15
10.0
 25
10.0
 16
0.0
 26
0.0
 36
1.0
 17
0.0
 27
0.0
 37
0.0
 40
841.0
 41
1.4137931034
 42
50.0
 43
0.0
 44
0.0
 50
0.0
 51
0.0
 71
     0
 72
  2000
 73
     1
 74
     3
 75
     0
 76
     0
 77
     0
 78
     0
281
     0
 65
     1
110
0.0
120
0.0
130
0.0
111
1.0
121
0.0
131
0.0
112
0.0
122
1.0
132
0.0
 79
     0
146
0.0
  0
ENDTAB
  0
TABLE
  2
LTYPE
  5
5
330
0
100
AcDbSymbolTable
 70
     6
  0
LTYPE
  5
14
330
5
100
AcDbSymbolTableRecord
100
AcDbLinetypeTableRecord
  2
ByBlock
 70
     0
  3

 72
    65
 73
     0
 40
0.0
  0
LTYPE
  5
15
330
5
100
AcDbSymbolTableRecord
100
AcDbLinetypeTableRecord
  2
ByLayer
 70
     0
  3

 72
    65
 73
     0
 40
0.0
  0
LTYPE
  5
16
330
5
100
AcDbSymbolTableRecord
100
AcDbLinetypeTableRecord
  2
Continuous
 70
     0
  3
Solid line
 72
    65
 73
     0
 40
0.0
  0
LTYPE
  5
6E
330
5
100
AcDbSymbolTableRecord
100
AcDbLinetypeTableRecord
  2
HIDDEN
 70
     0
  3
Hidden __ __ __ __ __ __ __ __ __ __ __ __ __ __
 72
    65
 73
     2
 40
1.905
 49
1.27
 74
     0
 49
-0.635
 74
     0
  0
LTYPE
  5
6F
330
5
100
AcDbSymbolTableRecord
100
AcDbLinetypeTableRecord
  2
PHANTOM
 70
     0
  3
Phantom ______  __  __  ______  __  __  ______
 72
    65
 73
     6
 40
12.7
 49
6.35
 74
     0
 49
-1.27
 74
     0
 49
1.27
 74
     0
 49
-1.27
 74
     0
 49
1.27
 74
     0
 49
-1.27
 74
     0
  0
LTYPE
  5
70
330
5
100
AcDbSymbolTableRecord
100
AcDbLinetypeTableRecord
  2
CENTER
 70
     0
  3
Center ____ _ ____ _ ____ _ ____ _ ____ _ ____
 72
    65
 73
     4
 40
10.16
 49
6.35
 74
     0
 49
-1.27
 74
     0
 49
1.27
 74
     0
 49
-1.27
 74
     0
  0
LTYPE
  5
71
330
5
100
AcDbSymbolTableRecord
100
AcDbLinetypeTableRecord
  2
CENTERX2
 70
     0
  3
Center (2x) ________  __  ________  __  _____
 72
    65
 73
     4
 40
20.32
 49
12.7
 74
     0
 49
-2.54
 74
     0
 49
2.54
 74
     0
 49
-2.54
 74
     0
  0
LTYPE
  5
72
330
5
100
AcDbSymbolTableRecord
100
AcDbLinetypeTableRecord
  2
DOT2
 70
     0
  3
Dot (.5x) ........................................
 72
    65
 73
     2
 40
0.635
 49
0.0
 74
     0
 49
-0.635
 74
     0
  0
ENDTAB
  0
TABLE
  2
LAYER
  5
2
330
0
100
AcDbSymbolTable
 70
     1
  0
LAYER
  5
10
330
2
100
AcDbSymbolTableRecord
100
AcDbLayerTableRecord
  2
0
 70
     0
 62
     7
  6
Continuous
370
    -3
390
F
  0
ENDTAB
  0
TABLE
  2
STYLE
  5
3
330
0
100
AcDbSymbolTable
 70
     1
  0
STYLE
  5
11
330
3
100
AcDbSymbolTableRecord
100
AcDbTextStyleTableRecord
  2
Standard
 70
     0
 40
0.0
 41
1.0
 50
0.0
 71
     0
 42
3.5
  3
txt
  4

  0
ENDTAB
  0
TABLE
  2
VIEW
  5
6
330
0
100
AcDbSymbolTable
 70
     0
  0
ENDTAB
  0
TABLE
  2
UCS
  5
7
330
0
100
AcDbSymbolTable
 70
     0
  0
ENDTAB
  0
TABLE
  2
APPID
  5
9
330
0
100
AcDbSymbolTable
 70
     1
  0
APPID
  5
12
330
9
100
AcDbSymbolTableRecord
100
AcDbRegAppTableRecord
  2
ACAD
 70
     0
  0
ENDTAB
  0
TABLE
  2
DIMSTYLE
  5
A
330
0
100
AcDbSymbolTable
 70
     1
100
AcDbDimStyleTable
  0
DIMSTYLE
105
27
330
A
100
AcDbSymbolTableRecord
100
AcDbDimStyleTableRecord
  2
ISO-25
 70
     0
 41
2.5
 42
0.625
 43
3.75
 44
1.25
 73
     0
 74
     0
 77
     1
 78
     8
140
2.5
141
2.5
143
0.0393700787
147
0.625
171
     3
172
     1
178
     0
271
     2
272
     2
274
     3
278
    44
283
     0
284
     8
340
11
  0
ENDTAB
  0
TABLE
  2
BLOCK_RECORD
  5
1
330
0
100
AcDbSymbolTable
 70
     1
  0
BLOCK_RECORD
  5
1F
330
1
100
AcDbSymbolTableRecord
100
AcDbBlockTableRecord
  2
*Model_Space
340
22
  0
BLOCK_RECORD
  5
1B
330
1
100
AcDbSymbolTableRecord
100
AcDbBlockTableRecord
  2
*Paper_Space
340
1E
  0
BLOCK_RECORD
  5
23
330
1
100
AcDbSymbolTableRecord
100
AcDbBlockTableRecord
  2
*Paper_Space0
340
26
  0
ENDTAB
  0
ENDSEC
  0
SECTION
  2
BLOCKS
  0
BLOCK
  5
20
330
1F
100
AcDbEntity
  8
0
100
AcDbBlockBegin
  2
*Model_Space
 70
     0
 10
0.0
 20
0.0
 30
0.0
  3
*Model_Space
  1

  0
ENDBLK
  5
21
330
1F
100
AcDbEntity
  8
0
100
AcDbBlockEnd
  0
BLOCK
  5
1C
330
1B
100
AcDbEntity
 67
     1
  8
0
100
AcDbBlockBegin
  2
*Paper_Space
 70
     0
 10
0.0
 20
0.0
 30
0.0
  3
*Paper_Space
  1

  0
ENDBLK
  5
1D
330
1B
100
AcDbEntity
 67
     1
  8
0
100
AcDbBlockEnd
  0
BLOCK
  5
24
330
23
100
AcDbEntity
  8
0
100
AcDbBlockBegin
  2
*Paper_Space0
 70
     0
 10
0.0
 20
0.0
 30
0.0
  3
*Paper_Space0
  1

  0
ENDBLK
  5
25
330
23
100
AcDbEntity
  8
0
100
AcDbBlockEnd
  0
ENDSEC
  0
SECTION
  2
ENTITIES
  0
SPLINE
  5
73
330
1F
100
AcDbEntity
  8
0
  6
Continuous
 62
     7
370
    25
100
AcDbSpline
210
0.0
220
0.0
230
1.0
 70
    24
 71
     3
 72
    42
 73
    38
 74
     0
 42
0.00000001
 43
0.00000001
 40
0.0
 40
0.0
 40
0.0
 40
0.0
 40
0.0363363056647347
 40
0.0700663818991959
 40
0.1011869834431247
 40
0.1296983084857966
 40
0.1555995292997785
 40
0.1788914818336818
 40
0.2033950804936153
 40
0.2241497481991342
 40
0.2433917943779699
 40
0.2628271226352976
 40
0.2824550201964902
 40
0.3155889784197899
 40
0.3492525901946029
 40
0.3831114610834463
 40
0.4169702478433994
 40
0.4508300251046471
 40
0.484689005610961
 40
0.5185478755814696
 40
0.5524069734788681
 40
0.5862667107600495
 40
0.6197276349499328
 40
0.6518169388009228
 40
0.6824903494540905
 40
0.7002184695759058
 40
0.7178461255792978
 40
0.7388323184432173
 40
0.7639597870287228
 40
0.7932270054097191
 40
0.8207822253893934
 40
0.8512116994979207
 40
0.884515017925632
 40
0.9113835132553773
 40
0.9398696532089055
 40
0.9699741466591701
 40
1.0
 40
1.0
 40
1.0
 40
1.0
 10
598.9098307551483
 20
429.7177356913588
 30
0.0
 10
598.9098307551483
 20
429.9597002895724
 30
0.0
 10
598.9098307551483
 20
430.4262745225432
 30
0.0
 10
598.9098307551483
 20
432.0737531110237
 30
0.0
 10
598.9098307551483
 20
434.1774296441219
 30
0.0
 10
598.9098307551483
 20
436.6327237253645
 30
0.0
 10
598.9098307551483
 20
439.2769006315755
 30
0.0
 10
598.9098307551483
 20
442.1242147851671
 30
0.0
 10
598.9098307551483
 20
445.0645142362618
 30
0.0
 10
598.9098307551483
 20
448.0772198437596
 30
0.0
 10
598.9098307551483
 20
451.0441914100043
 30
0.0
 10
598.9098307551483
 20
454.1281190586388
 30
0.0
 10
598.9098307551483
 20
458.1487197380519
 30
0.0
 10
598.9098307551483
 20
463.2656287161249
 30
0.0
 10
598.9098307551483
 20
469.6081137703301
 30
0.0
 10
598.9098307551483
 20
476.3247094746592
 30
0.0
 10
598.9098307551483
 20
483.3150576116145
 30
0.0
 10
598.9098307551483
 20
490.4894483681348
 30
0.0
 10
598.9098307551483
 20
497.7742129413668
 30
0.0
 10
598.9098307551483
 20
505.0941467242691
 30
0.0
 10
598.9098307551483
 20
512.3715590467568
 30
0.0
 10
598.9098307551483
 20
519.5034941625983
 30
0.0
 10
598.9098307551483
 20
526.3246879298257
 30
0.0
 10
598.9098307551483
 20
532.6818296490177
 30
0.0
 10
598.9098307551483
 20
537.7564501386918
 30
0.0
 10
598.9098307551483
 20
541.7370700027208
 30
0.0
 10
598.9098307551483
 20
545.0115957302044
 30
0.0
 10
598.9098307551483
 20
548.5534337069605
 30
0.0
 10
598.9098307551483
 20
552.4909956174448
 30
0.0
 10
598.9098307551483
 20
556.4234352433984
 30
0.0
 10
598.9098307551483
 20
560.1945000834495
 30
0.0
 10
598.9098307551483
 20
563.6699015737196
 30
0.0
 10
598.9098307551483
 20
566.5691635633187
 30
0.0
 10
598.9098307551483
 20
568.8750782463709
 30
0.0
 10
598.9098307551483
 20
570.6005023821732
 30
0.0
 10
598.9098307551483
 20
571.8893875351329
 30
0.0
 10
598.9098307551483
 20
572.2534846239686
 30
0.0
 10
598.9098307551483
 20
572.4352950803291
 30
0.0
  0
SPLINE
  5
74
330
1F
100
AcDbEntity
  8
0
  6
Continuous
 62
     7
370
    25
100
AcDbSpline
210
0.0
220
0.0
230
1.0
 70
    24
 71
     3
 72
    42
 73
    38
 74
     0
 42
0.00000001
 43
0.00000001
 40
0.0
 40
0.0
 40
0.0
 40
0.0
 40
0.0346410723038495
 40
0.0683703572774311
 40
0.099489445675095
 40
0.1280001167985724
 40
0.153901338097465
 40
0.1771932453938799
 40
0.2016968882726531
 40
0.222451662817401
 40
0.2416936570004421
 40
0.2611289718792816
 40
0.2807568417808429
 40
0.3138907322663834
 40
0.347554410502752
 40
0.3814132993585462
 40
0.4152720850106706
 40
0.4491318665906141
 40
0.4829909293653017
 40
0.5168498212192393
 40
0.5507088785443869
 40
0.5845686618364709
 40
0.6180296518610976
 40
0.6501190477394364
 40
0.6807924999718443
 40
0.6985206970806902
 40
0.7161483938706629
 40
0.7371345388059346
 40
0.762261996226265
 40
0.7915292085896786
 40
0.8190844696115912
 40
0.8495140968507183
 40
0.8828175889182938
 40
0.9096872135862512
 40
0.9381747325679768
 40
0.9682796674526996
 40
1.0
 40
1.0
 40
1.0
 40
1.0
 10
583.1098307551483
 20
572.4327389794073
 30
0.0
 10
583.1098307551483
 20
572.213152545725
 30
0.0
 10
583.1098307551483
 20
571.7797594107653
 30
0.0
 10
583.1098307551483
 20
570.1907030435173
 30
0.0
 10
583.1098307551483
 20
568.1208937713155
 30
0.0
 10
583.1098307551483
 20
565.6943268906264
 30
0.0
 10
583.1098307551483
 20
563.0756626108565
 30
0.0
 10
583.1098307551483
 20
560.2511325974824
 30
0.0
 10
583.1098307551483
 20
557.3310163259026
 30
0.0
 10
583.1098307551483
 20
554.3363459934538
 30
0.0
 10
583.1098307551483
 20
551.3852213649099
 30
0.0
 10
583.1098307551482
 20
548.3160787584233
 30
0.0
 10
583.1098307551483
 20
544.3123761443544
 30
0.0
 10
583.1098307551483
 20
539.2135854440365
 30
0.0
 10
583.1098307551482
 20
532.889063472362
 30
0.0
 10
583.1098307551482
 20
526.1874260552457
 30
0.0
 10
583.1098307551483
 20
519.208271400591
 30
0.0
 10
583.1098307551482
 20
512.0413312742918
 30
0.0
 10
583.1098307551482
 20
504.7603275541315
 30
0.0
 10
583.1098307551482
 20
497.4403053736482
 30
0.0
 10
583.1098307551482
 20
490.1589653139455
 30
0.0
 10
583.1098307551482
 20
483.0194430170076
 30
0.0
 10
583.1098307551483
 20
476.1871402752332
 30
0.0
 10
583.1098307551482
 20
469.8157745745856
 30
0.0
 10
583.1098307551483
 20
464.7269422374291
 30
0.0
 10
583.1098307551482
 20
460.7331805985671
 30
0.0
 10
583.1098307551483
 20
457.4465204364807
 30
0.0
 10
583.1098307551483
 20
453.8898161341052
 30
0.0
 10
583.1098307551483
 20
449.932962227067
 30
0.0
 10
583.1098307551483
 20
445.9781043845518
 30
0.0
 10
583.1098307551483
 20
442.1815385724723
 30
0.0
 10
583.1098307551483
 20
438.6778153801523
 30
0.0
 10
583.1098307551483
 20
435.7482529743709
 30
0.0
 10
583.1098307551483
 20
433.4122764112587
 30
0.0
 10
583.1098307551483
 20
431.6554931046484
 30
0.0
 10
583.1098307551483
 20
430.3139270746968
 30
0.0
 10
583.1098307551483
 20
429.9198979410584
 30
0.0
 10
583.1098307551483
 20
429.7177356913587
 30
0.0
  0
LINE
  5
75
330
1F
100
AcDbEntity
  8
0
  6
Continuous
 62
     7
370
    25
100
AcDbLine
 10
583.1098307551
 20
429.7177356914
 30
0.0
 11
583.1098307551
 21
428.0004487215
 31
0.0
  0
LINE
  5
76
330
1F
100
AcDbEntity
  8
0
  6
Continuous
 62
     7
370
    25
100
AcDbLine
 10
598.9098307551
 20
428.0004487215
 30
0.0
 11
598.9098307551
 21
429.7177356914
 31
0.0
  0
SPLINE
  5
77
330
1F
100
AcDbEntity
  8
0
  6
Continuous
 62
     7
370
    25
100
AcDbSpline
210
0.0
220
0.0
230
1.0
 70
     8
 71
     3
 72
    14
 73
    10
 74
     0
 42
0.00000001
 43
0.00000001
 40
0.0
 40
0.0
 40
0.0
 40
0.0
 40
0.0926504901056423
 40
0.3072678501359721
 40
0.5037770178907695
 40
0.6794497664282149
 40
0.830421668187367
 40
0.950225174897152
 40
1.0
 40
1.0
 40
1.0
 40
1.0
 10
556.2413135321087
 20
584.4686818405321
 30
0.0
 10
556.0962937035216
 20
584.4632995209753
 30
0.0
 10
555.615347181747
 20
584.4454494938781
 30
0.0
 10
554.8293731201272
 20
584.5525012914395
 30
0.0
 10
553.9340437026854
 20
584.758068253265
 30
0.0
 10
553.1601332639741
 20
585.0339054178289
 30
0.0
 10
552.5297438734119
 20
585.3289100333755
 30
0.0
 10
552.0870693491011
 20
585.5775519364837
 30
0.0
 10
551.8765386084589
 20
585.7155067949755
 30
0.0
 10
551.8147433856717
 20
585.75599946217
 30
0.0
  0
SPLINE
  5
78
330
1F
100
AcDbEntity
  8
0
  6
Continuous
 62
     7
370
    25
100
AcDbSpline
210
0.0
220
0.0
230
1.0
 70
     8
 71
     3
 72
    16
 73
    12
 74
     0
 42
0.00000001
 43
0.00000001
 40
0.0
 40
0.0
 40
0.0
 40
0.0
 40
0.0373495513851587
 40
0.2369487477199297
 40
0.420981965015132
 40
0.5872719817077421
 40
0.7324762131781747
 40
0.8502163812666786
 40
0.9304646625695642
 40
0.984417914697881
 40
0.9999999999999999
 40
0.9999999999999999
 40
0.9999999999999999
 40
0.9999999999999999
 10
625.8234332134622
 20
560.4436689817813
 30
0.0
 10
625.888208614961
 20
560.4471830503114
 30
0.0
 10
626.2991493009654
 20
560.4694766015516
 30
0.0
 10
627.0298361708188
 20
560.3761285505872
 30
0.0
 10
627.9644115995355
 20
560.1812591796678
 30
0.0
 10
628.7800627247142
 20
559.9005496334355
 30
0.0
 10
629.456866470681
 20
559.5902725818505
 30
0.0
 10
629.974117681466
 20
559.2966355124402
 30
0.0
 10
630.3257783731347
 20
559.0659670928965
 30
0.0
 10
630.5055360078555
 20
558.9374988071339
 30
0.0
 10
630.5540909085877
 20
558.9012378565407
 30
0.0
 10
630.5649715145214
 20
558.8931121862533
 30
0.0
  0
SPLINE
  5
79
330
1F
100
AcDbEntity
  8
0
  6
Continuous
 62
     7
370
    25
100
AcDbSpline
210
0.0
220
0.0
230
1.0
 70
     8
 71
     3
 72
    15
 73
    11
 74
     0
 42
0.00000001
 43
0.00000001
 40
0.0
 40
0.0
 40
0.0
 40
0.0
 40
0.0048099189114983
 40
0.0556961333528421
 40
0.1461123129633541
 40
0.2643332128161993
 40
0.5273104529246031
 40
0.7531871206493324
 40
0.9956860800238845
 40
0.9999999999999999
 40
0.9999999999999999
 40
0.9999999999999999
 40
0.9999999999999999
 10
551.4544852766221
 20
558.8930956651184
 30
0.0
 10
551.4572927107054
 20
558.8952118449856
 30
0.0
 10
551.4898012053297
 20
558.9197160077902
 30
0.0
 10
551.660362208186
 20
559.0430286949407
 30
0.0
 10
552.0168715803253
 20
559.2798527772807
 30
0.0
 10
552.7271104947372
 20
559.6842110791363
 30
0.0
 10
553.7031374613783
 20
560.0943495244005
 30
0.0
 10
554.9399886196844
 20
560.3729043595148
 30
0.0
 10
555.762497188949
 20
560.4854969401622
 30
0.0
 10
556.1893318637434
 20
560.4537204704704
 30
0.0
 10
556.1967922954476
 20
560.453165065308
 30
0.0
  0
SPLINE
  5
7A
330
1F
100
AcDbEntity
  8
0
  6
Continuous
 62
     7
370
    25
100
AcDbSpline
210
0.0
220
0.0
230
1.0
 70
     8
 71
     3
 72
    15
 73
    11
 74
     0
 42
0.00000001
 43
0.00000001
 40
0.0
 40
0.0
 40
0.0
 40
0.0
 40
0.0345057202269118
 40
0.0735567981335866
 40
0.130387334128945
 40
0.2376553813832389
 40
0.4436932128242561
 40
0.6200966744574868
 40
0.8899152311749684
 40
1.0
 40
1.0
 40
1.0
 40
1.0
 10
630.5551103173339
 20
585.996766664096
 30
0.0
 10
630.5380292191734
 20
585.9841897231748
 30
0.0
 10
630.5016169698123
 20
585.9573791103722
 30
0.0
 10
630.3704506312353
 20
585.8639974113311
 30
0.0
 10
630.0875250977855
 20
585.6739028668449
 30
0.0
 10
629.5271250130733
 20
585.3404736997412
 30
0.0
 10
628.7411954931721
 20
584.9754291580928
 30
0.0
 10
627.6422832447154
 20
584.6339231177376
 30
0.0
 10
626.6675539754652
 20
584.4492896341822
 30
0.0
 10
625.996993996862
 20
584.4697938123398
 30
0.0
 10
625.8026855102953
 20
584.4757353178775
 30
0.0
  0
LINE
  5
7B
330
1F
100
AcDbEntity
  8
0
  6
Continuous
 62
     7
370
    25
100
AcDbLine
 10
583.1422224852
 20
584.4510118657
 30
0.0
 11
556.2414185507
 21
584.4510118657
 31
0.0
  0
LINE
  5
7C
330
1F
100
AcDbEntity
  8
0
  6
Continuous
 62
     7
370
    25
100
AcDbLine
 10
625.8009808052
 20
584.4510118657
 30
0.0
 11
599.4815072443
 21
584.4510118657
 31
0.0
  0
LINE
  5
7D
330
1F
100
AcDbEntity
  8
0
  6
Continuous
 62
     7
370
    25
100
AcDbLine
 10
598.9098307551
 20
560.4510118657
 30
0.0
 11
625.8298432708
 21
560.4510118657
 31
0.0
  0
LINE
  5
7E
330
1F
100
AcDbEntity
  8
0
  6
Continuous
 62
     7
370
    25
100
AcDbLine
 10
556.1898182395
 20
560.4510118657
 30
0.0
 11
582.538154266
 21
560.4510118657
 31
0.0
  0
LINE
  5
7F
330
1F
100
AcDbEntity
  8
0
  6
Continuous
 62
     7
370
    25
100
AcDbLine
 10
602.5598307551
 20
427.060161175
 30
0.0
 11
602.5598307551
 21
427.8572442795
 31
0.0
  0
LINE
  5
80
330
1F
100
AcDbEntity
  8
0
  6
Continuous
 62
     7
370
    25
100
AcDbLine
 10
579.4598307551
 20
427.8572442795
 30
0.0
 11
579.4598307551
 21
427.060161175
 31
0.0
  0
SPLINE
  5
81
330
1F
100
AcDbEntity
  8
0
  6
Continuous
 62
     7
370
    25
100
AcDbSpline
210
0.0
220
0.0
230
1.0
 70
     8
 71
     3
 72
    17
 73
    13
 74
     0
 42
0.00000001
 43
0.00000001
 40
0.0
 40
0.0
 40
0.0
 40
0.0
 40
0.0757579440856127
 40
0.1942601771532552
 40
0.2932813365823487
 40
0.377216425467929
 40
0.4453519830783902
 40
0.4951593074867338
 40
0.5404953926959284
 40
0.6073606140363184
 40
0.7701563831376653
 40
1.0
 40
1.0
 40
1.0
 40
1.0
 10
482.789389306032
 20
569.6300940533836
 30
0.0
 10
482.7916688136361
 20
569.5985434081587
 30
0.0
 10
482.7975139768903
 20
569.5176405536176
 30
0.0
 10
482.8595221556658
 20
569.4086203321034
 30
0.0
 10
482.9424270129795
 20
569.3153264964421
 30
0.0
 10
483.0276409203332
 20
569.2562884825503
 30
0.0
 10
483.1008870498637
 20
569.2234001480921
 30
0.0
 10
483.1525687839055
 20
569.2077498889513
 30
0.0
 10
483.1893339651172
 20
569.1994036923396
 30
0.0
 10
483.2330665747436
 20
569.1919121204421
 30
0.0
 10
483.284093949932
 20
569.1850442940199
 30
0.0
 10
483.374696328269
 20
569.1775854122837
 30
0.0
 10
483.4277332345952
 20
569.1732191250051
 30
0.0
  0
SPLINE
  5
82
330
1F
100
AcDbEntity
  8
0
  6
Continuous
 62
     7
370
    25
100
AcDbSpline
210
0.0
220
0.0
230
1.0
 70
     8
 71
     3
 72
    17
 73
    13
 74
     0
 42
0.00000001
 43
0.00000001
 40
0.0
 40
0.0
 40
0.0
 40
0.0
 40
0.1671646324420718
 40
0.4609305030235731
 40
0.5801490999719644
 40
0.621748709049821
 40
0.6616880044614971
 40
0.7175043017182489
 40
0.7837765763042224
 40
0.8640580892368782
 40
0.9541551172789876
 40
1.0
 40
1.0
 40
1.0
 40
1.0
 10
483.7922890364757
 20
575.757748916032
 30
0.0
 10
483.7110609599698
 20
575.7519571546771
 30
0.0
 10
483.4870871587145
 20
575.7359872725576
 30
0.0
 10
483.306684322924
 20
575.7192418203025
 30
0.0
 10
483.2235801917567
 20
575.709199172972
 30
0.0
 10
483.1617819339804
 20
575.6969730950029
 30
0.0
 10
483.0915637284411
 20
575.6761260786096
 30
0.0
 10
482.997242346929
 20
575.6292900988884
 30
0.0
 10
482.895028747524
 20
575.5429488289831
 30
0.0
 10
482.810475864916
 20
575.4109857925747
 30
0.0
 10
482.7675679363988
 20
575.2690264160113
 30
0.0
 10
482.7828233339679
 20
575.1803039269195
 30
0.0
 10
482.7879680454736
 20
575.1503832638634
 30
0.0
  0
LINE
  5
83
330
1F
100
AcDbEntity
  8
0
  6
Continuous
 62
     7
370
    25
100
AcDbLine
 10
483.7922890365
 20
569.1442748153
 30
0.0
 11
487.2756097273
 21
568.902107287
 31
0.0
  0
LINE
  5
84
330
1F
100
AcDbEntity
  8
0
  6
Continuous
 62
     7
370
    25
100
AcDbLine
 10
487.2756097273
 20
575.9999164444
 30
0.0
 11
483.7922890365
 21
575.757748916
 31
0.0
  0
ARC
  5
85
330
1F
100
AcDbEntity
  8
0
  6
Continuous
 62
     7
370
    25
100
AcDbCircle
 10
532.1008155499
 20
575.4229063415
 30
0.0
 40
8.999995138923122
100
AcDbArc
 50
77.1419190681
 51
90.0
  0
ARC
  5
86
330
1F
100
AcDbEntity
  8
0
  6
Continuous
 62
     7
370
    25
100
AcDbCircle
 10
532.1008155499
 20
575.4229063415
 30
0.0
 40
8.999995138923058
100
AcDbArc
 50
90.0
 51
125.1719294169
  0
SPLINE
  5
87
330
1F
100
AcDbEntity
  8
0
  6
Continuous
 62
     7
370
    25
100
AcDbSpline
210
0.0
220
0.0
230
1.0
 70
     8
 71
     3
 72
    17
 73
    13
 74
     0
 42
0.00000001
 43
0.00000001
 40
0.0
 40
0.0
 40
0.0
 40
0.0
 40
0.0757579440856099
 40
0.1942601771532503
 40
0.2932813365823485
 40
0.3772164254679302
 40
0.4453519830783901
 40
0.4951593074867327
 40
0.5404953926959328
 40
0.6073606140363217
 40
0.7701563831376582
 40
1.0
 40
1.0
 40
1.0
 40
1.0
 10
699.2302722042658
 20
575.5173509668174
 30
0.0
 10
699.2279926966618
 20
575.5489016120423
 30
0.0
 10
699.2221475334075
 20
575.6298044665833
 30
0.0
 10
699.160139354632
 20
575.7388246880976
 30
0.0
 10
699.0772344973183
 20
575.8321185237588
 30
0.0
 10
698.9920205899646
 20
575.8911565376507
 30
0.0
 10
698.9187744604341
 20
575.924044872109
 30
0.0
 10
698.8670927263923
 20
575.9396951312497
 30
0.0
 10
698.8303275451806
 20
575.9480413278615
 30
0.0
 10
698.7865949355543
 20
575.9555328997589
 30
0.0
 10
698.7355675603658
 20
575.962400726181
 30
0.0
 10
698.6449651820288
 20
575.9698596079172
 30
0.0
 10
698.5919282757026
 20
575.974225895196
 30
0.0
  0
SPLINE
  5
88
330
1F
100
AcDbEntity
  8
0
  6
Continuous
 62
     7
370
    25
100
AcDbSpline
210
0.0
220
0.0
230
1.0
 70
     8
 71
     3
 72
    17
 73
    13
 74
     0
 42
0.00000001
 43
0.00000001
 40
0.0
 40
0.0
 40
0.0
 40
0.0
 40
0.1671646324420844
 40
0.4609305030235686
 40
0.5801490999719606
 40
0.6217487090498167
 40
0.6616880044614973
 40
0.7175043017182484
 40
0.7837765763042167
 40
0.8640580892368669
 40
0.9541551172789771
 40
1.0
 40
1.0
 40
1.0
 40
1.0
 10
698.227372473822
 20
569.3896961041689
 30
0.0
 10
698.3086005503279
 20
569.3954878655237
 30
0.0
 10
698.5325743515833
 20
569.4114577476433
 30
0.0
 10
698.7129771873738
 20
569.4282031998983
 30
0.0
 10
698.796081318541
 20
569.438245847229
 30
0.0
 10
698.8578795763174
 20
569.450471925198
 30
0.0
 10
698.9280977818568
 20
569.4713189415913
 30
0.0
 10
699.0224191633688
 20
569.5181549213125
 30
0.0
 10
699.1246327627739
 20
569.6044961912179
 30
0.0
 10
699.2091856453817
 20
569.7364592276263
 30
0.0
 10
699.2520935738991
 20
569.8784186041896
 30
0.0
 10
699.23683817633
 20
569.9671410932815
 30
0.0
 10
699.2316934648242
 20
569.9970617563374
 30
0.0
  0
LINE
  5
89
330
1F
100
AcDbEntity
  8
0
  6
Continuous
 62
     7
370
    25
100
AcDbLine
 10
698.2273724738
 20
576.0031702049
 30
0.0
 11
694.7440517829
 21
576.2453377332
 31
0.0
  0
LINE
  5
8A
330
1F
100
AcDbEntity
  8
0
  6
Continuous
 62
     7
370
    25
100
AcDbLine
 10
694.7440517829
 20
569.1475285758
 30
0.0
 11
698.2273724738
 21
569.3896961042
 31
0.0
  0
ARC
  5
8B
330
1F
100
AcDbEntity
  8
0
  6
Continuous
 62
     7
370
    25
100
AcDbCircle
 10
649.9188459604
 20
569.7245386787
 30
0.0
 40
8.999995138923012
100
AcDbArc
 50
257.1419190681
 51
270.0
  0
ARC
  5
8C
330
1F
100
AcDbEntity
  8
0
  6
Continuous
 62
     7
370
    25
100
AcDbCircle
 10
649.9188459604
 20
569.7245386787
 30
0.0
 40
8.999995138922966
100
AcDbArc
 50
270.0
 51
305.1719294169
  0
SPLINE
  5
8D
330
1F
100
AcDbEntity
  8
0
  6
Continuous
 62
     7
370
    25
100
AcDbSpline
210
0.0
220
0.0
230
1.0
 70
     8
 71
     3
 72
    19
 73
    15
 74
     0
 42
0.00000001
 43
0.00000001
 40
0.0
 40
0.0
 40
0.0
 40
0.0
 40
0.0029114949483362
 40
0.1103449700018815
 40
0.2177792512512349
 40
0.3251903449012482
 40
0.4325535863764741
 40
0.5398727389020745
 40
0.6471708839500626
 40
0.7544802800170782
 40
0.861878470664469
 40
0.9692754543929453
 40
0.9970885050516541
 40
1.0
 40
1.0
 40
1.0
 40
1.0
 10
598.9098307551483
 20
572.4510118656876
 30
0.0
 10
598.9097592636573
 20
572.4749805868814
 30
0.0
 10
598.9070497530571
 20
573.3833894517591
 30
0.0
 10
598.581880137075
 20
575.1878582423964
 30
0.0
 10
597.249814931076
 20
577.5387272319601
 30
0.0
 10
595.2128493086975
 20
579.3183695311691
 30
0.0
 10
592.7025531083174
 20
580.3223039111518
 30
0.0
 10
590.0021450270929
 20
580.4388662413484
 30
0.0
 10
587.415852167412
 20
579.6555709290018
 30
0.0
 10
585.2342585142925
 20
578.0599509950995
 30
0.0
 10
583.7029015312036
 20
575.8340876211482
 30
0.0
 10
583.1709974340764
 20
573.8643054377764
 30
0.0
 10
583.1106529195652
 20
572.7279406639695
 30
0.0
 10
583.1099019207048
 20
572.4749824871959
 30
0.0
 10
583.1098307551483
 20
572.4510118656858
 30
0.0
  0
ARC
  5
8E
330
1F
100
AcDbEntity
  8
0
  6
Continuous
 62
     7
370
    25
100
AcDbCircle
 10
591.0171914304
 20
428.0078231516
 30
0.0
 40
7.892642769867888
100
AcDbArc
 50
269.9465659729
 51
359.9464661214
  0
ARC
  5
8F
330
1F
100
AcDbEntity
  8
0
  6
Continuous
 62
     7
370
    25
100
AcDbCircle
 10
591.0024700799
 20
428.0078231516
 30
0.0
 40
7.89264276986757
100
AcDbArc
 50
180.0535338786
 51
270.0534340271
  0
SPLINE
  5
90
330
1F
100
AcDbEntity
  8
0
  6
Continuous
 62
     7
370
    25
100
AcDbSpline
210
0.0
220
0.0
230
1.0
 70
     8
 71
     3
 72
    21
 73
    17
 74
     0
 42
0.00000001
 43
0.00000001
 40
0.0
 40
0.0
 40
0.0
 40
0.0
 40
0.0498189526096258
 40
0.1222973661641361
 40
0.1968776637060937
 40
0.2693562176334904
 40
0.3439344104898216
 40
0.4165032473996201
 40
0.491157773632333
 40
0.5640363137086787
 40
0.639028277782304
 40
0.7119081305452346
 40
0.7868834846874518
 40
0.860061157307526
 40
0.9353588545660279
 40
1.0
 40
1.0
 40
1.0
 40
1.0
 10
597.95053517053
 20
419.9164582238068
 30
0.0
 10
597.640333786089
 20
419.6600845555732
 30
0.0
 10
596.8788402116478
 20
419.0307292051207
 30
0.0
 10
595.4908630034055
 20
418.2362285773731
 30
0.0
 10
593.8258509068686
 20
417.6078973799217
 30
0.0
 10
592.0601405222841
 20
417.2681704683067
 30
0.0
 10
590.2789170829705
 20
417.2286916445749
 30
0.0
 10
588.4993680067555
 20
417.4893630855198
 30
0.0
 10
586.8011784464646
 20
418.0391529206728
 30
0.0
 10
585.2026126071761
 20
418.8739058490838
 30
0.0
 10
583.7781036028942
 20
419.9564801615052
 30
0.0
 10
582.5453824062741
 20
421.2740992786349
 30
0.0
 10
581.5562488129054
 20
422.7668563796151
 30
0.0
 10
580.8316831399601
 20
424.4211206227298
 30
0.0
 10
580.3883294246909
 20
426.0931038725418
 30
0.0
 10
580.3376571595711
 20
427.2212851497887
 30
0.0
 10
580.3142504113368
 20
427.7424194439936
 30
0.0
  0
LINE
  5
91
330
1F
100
AcDbEntity
  8
0
  6
Continuous
 62
     7
370
    25
100
AcDbLine
 10
591.0098307551
 20
580.3510118657
 30
0.0
 11
590.7573525959
 21
580.3316514509
 31
0.0
  0
SPLINE
  5
92
330
1F
100
AcDbEntity
  8
0
  6
Continuous
 62
     7
370
    25
100
AcDbSpline
210
0.0
220
0.0
230
1.0
 70
     8
 71
     3
 72
    27
 73
    23
 74
     0
 42
0.00000001
 43
0.00000001
 40
0.0
 40
0.0
 40
0.0
 40
0.0
 40
0.0105576388416009
 40
0.0489454086825492
 40
0.1018493607400487
 40
0.1547534606506871
 40
0.2076581786657622
 40
0.2605620674206845
 40
0.313467295688603
 40
0.3663711466951066
 40
0.41927618697887
 40
0.4721801434500818
 40
0.5250843067036461
 40
0.5779889799425397
 40
0.6308928732402851
 40
0.6837980918028
 40
0.7367019385155906
 40
0.7896070062095919
 40
0.8425109648323758
 40
0.8954151897439202
 40
0.948319816504827
 40
1.0
 40
1.0
 40
1.0
 40
1.0
 10
587.071889389525
 20
579.2193813481698
 30
0.0
 10
586.9068791408549
 20
579.148265512079
 30
0.0
 10
586.1418885800734
 20
578.818571182363
 30
0.0
 10
585.1561524782991
 20
577.8267548252845
 30
0.0
 10
583.6287729706463
 20
575.7396447857453
 30
0.0
 10
582.9973389937616
 20
573.1361990930479
 30
0.0
 10
583.2113281424411
 20
570.4380898526739
 30
0.0
 10
584.320399640143
 20
567.9717077873014
 30
0.0
 10
586.1797732286037
 20
566.0091815875215
 30
0.0
 10
588.5849420276386
 20
564.7735496083978
 30
0.0
 10
591.2633300352172
 20
564.4036589557327
 30
0.0
 10
593.9131821877016
 20
564.9413849413222
 30
0.0
 10
596.2355621520242
 20
566.3259988280795
 30
0.0
 10
597.968637005461
 20
568.4014352778395
 30
0.0
 10
598.9168607713943
 20
570.9335286664148
 30
0.0
 10
598.9733979448032
 20
573.6367809933151
 30
0.0
 10
598.1316273971298
 20
576.206492437168
 30
0.0
 10
596.4873370182459
 20
578.3517111785118
 30
0.0
 10
594.2227528381511
 20
579.835168560557
 30
0.0
 10
591.6053781998518
 20
580.4718693872622
 30
0.0
 10
588.9061863562661
 20
580.2578701717692
 30
0.0
 10
587.3562876298977
 20
579.4154672754238
 30
0.0
 10
586.5904111093827
 20
578.9991971100585
 30
0.0
  0
ARC
  5
93
330
1F
100
AcDbEntity
  8
0
  6
Continuous
 62
     7
370
    25
100
AcDbCircle
 10
641.8098307551
 20
572.4510118657
 30
0.0
 40
17.60000000000011
100
AcDbArc
 50
152.0468131166
 51
172.4240831695
  0
ARC
  5
94
330
1F
100
AcDbEntity
  8
0
  6
Continuous
 62
     7
370
    25
100
AcDbCircle
 10
641.8098307551
 20
572.4510118657
 30
0.0
 40
17.60000000000004
100
AcDbArc
 50
188.0274332515
 51
207.9531868834
  0
ARC
  5
95
330
1F
100
AcDbEntity
  8
0
  6
Continuous
 62
     7
370
    25
100
AcDbCircle
 10
641.8098307551
 20
572.4510118657
 30
0.0
 40
17.60000000000006
100
AcDbArc
 50
207.9531868834
 51
232.3691244224
  0
ARC
  5
96
330
1F
100
AcDbEntity
  8
0
  6
Continuous
 62
     7
370
    25
100
AcDbCircle
 10
641.8098307551
 20
572.4510118657
 30
0.0
 40
17.60000000000003
100
AcDbArc
 50
247.9025629193
 51
292.3626879298
  0
ARC
  5
97
330
1F
100
AcDbEntity
  8
0
  6
Continuous
 62
     7
370
    25
100
AcDbCircle
 10
641.8098307551
 20
572.4510118657
 30
0.0
 40
17.60000000000004
100
AcDbArc
 50
307.9083902166
 51
329.914091969
  0
ARC
  5
98
330
1F
100
AcDbEntity
  8
0
  6
Continuous
 62
     7
370
    25
100
AcDbCircle
 10
641.8098307551
 20
572.4510118657
 30
0.0
 40
17.60000000000004
100
AcDbArc
 50
33.0957362986
 51
52.3504402001
  0
ARC
  5
99
330
1F
100
AcDbEntity
  8
0
  6
Continuous
 62
     7
370
    25
100
AcDbCircle
 10
641.8098307551
 20
572.4510118657
 30
0.0
 40
17.6000000000001
100
AcDbArc
 50
67.919811521
 51
112.3446244204
  0
ARC
  5
9A
330
1F
100
AcDbEntity
  8
0
  6
Continuous
 62
     7
370
    25
100
AcDbCircle
 10
641.8098307551
 20
572.4510118657
 30
0.0
 40
17.60000000000009
100
AcDbArc
 50
127.925404337
 51
152.0468131166
  0
ARC
  5
9B
330
1F
100
AcDbEntity
  8
0
  6
Continuous
 62
     7
370
    25
100
AcDbCircle
 10
540.2098307551
 20
572.4510118657
 30
0.0
 40
17.60000000000015
100
AcDbArc
 50
0.2502623407
 51
27.9531868834
  0
LWPOLYLINE
  5
9C
330
1F
100
AcDbEntity
  8
0
  6
Continuous
 62
     7
370
    25
100
AcDbPolyline
 90
        3
 70
   128
 43
0.0
 10
557.2793688509
 20
568.1625541946
 10
556.6447081631
 20
566.1538057721
 10
555.7564541828
 20
564.2010118657
  0
ARC
  5
9D
330
1F
100
AcDbEntity
  8
0
  6
Continuous
 62
     7
370
    25
100
AcDbCircle
 10
540.2098307551
 20
572.4510118657
 30
0.0
 40
17.60000000000014
100
AcDbArc
 50
300.0995738721
 51
332.0468131166
  0
ARC
  5
9E
330
1F
100
AcDbEntity
  8
0
  6
Continuous
 62
     7
370
    25
100
AcDbCircle
 10
540.2098307551
 20
572.4510118657
 30
0.0
 40
17.59999999999998
100
AcDbArc
 50
240.0887671066
 51
287.00285056
  0
ARC
  5
9F
330
1F
100
AcDbEntity
  8
0
  6
Continuous
 62
     7
370
    25
100
AcDbCircle
 10
540.2098307551
 20
572.4510118657
 30
0.0
 40
17.59999999999997
100
AcDbArc
 50
211.5427743269
 51
226.9952151798
  0
ARC
  5
A0
330
1F
100
AcDbEntity
  8
0
  6
Continuous
 62
     7
370
    25
100
AcDbCircle
 10
540.2098307551
 20
572.4510118657
 30
0.0
 40
17.60000000000003
100
AcDbArc
 50
120.0670290607
 51
148.4572256731
  0
ARC
  5
A1
330
1F
100
AcDbEntity
  8
0
  6
Continuous
 62
     7
370
    25
100
AcDbCircle
 10
540.2098307551
 20
572.4510118657
 30
0.0
 40
17.60000000000022
100
AcDbArc
 50
60.0560983323
 51
106.9675609087
  0
ARC
  5
A2
330
1F
100
AcDbEntity
  8
0
  6
Continuous
 62
     7
370
    25
100
AcDbCircle
 10
540.2098307551
 20
572.4510118657
 30
0.0
 40
17.60000000000019
100
AcDbArc
 50
27.9531868834
 51
47.0212390369
  0
LWPOLYLINE
  5
A3
330
1F
100
AcDbEntity
  8
0
  6
Continuous
 62
     7
370
    25
100
AcDbPolyline
 90
        9
 70
   128
 43
0.0
 10
626.2632073275
 20
564.2010118657
 10
625.8407232614
 20
564.7772281585
 10
625.2469994606
 20
565.2419450593
 10
624.497337944
 20
565.5831854385
 10
623.6110597065
 20
565.7921545223
 10
622.6110067603
 20
565.863466559
 10
621.5229534283
 20
565.7952836266
 10
620.3749420635
 20
565.5893630009
 10
619.196560315
 20
565.2510118657
  0
SPLINE
  5
A4
330
1F
100
AcDbEntity
  8
0
  6
Continuous
 62
     7
370
    25
100
AcDbSpline
210
0.0
220
0.0
230
1.0
 70
     8
 71
     3
 72
    30
 73
    26
 74
     0
 42
0.00000001
 43
0.00000001
 40
0.0
 40
0.0
 40
0.0
 40
0.0
 40
0.1249999999999998
 40
0.1249999999999998
 40
0.1874999999999996
 40
0.1874999999999996
 40
0.2499999999999994
 40
0.2499999999999994
 40
0.3749999999999993
 40
0.3749999999999993
 40
0.4999999999999992
 40
0.4999999999999992
 40
0.5624999999999991
 40
0.5624999999999991
 40
0.624999999999999
 40
0.624999999999999
 40
0.7499999999999991
 40
0.7499999999999991
 40
0.8124999999999994
 40
0.8124999999999994
 40
0.8749999999999997
 40
0.8749999999999997
 40
0.9374999999999999
 40
0.9374999999999999
 40
1.0
 40
1.0
 40
1.0
 40
1.0
 10
619.1965603149847
 20
565.2510118656863
 30
0.0
 10
618.8034476869036
 20
565.6954899742984
 30
0.0
 10
618.4782921278222
 20
566.1900985059436
 30
0.0
 10
618.0856854071927
 20
567.016663712568
 30
0.0
 10
617.9720045497393
 20
567.3038735171559
 30
0.0
 10
617.7776472925917
 20
567.8916273015125
 30
0.0
 10
617.69628876057
 20
568.1935656122407
 30
0.0
 10
617.491297719132
 20
569.1225154963298
 30
0.0
 10
617.4062458463201
 20
569.7772745232311
 30
0.0
 10
617.3019619272023
 20
571.1118993890316
 30
0.0
 10
617.2815992168345
 20
571.7824868981637
 30
0.0
 10
617.2816417194905
 20
572.7871937023821
 30
0.0
 10
617.2870932423143
 20
573.1222264001079
 30
0.0
 10
617.3103984889545
 20
573.7925609976097
 30
0.0
 10
617.3284102485762
 20
574.129577017295
 30
0.0
 10
617.4065510901412
 20
575.1267013912018
 30
0.0
 10
617.489835327498
 20
575.7713255773621
 30
0.0
 10
617.6952462789134
 20
576.7045017214836
 30
0.0
 10
617.7779094089929
 20
577.0117054176645
 30
0.0
 10
617.9744269562201
 20
577.604952358262
 30
0.0
 10
618.0875123189201
 20
577.8892879264168
 30
0.0
 10
618.3462818986169
 20
578.4339187549157
 30
0.0
 10
618.491958641667
 20
578.6942153826952
 30
0.0
 10
618.8184535809739
 20
579.191347468655
 30
0.0
 10
618.9999173743138
 20
579.4286748658102
 30
0.0
 10
619.1965603149841
 20
579.6510118656865
 30
0.0
  0
LWPOLYLINE
  5
A5
330
1F
100
AcDbEntity
  8
0
  6
Continuous
 62
     7
370
    25
100
AcDbPolyline
 90
        9
 70
   128
 43
0.0
 10
619.196560315
 20
579.6510118657
 10
620.3749420635
 20
579.3126607304
 10
621.5229534283
 20
579.1067401048
 10
622.6110067603
 20
579.0385571723
 10
623.6110597065
 20
579.1098692091
 10
624.497337944
 20
579.3188382928
 10
625.2469994606
 20
579.6600786721
 10
625.8407232614
 20
580.1247955728
 10
626.2632073275
 20
580.7010118657
  0
LWPOLYLINE
  5
A6
330
1F
100
AcDbEntity
  8
0
  6
Continuous
 62
     7
370
    25
100
AcDbPolyline
 90
        9
 70
   128
 43
0.0
 10
562.8231011953
 20
579.6510118657
 10
561.6447194468
 20
579.3126607304
 10
560.496708082
 20
579.1067401048
 10
559.40865475
 20
579.0385571724
 10
558.4086018037
 20
579.1098692091
 10
557.5223235663
 20
579.3188382929
 10
556.7726620497
 20
579.6600786721
 10
556.1789382489
 20
580.1247955728
 10
555.7564541828
 20
580.7010118657
  0
LWPOLYLINE
  5
A7
330
1F
100
AcDbEntity
  8
0
  6
Continuous
 62
     7
370
    25
100
AcDbPolyline
 90
        9
 70
   128
 43
0.0
 10
555.7564541828
 20
564.2010118657
 10
556.1789382489
 20
564.7772281585
 10
556.7726620497
 20
565.2419450593
 10
557.5223235663
 20
565.5831854385
 10
558.4086018038
 20
565.7921545223
 10
559.40865475
 20
565.863466559
 10
560.496708082
 20
565.7952836266
 10
561.6447194468
 20
565.5893630009
 10
562.8231011953
 20
565.2510118657
  0
SPLINE
  5
A8
330
1F
100
AcDbEntity
  8
0
  6
Continuous
 62
     7
370
    25
100
AcDbSpline
210
0.0
220
0.0
230
1.0
 70
     8
 71
     3
 72
    26
 73
    22
 74
     0
 42
0.00000001
 43
0.00000001
 40
0.0
 40
0.0
 40
0.0
 40
0.0
 40
0.1249999999999996
 40
0.1249999999999996
 40
0.1874999999999994
 40
0.1874999999999994
 40
0.2499999999999992
 40
0.2499999999999992
 40
0.3749999999999991
 40
0.3749999999999991
 40
0.4374999999999992
 40
0.4374999999999992
 40
0.4999999999999992
 40
0.4999999999999992
 40
0.6249999999999993
 40
0.6249999999999993
 40
0.7499999999999994
 40
0.7499999999999994
 40
0.8749999999999998
 40
0.8749999999999998
 40
1.0
 40
1.0
 40
1.0
 40
1.0
 10
562.823101195304
 20
579.6510118656963
 30
0.0
 10
563.2158763529055
 20
579.2069153226474
 30
0.0
 10
563.5398131105032
 20
578.7138946363249
 30
0.0
 10
563.9306858029981
 20
577.8929305395691
 30
0.0
 10
564.0453619499758
 20
577.6047003058346
 30
0.0
 10
564.2423097109926
 20
577.0098891143521
 30
0.0
 10
564.3246506932034
 20
576.7035407486646
 30
0.0
 10
564.5298528038975
 20
575.7709867954802
 30
0.0
 10
564.6130822553944
 20
575.1268098402384
 30
0.0
 10
564.691196789907
 20
574.1303974206216
 30
0.0
 10
564.7092101271651
 20
573.7936159869481
 30
0.0
 10
564.7325315433109
 20
573.1237473499805
 30
0.0
 10
564.7379976732163
 20
572.7889474563672
 30
0.0
 10
564.738106080881
 20
571.7849385244406
 30
0.0
 10
564.7177657019658
 20
571.1142274087363
 30
0.0
 10
564.6138839413456
 20
569.7817932992938
 30
0.0
 10
564.5307264018649
 20
569.1364762811759
 30
0.0
 10
564.2576029993513
 20
567.8923231976654
 30
0.0
 10
564.0638854016843
 20
567.2897712227782
 30
0.0
 10
563.540692139239
 20
566.1890678595882
 30
0.0
 10
563.2158041862587
 20
565.6950268125319
 30
0.0
 10
562.8231011953131
 20
565.2510118656862
 30
0.0
  0
ARC
  5
A9
330
1F
100
AcDbEntity
  8
0
  6
Continuous
 62
     7
370
    25
100
AcDbCircle
 10
591.0099004904
 20
427.8523716792
 30
0.0
 40
11.5422709877113
100
AcDbArc
 50
133.6043162603
 51
46.0917963291
  0
ARC
  5
AA
330
1F
100
AcDbEntity
  8
0
  6
Continuous
 62
     7
370
    25
100
AcDbCircle
 10
591.0330478629
 20
427.8513432716
 30
0.0
 40
10.47792488952436
100
AcDbArc
 50
20.8754325104
 51
41.124772821
  0
ARC
  5
AB
330
1F
100
AcDbEntity
  8
0
  6
Continuous
 62
     7
370
    25
100
AcDbCircle
 10
591.0134853427
 20
427.8581416044
 30
0.0
 40
10.49378923133115
100
AcDbArc
 50
139.1755389989
 51
20.8026896877
  0
ARC
  5
AC
330
1F
100
AcDbEntity
  8
0
  6
Continuous
 62
     7
370
    25
100
AcDbCircle
 10
591.0098307551
 20
427.0770759616
 30
0.0
 40
11.55001238570794
100
AcDbArc
 50
180.0839086745
 51
359.9160913255
  0
SPLINE
  5
AD
330
1F
100
AcDbEntity
  8
0
  6
Continuous
 62
     7
370
    25
100
AcDbSpline
210
0.0
220
0.0
230
1.0
 70
     8
 71
     3
 72
     9
 73
     5
 74
     0
 42
0.00000001
 43
0.00000001
 40
0.0
 40
0.0
 40
0.0
 40
0.0
 40
0.7403514143772684
 40
0.9999999999999999
 40
0.9999999999999999
 40
0.9999999999999999
 40
0.9999999999999999
 10
600.8231740153927
 20
431.5850197317249
 30
0.0
 10
601.1300886063595
 20
430.6801092393991
 30
0.0
 10
601.5446411891014
 20
429.4578376603181
 30
0.0
 10
601.4466185959553
 20
428.1876072698229
 30
0.0
 10
601.4211671682858
 20
427.8577937455157
 30
0.0
  0
ARC
  5
AE
330
1F
100
AcDbEntity
  8
0
  6
Continuous
 62
     7
370
    25
100
AcDbCircle
 10
591.0098307551
 20
572.4510118657
 30
0.0
 40
9.925000000000143
100
AcDbArc
 50
323.5169244281
 51
67.9957718913
  0
ARC
  5
AF
330
1F
100
AcDbEntity
  8
0
  6
Continuous
 62
     7
370
    25
100
AcDbCircle
 10
591.0098307551
 20
572.4510118657
 30
0.0
 40
9.925000000000143
100
AcDbArc
 50
67.9957718913
 51
216.1348595983
  0
ARC
  5
B0
330
1F
100
AcDbEntity
  8
0
  6
Continuous
 62
     7
370
    25
100
AcDbCircle
 10
591.0098307551
 20
572.4510118657
 30
0.0
 40
9.725000000000126
100
AcDbArc
 50
67.9957718913
 51
214.7347768834
  0
ARC
  5
B1
330
1F
100
AcDbEntity
  8
0
  6
Continuous
 62
     7
370
    25
100
AcDbCircle
 10
591.0098307551
 20
572.4510118657
 30
0.0
 40
9.725000000000126
100
AcDbArc
 50
325.2779240962
 51
67.9957718913
  0
ARC
  5
B2
330
1F
100
AcDbEntity
  8
0
  6
Continuous
 62
     7
370
    25
100
AcDbCircle
 10
591.0098307551
 20
572.4510118657
 30
0.0
 40
14.22500000000003
100
AcDbArc
 50
304.125440521
 51
67.9957718913
  0
ARC
  5
B3
330
1F
100
AcDbEntity
  8
0
  6
Continuous
 62
     7
370
    25
100
AcDbCircle
 10
591.0098307551
 20
572.4510118657
 30
0.0
 40
14.22500000000003
100
AcDbArc
 50
67.9957718913
 51
235.8541895772
  0
LINE
  5
B4
330
1F
100
AcDbEntity
  8
0
  6
Continuous
 62
     7
370
    25
100
AcDbLine
 10
579.831785191
 20
581.2488480977
 30
0.0
 11
579.6411730482
 21
581.3988720358
 31
0.0
  0
SPLINE
  5
B5
330
1F
100
AcDbEntity
  8
0
  6
Continuous
 62
     7
370
    25
100
AcDbSpline
210
0.0
220
0.0
230
1.0
 70
     8
 71
     3
 72
    11
 73
     7
 74
     0
 42
0.00000001
 43
0.00000001
 40
0.0
 40
0.0
 40
0.0
 40
0.0
 40
0.1446702591042532
 40
0.3907520209323643
 40
0.5962314811354598
 40
1.0
 40
1.0
 40
1.0
 40
1.0
 10
585.0800350898494
 20
585.6475304614845
 30
0.0
 10
584.7955071175962
 20
585.473614020859
 30
0.0
 10
584.0270016842187
 20
585.0038685384874
 30
0.0
 10
582.9005200803006
 20
584.2136433744247
 30
0.0
 10
581.3375413197043
 20
583.0082334775925
 30
0.0
 10
580.3173121889205
 20
582.0403319597071
 30
0.0
 10
579.6411730482221
 20
581.3988720358163
 30
0.0
  0
LINE
  5
B6
330
1F
100
AcDbEntity
  8
0
  6
Continuous
 62
     7
370
    25
100
AcDbLine
 10
585.1794567707
 20
585.4262715626
 30
0.0
 11
585.0800350898
 21
585.6475304615
 31
0.0
  0
LINE
  5
B7
330
1F
100
AcDbEntity
  8
0
  6
Continuous
 62
     7
370
    25
100
AcDbLine
 10
582.6881132292
 20
560.9141300331
 30
0.0
 11
582.5462082423
 21
560.7173988824
 31
0.0
  0
LINE
  5
B8
330
1F
100
AcDbEntity
  8
0
  6
Continuous
 62
     7
370
    25
100
AcDbLine
 10
602.3784884621
 20
563.5031516956
 30
0.0
 11
602.1878763193
 21
563.6531756337
 31
0.0
  0
LINE
  5
B9
330
1F
100
AcDbEntity
  8
0
  6
Continuous
 62
     7
370
    25
100
AcDbLine
 10
604.4432338255
 20
577.8226281617
 30
0.0
 11
604.2180032125
 21
577.7325651729
 31
0.0
  0
SPLINE
  5
BA
330
1F
100
AcDbEntity
  8
0
  6
Continuous
 62
     7
370
    25
100
AcDbSpline
210
0.0
220
0.0
230
1.0
 70
     8
 71
     3
 72
    11
 73
     7
 74
     0
 42
0.00000001
 43
0.00000001
 40
0.0
 40
0.0
 40
0.0
 40
0.0
 40
0.1446702591042559
 40
0.3907520209323621
 40
0.5962314811354645
 40
0.9999999999999999
 40
0.9999999999999999
 40
0.9999999999999999
 40
0.9999999999999999
 10
605.4032489332733
 20
570.988106253186
 30
0.0
 10
605.3948968636824
 20
571.3214729255573
 30
0.0
 10
605.3723380593242
 20
572.2218908949943
 30
0.0
 10
605.2512237944953
 20
573.5925651629145
 30
0.0
 10
604.9887975821638
 20
575.5488494235826
 30
0.0
 10
604.6606848447053
 20
576.916344527465
 30
0.0
 10
604.4432338254555
 20
577.8226281617482
 30
0.0
  0
LINE
  5
BB
330
1F
100
AcDbEntity
  8
0
  6
Continuous
 62
     7
370
    25
100
AcDbLine
 10
605.4032489333
 20
570.9881062532
 30
0.0
 11
605.1619222656
 21
571.0126340014
 31
0.0
  0
LINE
  5
BC
330
1F
100
AcDbEntity
  8
0
  6
Continuous
 62
     7
370
    25
100
AcDbLine
 10
593.0399576483
 20
586.5304014049
 30
0.0
 11
593.0745761185
 21
586.7704883319
 31
0.0
  0
SPLINE
  5
BD
330
1F
100
AcDbEntity
  8
0
  6
Continuous
 62
     7
370
    25
100
AcDbSpline
210
0.0
220
0.0
230
1.0
 70
     8
 71
     3
 72
    11
 73
     7
 74
     0
 42
0.00000001
 43
0.00000001
 40
0.0
 40
0.0
 40
0.0
 40
0.0
 40
0.1446702591042541
 40
0.3907520209323653
 40
0.5962314811354787
 40
1.0
 40
1.0
 40
1.0
 40
1.0
 10
599.4734532679744
 20
584.1846248489849
 30
0.0
 10
599.1805732261303
 20
584.3440750807306
 30
0.0
 10
598.3895089883947
 20
584.774747567796
 30
0.0
 10
597.1419131196477
 20
585.3551966716536
 30
0.0
 10
595.3165081467197
 20
586.1060710354895
 30
0.0
 10
593.9681662784775
 20
586.5056646214865
 30
0.0
 10
593.0745761185292
 20
586.7704883318789
 30
0.0
  0
LINE
  5
BE
330
1F
100
AcDbEntity
  8
0
  6
Continuous
 62
     7
370
    25
100
AcDbLine
 10
599.473453268
 20
584.184624849
 30
0.0
 11
599.3315482811
 21
583.9878936982
 31
0.0
  0
LINE
  5
BF
330
1F
100
AcDbEntity
  8
0
  6
Continuous
 62
     7
370
    25
100
AcDbLine
 10
577.8016582978
 20
567.1694585585
 30
0.0
 11
577.5764276848
 21
567.0793955696
 31
0.0
  0
SPLINE
  5
C0
330
1F
100
AcDbEntity
  8
0
  6
Continuous
 62
     7
370
    25
100
AcDbSpline
210
0.0
220
0.0
230
1.0
 70
     8
 71
     3
 72
    11
 73
     7
 74
     0
 42
0.00000001
 43
0.00000001
 40
0.0
 40
0.0
 40
0.0
 40
0.0
 40
0.1446702591042546
 40
0.3907520209323575
 40
0.596231481135475
 40
1.0
 40
1.0
 40
1.0
 40
1.0
 10
576.6164125770233
 20
573.9139174781855
 30
0.0
 10
576.6247646466142
 20
573.5805508058141
 30
0.0
 10
576.6473234509723
 20
572.6801328363771
 30
0.0
 10
576.7684377158013
 20
571.3094585684569
 30
0.0
 10
577.0308639281327
 20
569.3531743077888
 30
0.0
 10
577.3589766655912
 20
567.9856792039063
 30
0.0
 10
577.5764276848411
 20
567.0793955696232
 30
0.0
  0
LINE
  5
C1
330
1F
100
AcDbEntity
  8
0
  6
Continuous
 62
     7
370
    25
100
AcDbLine
 10
576.8577392447
 20
573.88938973
 30
0.0
 11
576.616412577
 21
573.9139174782
 31
0.0
  0
SPLINE
  5
C2
330
1F
100
AcDbEntity
  8
0
  6
Continuous
 62
     7
370
    25
100
AcDbSpline
210
0.0
220
0.0
230
1.0
 70
     8
 71
     3
 72
     9
 73
     5
 74
     0
 42
0.00000001
 43
0.00000001
 40
0.0
 40
0.0
 40
0.0
 40
0.0
 40
0.5862283062032689
 40
1.0
 40
1.0
 40
1.0
 40
1.0
 10
602.3784884620744
 20
563.503151695555
 30
0.0
 10
602.6121932533292
 20
563.7400552334468
 30
0.0
 10
603.0108515725914
 20
564.1441700388647
 30
0.0
 10
603.3944414353567
 20
564.5642041733382
 30
0.0
 10
603.5531600625964
 20
564.7380024086117
 30
0.0
  0
SPLINE
  5
C3
330
1F
100
AcDbEntity
  8
0
  6
Continuous
 62
     7
370
    25
100
AcDbSpline
210
0.0
220
0.0
230
1.0
 70
     8
 71
     3
 72
     9
 73
     5
 74
     0
 42
0.00000001
 43
0.00000001
 40
0.0
 40
0.0
 40
0.0
 40
0.0
 40
0.586384789828365
 40
1.0
 40
1.0
 40
1.0
 40
1.0
 10
605.3901860522792
 20
569.2838354373384
 30
0.0
 10
605.3988403194159
 20
569.6172833473672
 30
0.0
 10
605.4135990022583
 20
570.1859336872344
 30
0.0
 10
605.4062773004893
 20
570.7533954407438
 30
0.0
 10
605.4032489332732
 20
570.988106253186
 30
0.0
  0
ARC
  5
C4
330
1F
100
AcDbEntity
  8
0
  6
Continuous
 62
     7
370
    25
100
AcDbCircle
 10
591.0098307551
 20
572.4510118657
 30
0.0
 40
14.72500000000009
100
AcDbArc
 50
328.4122563286
 51
347.579287454
  0
SPLINE
  5
C5
330
1F
100
AcDbEntity
  8
0
  6
Continuous
 62
     7
370
    25
100
AcDbSpline
210
0.0
220
0.0
230
1.0
 70
     8
 71
     3
 72
     9
 73
     5
 74
     0
 42
0.00000001
 43
0.00000001
 40
0.0
 40
0.0
 40
0.0
 40
0.0
 40
0.5863847898283636
 40
1.0
 40
1.0
 40
1.0
 40
1.0
 10
586.5625083517988
 20
586.4883530826208
 30
0.0
 10
586.2694068573068
 20
586.329123942798
 30
0.0
 10
585.76956187569
 20
586.0575801671323
 30
0.0
 10
585.2817864323592
 20
585.7675085106466
 30
0.0
 10
585.0800350898494
 20
585.6475304614845
 30
0.0
  0
ARC
  5
C6
330
1F
100
AcDbEntity
  8
0
  6
Continuous
 62
     7
370
    25
100
AcDbCircle
 10
591.0098307551
 20
572.4510118657
 30
0.0
 40
14.725
100
AcDbArc
 50
88.4122563286
 51
107.579287454
  0
SPLINE
  5
C7
330
1F
100
AcDbEntity
  8
0
  6
Continuous
 62
     7
370
    25
100
AcDbSpline
210
0.0
220
0.0
230
1.0
 70
     8
 71
     3
 72
     9
 73
     5
 74
     0
 42
0.00000001
 43
0.00000001
 40
0.0
 40
0.0
 40
0.0
 40
0.0
 40
0.5862283062032898
 40
0.9999999999999999
 40
0.9999999999999999
 40
0.9999999999999999
 40
0.9999999999999999
 10
593.0745761185292
 20
586.7704883318789
 30
0.0
 10
592.7525592408412
 20
586.854430849146
 30
0.0
 10
592.2032563936729
 20
586.9976216783479
 30
0.0
 10
591.6477012313795
 20
587.1198031769001
 30
0.0
 10
591.41782823088
 20
587.1703584225066
 30
0.0
  0
SPLINE
  5
C8
330
1F
100
AcDbEntity
  8
0
  6
Continuous
 62
     7
370
    25
100
AcDbSpline
210
0.0
220
0.0
230
1.0
 70
     8
 71
     3
 72
     9
 73
     5
 74
     0
 42
0.00000001
 43
0.00000001
 40
0.0
 40
0.0
 40
0.0
 40
0.0
 40
0.5862283062032672
 40
1.0
 40
1.0
 40
1.0
 40
1.0
 10
604.4432338254555
 20
577.8226281617482
 30
0.0
 10
604.3549217390223
 20
578.143474216907
 30
0.0
 10
604.204277211116
 20
578.6907798515267
 30
0.0
 10
604.0323119115881
 20
579.2329954845526
 30
0.0
 10
603.961157538328
 20
579.4573489654326
 30
0.0
  0
SPLINE
  5
C9
330
1F
100
AcDbEntity
  8
0
  6
Continuous
 62
     7
370
    25
100
AcDbSpline
210
0.0
220
0.0
230
1.0
 70
     8
 71
     3
 72
     9
 73
     5
 74
     0
 42
0.00000001
 43
0.00000001
 40
0.0
 40
0.0
 40
0.0
 40
0.0
 40
0.5863847898283642
 40
1.0
 40
1.0
 40
1.0
 40
1.0
 10
600.9428636489297
 20
583.3211766542736
 30
0.0
 10
600.6584164215742
 20
583.4953954244795
 30
0.0
 10
600.1733301227999
 20
583.7925019886809
 30
0.0
 10
599.6782329777002
 20
584.0698920857047
 30
0.0
 10
599.4734532679744
 20
584.1846248489849
 30
0.0
  0
ARC
  5
CA
330
1F
100
AcDbEntity
  8
0
  6
Continuous
 62
     7
370
    25
100
AcDbCircle
 10
591.0098307551
 20
572.4510118657
 30
0.0
 40
14.72500000000008
100
AcDbArc
 50
28.4122563286
 51
47.579287454
  0
SPLINE
  5
CB
330
1F
100
AcDbEntity
  8
0
  6
Continuous
 62
     7
370
    25
100
AcDbSpline
210
0.0
220
0.0
230
1.0
 70
     8
 71
     3
 72
     9
 73
     5
 74
     0
 42
0.00000001
 43
0.00000001
 40
0.0
 40
0.0
 40
0.0
 40
0.0
 40
0.5862283062032925
 40
1.0
 40
1.0
 40
1.0
 40
1.0
 10
579.6411730482221
 20
581.3988720358163
 30
0.0
 10
579.4074682569671
 20
581.1619684979246
 30
0.0
 10
579.0088099377052
 20
580.7578536925067
 30
0.0
 10
578.6252200749398
 20
580.3378195580333
 30
0.0
 10
578.4665014477001
 20
580.1640213227597
 30
0.0
  0
SPLINE
  5
CC
330
1F
100
AcDbEntity
  8
0
  6
Continuous
 62
     7
370
    25
100
AcDbSpline
210
0.0
220
0.0
230
1.0
 70
     8
 71
     3
 72
     9
 73
     5
 74
     0
 42
0.00000001
 43
0.00000001
 40
0.0
 40
0.0
 40
0.0
 40
0.0
 40
0.5863847898283573
 40
1.0
 40
1.0
 40
1.0
 40
1.0
 10
576.6294754580174
 20
575.618188294033
 30
0.0
 10
576.6208211908806
 20
575.2847403840042
 30
0.0
 10
576.6060625080383
 20
574.7160900441371
 30
0.0
 10
576.6133842098074
 20
574.1486282906276
 30
0.0
 10
576.6164125770233
 20
573.9139174781855
 30
0.0
  0
ARC
  5
CD
330
1F
100
AcDbEntity
  8
0
  6
Continuous
 62
     7
370
    25
100
AcDbCircle
 10
591.0098307551
 20
572.4510118657
 30
0.0
 40
14.72499999999995
100
AcDbArc
 50
148.4122563286
 51
167.579287454
  0
SPLINE
  5
CE
330
1F
100
AcDbEntity
  8
0
  6
Continuous
 62
     7
370
    25
100
AcDbSpline
210
0.0
220
0.0
230
1.0
 70
     8
 71
     3
 72
     9
 73
     5
 74
     0
 42
0.00000001
 43
0.00000001
 40
0.0
 40
0.0
 40
0.0
 40
0.0
 40
0.5862283062032879
 40
1.0
 40
1.0
 40
1.0
 40
1.0
 10
577.5764276848411
 20
567.0793955696232
 30
0.0
 10
577.6647397712743
 20
566.7585495144644
 30
0.0
 10
577.8153842991806
 20
566.2112438798447
 30
0.0
 10
577.9873495987085
 20
565.6690282468188
 30
0.0
 10
578.0585039719684
 20
565.4446747659388
 30
0.0
  0
SPLINE
  5
CF
330
1F
100
AcDbEntity
  8
0
  6
Continuous
 62
     7
370
    25
100
AcDbSpline
210
0.0
220
0.0
230
1.0
 70
     8
 71
     3
 72
     9
 73
     5
 74
     0
 42
0.00000001
 43
0.00000001
 40
0.0
 40
0.0
 40
0.0
 40
0.0
 40
0.5863847898283618
 40
1.0
 40
1.0
 40
1.0
 40
1.0
 10
581.0767978613668
 20
561.5808470770979
 30
0.0
 10
581.3612450887222
 20
561.406628306892
 30
0.0
 10
581.8463313874965
 20
561.1095217426906
 30
0.0
 10
582.3414285325963
 20
560.8321316456667
 30
0.0
 10
582.5462082423222
 20
560.7173988823866
 30
0.0
  0
ARC
  5
D0
330
1F
100
AcDbEntity
  8
0
  6
Continuous
 62
     7
370
    25
100
AcDbCircle
 10
591.0098307551
 20
572.4510118657
 30
0.0
 40
14.72499999999998
100
AcDbArc
 50
208.4122563286
 51
227.579287454
  0
SPLINE
  5
D1
330
1F
100
AcDbEntity
  8
0
  6
Continuous
 62
     7
370
    25
100
AcDbSpline
210
0.0
220
0.0
230
1.0
 70
    24
 71
     3
 72
    12
 73
     8
 74
     0
 42
0.00000001
 43
0.00000001
 40
0.0
 40
0.0
 40
0.0
 40
0.0
 40
0.3013828945620924
 40
0.4108442493795681
 40
0.6247185195336455
 40
0.6986171054378636
 40
1.0
 40
1.0
 40
1.0
 40
1.0
 10
579.5356606698358
 20
581.6336855339622
 30
0.0
 10
580.0708573064161
 20
582.0517633748767
 30
0.0
 10
580.8004357410042
 20
582.6216858218105
 30
0.0
 10
581.9151415454974
 20
583.492456981688
 30
0.0
 10
582.6252698377112
 20
584.0471856232544
 30
0.0
 10
583.676150986099
 20
584.868099081125
 30
0.0
 10
584.3425615433525
 20
585.3886768798188
 30
0.0
 10
584.877745806808
 20
585.8067450552592
 30
0.0
  0
ARC
  5
D2
330
1F
100
AcDbEntity
  8
0
  6
Continuous
 62
     7
370
    25
100
AcDbCircle
 10
584.7517368718
 20
585.4385289503
 30
0.0
 40
0.3891803587937481
100
AcDbArc
 50
32.4816830812
 51
71.1083035306
  0
ARC
  5
D3
330
1F
100
AcDbEntity
  8
0
  6
Continuous
 62
     7
370
    25
100
AcDbCircle
 10
579.923428397
 20
581.6668146972
 30
0.0
 40
0.3891803587992401
100
AcDbArc
 50
184.8832402524
 51
223.5098607013
  0
ARC
  5
D4
330
1F
100
AcDbEntity
  8
0
  6
Continuous
 62
     7
370
    25
100
AcDbCircle
 10
593.4477489444
 20
586.6600193601
 30
0.0
 40
0.389180358838399
100
AcDbArc
 50
124.8832402544
 51
163.5098606992
  0
SPLINE
  5
D5
330
1F
100
AcDbEntity
  8
0
  6
Continuous
 62
     7
370
    25
100
AcDbSpline
210
0.0
220
0.0
230
1.0
 70
    24
 71
     3
 72
    12
 73
     8
 74
     0
 42
0.00000001
 43
0.00000001
 40
0.0
 40
0.0
 40
0.0
 40
0.0
 40
0.3013828945620948
 40
0.4108442493795587
 40
0.6247185195336508
 40
0.6986171054378638
 40
1.0
 40
1.0
 40
1.0
 40
1.0
 10
593.225174383882
 20
586.979271481048
 30
0.0
 10
593.8548387331634
 20
586.7248165182068
 30
0.0
 10
594.7131952676891
 20
586.3779442832671
 30
0.0
 10
596.0246581152724
 20
585.8479663187687
 30
0.0
 10
596.8601313571826
 20
585.5103414985488
 30
0.0
 10
598.096503840201
 20
585.0107084566221
 30
0.0
 10
598.8805427171428
 20
584.6938688840372
 30
0.0
 10
599.5101925093157
 20
584.4394198038993
 30
0.0
  0
ARC
  5
D6
330
1F
100
AcDbEntity
  8
0
  6
Continuous
 62
     7
370
    25
100
AcDbCircle
 10
599.1283035408
 20
584.3644386902
 30
0.0
 40
0.3891803587945467
100
AcDbArc
 50
332.4816830812
 51
11.1083035306
  0
SPLINE
  5
D7
330
1F
100
AcDbEntity
  8
0
  6
Continuous
 62
     7
370
    25
100
AcDbSpline
210
0.0
220
0.0
230
1.0
 70
    24
 71
     3
 72
    12
 73
     8
 74
     0
 42
0.00000001
 43
0.00000001
 40
0.0
 40
0.0
 40
0.0
 40
0.0
 40
0.3013828945620993
 40
0.4108442493795572
 40
0.6247185195336493
 40
0.6986171054378603
 40
1.0
 40
1.0
 40
1.0
 40
1.0
 10
577.3203170411022
 20
567.1054259186001
 30
0.0
 10
577.225849328401
 20
567.7779587223557
 30
0.0
 10
577.0970712284634
 20
568.6947534042291
 30
0.0
 10
576.9003141853733
 20
570.0955025286049
 30
0.0
 10
576.7749692356768
 20
570.9878559903914
 30
0.0
 10
576.5894779010462
 20
572.3084024901887
 30
0.0
 10
576.471849581358
 20
573.1458198614673
 30
0.0
 10
576.3773840526405
 20
573.8183371170455
 30
0.0
  0
ARC
  5
D8
330
1F
100
AcDbEntity
  8
0
  6
Continuous
 62
     7
370
    25
100
AcDbCircle
 10
576.6332640861
 20
573.5251021257
 30
0.0
 40
0.3891803587947897
100
AcDbArc
 50
92.4816830812
 51
131.1083035306
  0
ARC
  5
D9
330
1F
100
AcDbEntity
  8
0
  6
Continuous
 62
     7
370
    25
100
AcDbCircle
 10
577.4855102077
 20
567.4578072027
 30
0.0
 40
0.3891803587965388
100
AcDbArc
 50
244.8832402522
 51
283.5098607014
  0
ARC
  5
DA
330
1F
100
AcDbEntity
  8
0
  6
Continuous
 62
     7
370
    25
100
AcDbCircle
 10
604.5341513025
 20
577.4442165287
 30
0.0
 40
0.3891803588361022
100
AcDbArc
 50
64.8832402542
 51
103.5098606993
  0
SPLINE
  5
DB
330
1F
100
AcDbEntity
  8
0
  6
Continuous
 62
     7
370
    25
100
AcDbSpline
210
0.0
220
0.0
230
1.0
 70
    24
 71
     3
 72
    12
 73
     8
 74
     0
 42
0.00000001
 43
0.00000001
 40
0.0
 40
0.0
 40
0.0
 40
0.0
 40
0.3013828945621505
 40
0.4108442493795785
 40
0.6247185195336596
 40
0.6986171054378615
 40
1.0
 40
1.0
 40
1.0
 40
1.0
 10
604.6993444691943
 20
577.7965978127713
 30
0.0
 10
604.7938121818956
 20
577.1240650090155
 30
0.0
 10
604.9225902818331
 20
576.207270327142
 30
0.0
 10
605.1193473249232
 20
574.8065212027662
 30
0.0
 10
605.2446922746198
 20
573.9141677409799
 30
0.0
 10
605.4301836092504
 20
572.5936212411827
 30
0.0
 10
605.5478119289386
 20
571.7562038699041
 30
0.0
 10
605.642277457656
 20
571.0836866143259
 30
0.0
  0
ARC
  5
DC
330
1F
100
AcDbEntity
  8
0
  6
Continuous
 62
     7
370
    25
100
AcDbCircle
 10
605.3863974242
 20
571.3769216057
 30
0.0
 40
0.3891803587944035
100
AcDbArc
 50
272.4816830812
 51
311.1083035306
  0
ARC
  5
DD
330
1F
100
AcDbEntity
  8
0
  6
Continuous
 62
     7
370
    25
100
AcDbCircle
 10
602.0962331133
 20
563.2352090342
 30
0.0
 40
0.3891803588369824
100
AcDbArc
 50
4.8832402543
 51
43.5098606993
  0
SPLINE
  5
DE
330
1F
100
AcDbEntity
  8
0
  6
Continuous
 62
     7
370
    25
100
AcDbSpline
210
0.0
220
0.0
230
1.0
 70
    24
 71
     3
 72
    11
 73
     7
 74
     0
 42
0.00000001
 43
0.00000001
 40
0.0
 40
0.0
 40
0.0
 40
0.0
 40
0.4467012667902129
 40
0.6089418144249636
 40
0.9259402544009853
 40
1.0
 40
1.0
 40
1.0
 40
1.0
 10
602.4840008404606
 20
563.2683381974092
 30
0.0
 10
601.948797533077
 20
562.8502551454845
 30
0.0
 10
601.2192100048702
 20
562.2803255949179
 30
0.0
 10
600.1045469217194
 20
561.4095878075344
 30
0.0
 10
599.4370265116676
 20
560.8881430286882
 30
0.0
 10
598.9665409584412
 20
560.5206153373126
 30
0.0
 10
598.8774390251094
 20
560.4510118656864
 30
0.0
  0
LINE
  5
DF
330
1F
100
AcDbEntity
  8
0
  6
Continuous
 62
     7
370
    25
100
AcDbLine
 10
583.1098307551
 20
560.219990497
 30
0.0
 11
582.509469001
 21
560.4626039275
 31
0.0
  0
ARC
  5
E0
330
1F
100
AcDbEntity
  8
0
  6
Continuous
 62
     7
370
    25
100
AcDbCircle
 10
582.8913579695
 20
560.5375850411
 30
0.0
 40
0.3891803587963337
100
AcDbArc
 50
152.4816830812
 51
191.1083035304
  0
LINE
  5
E1
330
1F
100
AcDbEntity
  8
0
  6
Continuous
 62
     7
370
    25
100
AcDbLine
 10
576.3773840526
 20
573.818337117
 30
0.0
 11
576.1343362899
 21
575.5486382819
 31
0.0
  0
LINE
  5
E2
330
1F
100
AcDbEntity
  8
0
  6
Continuous
 62
     7
370
    25
100
AcDbLine
 10
576.1343362899
 20
575.5486382819
 30
0.0
 11
576.629475458
 21
575.618188294
 31
0.0
  0
LINE
  5
E3
330
1F
100
AcDbEntity
  8
0
  6
Continuous
 62
     7
370
    25
100
AcDbLine
 10
605.6422774577
 20
571.0836866143
 30
0.0
 11
605.8853252204
 21
569.3533854495
 31
0.0
  0
LINE
  5
E4
330
1F
100
AcDbEntity
  8
0
  6
Continuous
 62
     7
370
    25
100
AcDbLine
 10
605.8853252204
 20
569.3533854495
 30
0.0
 11
605.3901860523
 21
569.2838354373
 31
0.0
  0
LINE
  5
E5
330
1F
100
AcDbEntity
  8
0
  6
Continuous
 62
     7
370
    25
100
AcDbLine
 10
582.509469001
 20
560.4626039275
 30
0.0
 11
580.8894603547
 21
561.117268973
 31
0.0
  0
LINE
  5
E6
330
1F
100
AcDbEntity
  8
0
  6
Continuous
 62
     7
370
    25
100
AcDbLine
 10
580.8894603547
 20
561.117268973
 30
0.0
 11
581.0767978614
 21
561.5808470771
 31
0.0
  0
LINE
  5
E7
330
1F
100
AcDbEntity
  8
0
  6
Continuous
 62
     7
370
    25
100
AcDbLine
 10
599.5101925093
 20
584.4394198039
 30
0.0
 11
601.1302011556
 21
583.7847547584
 31
0.0
  0
LINE
  5
E8
330
1F
100
AcDbEntity
  8
0
  6
Continuous
 62
     7
370
    25
100
AcDbLine
 10
600.9428636489
 20
583.3211766543
 30
0.0
 11
601.1302011556
 21
583.7847547584
 31
0.0
  0
LINE
  5
E9
330
1F
100
AcDbEntity
  8
0
  6
Continuous
 62
     7
370
    25
100
AcDbLine
 10
584.8777458068
 20
585.8067450553
 30
0.0
 11
586.2547066904
 21
586.8823811745
 31
0.0
  0
LINE
  5
EA
330
1F
100
AcDbEntity
  8
0
  6
Continuous
 62
     7
370
    25
100
AcDbLine
 10
586.2547066904
 20
586.8823811745
 30
0.0
 11
586.5625083518
 21
586.4883530826
 31
0.0
  0
LINE
  5
EB
330
1F
100
AcDbEntity
  8
0
  6
Continuous
 62
     7
370
    25
100
AcDbLine
 10
603.9611575383
 20
579.4573489654
 30
0.0
 11
604.4562967064
 21
579.5268989776
 31
0.0
  0
LINE
  5
EC
330
1F
100
AcDbEntity
  8
0
  6
Continuous
 62
     7
370
    25
100
AcDbLine
 10
604.4562967064
 20
579.5268989776
 30
0.0
 11
604.6993444692
 21
577.7965978128
 31
0.0
  0
LINE
  5
ED
330
1F
100
AcDbEntity
  8
0
  6
Continuous
 62
     7
370
    25
100
AcDbLine
 10
591.4178282309
 20
587.1703584225
 30
0.0
 11
591.6051657376
 21
587.6339365266
 31
0.0
  0
LINE
  5
EE
330
1F
100
AcDbEntity
  8
0
  6
Continuous
 62
     7
370
    25
100
AcDbLine
 10
591.6051657376
 20
587.6339365266
 30
0.0
 11
593.2251743839
 21
586.979271481
 31
0.0
  0
LINE
  5
EF
330
1F
100
AcDbEntity
  8
0
  6
Continuous
 62
     7
370
    25
100
AcDbLine
 10
577.5633648038
 20
565.3751247538
 30
0.0
 11
577.3203170411
 21
567.1054259186
 31
0.0
  0
LINE
  5
F0
330
1F
100
AcDbEntity
  8
0
  6
Continuous
 62
     7
370
    25
100
AcDbLine
 10
578.058503972
 20
565.4446747659
 30
0.0
 11
577.5633648038
 21
565.3751247538
 31
0.0
  0
LINE
  5
F1
330
1F
100
AcDbEntity
  8
0
  6
Continuous
 62
     7
370
    25
100
AcDbLine
 10
603.5531600626
 20
564.7380024086
 30
0.0
 11
603.860961724
 21
564.3439743167
 31
0.0
  0
LINE
  5
F2
330
1F
100
AcDbEntity
  8
0
  6
Continuous
 62
     7
370
    25
100
AcDbLine
 10
603.860961724
 20
564.3439743167
 30
0.0
 11
602.4840008405
 21
563.2683381974
 31
0.0
  0
LINE
  5
F3
330
1F
100
AcDbEntity
  8
0
  6
Continuous
 62
     7
370
    25
100
AcDbLine
 10
578.1586997863
 20
580.5580494147
 30
0.0
 11
579.5356606698
 21
581.633685534
 31
0.0
  0
LINE
  5
F4
330
1F
100
AcDbEntity
  8
0
  6
Continuous
 62
     7
370
    25
100
AcDbLine
 10
578.1586997863
 20
580.5580494147
 30
0.0
 11
578.4665014477
 21
580.1640213228
 31
0.0
  0
LINE
  5
F5
330
1F
100
AcDbEntity
  8
0
  6
Continuous
 62
     7
370
    25
100
AcDbLine
 10
605.8853252204
 20
569.3533854495
 30
0.0
 11
606.1525260765
 21
567.4511340266
 31
0.0
  0
LINE
  5
F6
330
1F
100
AcDbEntity
  8
0
  6
Continuous
 62
     7
370
    25
100
AcDbLine
 10
606.1525260765
 20
567.4511340266
 30
0.0
 11
605.6573869084
 21
567.3815840145
 31
0.0
  0
LINE
  5
F7
330
1F
100
AcDbEntity
  8
0
  6
Continuous
 62
     7
370
    25
100
AcDbLine
 10
605.6573869084
 20
567.3815840145
 30
0.0
 11
605.3901860523
 21
569.2838354373
 31
0.0
  0
ARC
  5
F8
330
1F
100
AcDbEntity
  8
0
  6
Continuous
 62
     7
370
    25
100
AcDbCircle
 10
602.7238621336
 20
582.6014536721
 30
0.0
 40
0.500000000000052
100
AcDbArc
 50
40.9095821328
 51
67.9957718913
  0
LINE
  5
F9
330
1F
100
AcDbEntity
  8
0
  6
Continuous
 62
     7
370
    25
100
AcDbLine
 10
602.7238621336
 20
582.6014536721
 30
0.0
 11
603.1017341135
 21
582.9288872788
 31
0.0
  0
LINE
  5
FA
330
1F
100
AcDbEntity
  8
0
  6
Continuous
 62
     7
370
    25
100
AcDbLine
 10
602.7238621336
 20
582.6014536721
 30
0.0
 11
602.9111996403
 21
583.0650317762
 31
0.0
  0
LINE
  5
FB
330
1F
100
AcDbEntity
  8
0
  6
Continuous
 62
     7
370
    25
100
AcDbLine
 10
602.7238621336
 20
582.6014536721
 30
0.0
 11
600.9428636489
 21
583.3211766543
 31
0.0
  0
LINE
  5
FC
330
1F
100
AcDbEntity
  8
0
  6
Continuous
 62
     7
370
    25
100
AcDbLine
 10
601.1302011556
 20
583.7847547584
 30
0.0
 11
602.9111996403
 21
583.0650317762
 31
0.0
  0
LINE
  5
FD
330
1F
100
AcDbEntity
  8
0
  6
Continuous
 62
     7
370
    25
100
AcDbLine
 10
603.5531600626
 20
564.7380024086
 30
0.0
 11
605.0669576912
 21
565.9205308493
 31
0.0
  0
LINE
  5
FE
330
1F
100
AcDbEntity
  8
0
  6
Continuous
 62
     7
370
    25
100
AcDbLine
 10
605.0669576912
 20
565.9205308493
 30
0.0
 11
605.3747593526
 21
565.5265027574
 31
0.0
  0
LINE
  5
FF
330
1F
100
AcDbEntity
  8
0
  6
Continuous
 62
     7
370
    25
100
AcDbLine
 10
605.3747593526
 20
565.5265027574
 30
0.0
 11
603.860961724
 21
564.3439743167
 31
0.0
  0
LINE
  5
100
330
1F
100
AcDbEntity
  8
0
  6
Continuous
 62
     7
370
    25
100
AcDbLine
 10
603.9611575383
 20
579.4573489654
 30
0.0
 11
603.6939566823
 21
581.3596003883
 31
0.0
  0
ARC
  5
101
330
1F
100
AcDbEntity
  8
0
  6
Continuous
 62
     7
370
    25
100
AcDbCircle
 10
591.0098307551
 20
572.4510118657
 30
0.0
 40
15.50000000000004
100
AcDbArc
 50
35.0819616499
 51
40.9095821328
  0
ARC
  5
102
330
1F
100
AcDbEntity
  8
0
  6
Continuous
 62
     7
370
    25
100
AcDbCircle
 10
605.6573869084
 20
567.3815840145
 30
0.0
 40
0.5000000000001343
100
AcDbArc
 50
340.9095821328
 51
7.9957718913
  0
LINE
  5
103
330
1F
100
AcDbEntity
  8
0
  6
Continuous
 62
     7
370
    25
100
AcDbLine
 10
605.6573869084
 20
567.3815840145
 30
0.0
 11
606.1298887197
 21
567.2180540838
 31
0.0
  0
ARC
  5
104
330
1F
100
AcDbEntity
  8
0
  6
Continuous
 62
     7
370
    25
100
AcDbCircle
 10
591.0098307551
 20
572.4510118657
 30
0.0
 40
16.0000000000001
100
AcDbArc
 50
35.0819616499
 51
40.9095821328
  0
LINE
  5
105
330
1F
100
AcDbEntity
  8
0
  6
Continuous
 62
     7
370
    25
100
AcDbLine
 10
603.6939566823
 20
581.3596003883
 30
0.0
 11
604.1031220347
 21
581.6469742116
 31
0.0
  0
ARC
  5
106
330
1F
100
AcDbEntity
  8
0
  6
Continuous
 62
     7
370
    25
100
AcDbCircle
 10
591.0098307551
 20
572.4510118657
 30
0.0
 40
15.50000000000013
100
AcDbArc
 50
335.0819616499
 51
340.9095821328
  0
ARC
  5
107
330
1F
100
AcDbEntity
  8
0
  6
Continuous
 62
     7
370
    25
100
AcDbCircle
 10
591.0098307551
 20
572.4510118657
 30
0.0
 40
16.00000000000017
100
AcDbArc
 50
335.0819616499
 51
340.9095821328
  0
LINE
  5
108
330
1F
100
AcDbEntity
  8
0
  6
Continuous
 62
     7
370
    25
100
AcDbLine
 10
605.0669576912
 20
565.9205308493
 30
0.0
 11
605.5204133988
 21
565.7098701714
 31
0.0
  0
LINE
  5
109
330
1F
100
AcDbEntity
  8
0
  6
Continuous
 62
     7
370
    25
100
AcDbLine
 10
603.6939566823
 20
581.3596003883
 30
0.0
 11
604.1890958504
 21
581.4291504005
 31
0.0
  0
LINE
  5
10A
330
1F
100
AcDbEntity
  8
0
  6
Continuous
 62
     7
370
    25
100
AcDbLine
 10
604.1890958504
 20
581.4291504005
 30
0.0
 11
604.4562967064
 21
579.5268989776
 31
0.0
  0
ARC
  5
10B
330
1F
100
AcDbEntity
  8
0
  6
Continuous
 62
     7
370
    25
100
AcDbCircle
 10
605.0669576912
 20
565.9205308493
 30
0.0
 40
0.5000000000000193
100
AcDbArc
 50
307.9957718913
 51
335.0819616499
  0
ARC
  5
10C
330
1F
100
AcDbEntity
  8
0
  6
Continuous
 62
     7
370
    25
100
AcDbCircle
 10
603.6939566823
 20
581.3596003883
 30
0.0
 40
0.5000000000000554
100
AcDbArc
 50
7.9957718913
 51
35.0819616499
  0
ARC
  5
10D
330
1F
100
AcDbEntity
  8
0
  6
Continuous
 62
     7
370
    25
100
AcDbCircle
 10
591.0098307551
 20
572.4510118657
 30
0.0
 40
15.99999999999996
100
AcDbArc
 50
155.0819616499
 51
160.9095821328
  0
LINE
  5
10E
330
1F
100
AcDbEntity
  8
0
  6
Continuous
 62
     7
370
    25
100
AcDbLine
 10
576.4992481115
 20
579.19215356
 30
0.0
 11
576.9527038191
 21
578.9814928821
 31
0.0
  0
ARC
  5
10F
330
1F
100
AcDbEntity
  8
0
  6
Continuous
 62
     7
370
    25
100
AcDbCircle
 10
591.0098307551
 20
572.4510118657
 30
0.0
 40
15.49999999999993
100
AcDbArc
 50
155.0819616499
 51
160.9095821328
  0
LINE
  5
110
330
1F
100
AcDbEntity
  8
0
  6
Continuous
 62
     7
370
    25
100
AcDbLine
 10
575.8897727905
 20
577.6839696476
 30
0.0
 11
576.3622746019
 21
577.5204397169
 31
0.0
  0
ARC
  5
111
330
1F
100
AcDbEntity
  8
0
  6
Continuous
 62
     7
370
    25
100
AcDbCircle
 10
591.0098307551
 20
572.4510118657
 30
0.0
 40
15.50000000000006
100
AcDbArc
 50
95.0819616499
 51
100.9095821328
  0
LINE
  5
112
330
1F
100
AcDbEntity
  8
0
  6
Continuous
 62
     7
370
    25
100
AcDbLine
 10
587.9816761489
 20
588.1618450607
 30
0.0
 11
588.0763059804
 21
587.6708815233
 31
0.0
  0
ARC
  5
113
330
1F
100
AcDbEntity
  8
0
  6
Continuous
 62
     7
370
    25
100
AcDbCircle
 10
591.0098307551
 20
572.4510118657
 30
0.0
 40
16.00000000000004
100
AcDbArc
 50
95.0819616499
 51
100.9095821328
  0
LINE
  5
114
330
1F
100
AcDbEntity
  8
0
  6
Continuous
 62
     7
370
    25
100
AcDbLine
 10
589.6368297463
 20
587.8900814047
 30
0.0
 11
589.5925393911
 21
588.3881159059
 31
0.0
  0
ARC
  5
115
330
1F
100
AcDbEntity
  8
0
  6
Continuous
 62
     7
370
    25
100
AcDbCircle
 10
578.325704828
 20
563.5424233431
 30
0.0
 40
0.5000000000001134
100
AcDbArc
 50
187.9957718913
 51
215.0819616499
  0
LINE
  5
116
330
1F
100
AcDbEntity
  8
0
  6
Continuous
 62
     7
370
    25
100
AcDbLine
 10
578.325704828
 20
563.5424233431
 30
0.0
 11
577.8305656599
 21
563.4728733309
 31
0.0
  0
LINE
  5
117
330
1F
100
AcDbEntity
  8
0
  6
Continuous
 62
     7
370
    25
100
AcDbLine
 10
577.9165394756
 20
563.2550495198
 30
0.0
 11
578.325704828
 21
563.5424233431
 31
0.0
  0
LINE
  5
118
330
1F
100
AcDbEntity
  8
0
  6
Continuous
 62
     7
370
    25
100
AcDbLine
 10
588.0763059804
 20
587.6708815233
 30
0.0
 11
586.5625083518
 21
586.4883530826
 31
0.0
  0
LINE
  5
119
330
1F
100
AcDbEntity
  8
0
  6
Continuous
 62
     7
370
    25
100
AcDbLine
 10
591.4178282309
 20
587.1703584225
 30
0.0
 11
589.6368297463
 21
587.8900814047
 31
0.0
  0
LINE
  5
11A
330
1F
100
AcDbEntity
  8
0
  6
Continuous
 62
     7
370
    25
100
AcDbLine
 10
580.8894603547
 20
561.117268973
 30
0.0
 11
579.10846187
 21
561.8369919552
 31
0.0
  0
LINE
  5
11B
330
1F
100
AcDbEntity
  8
0
  6
Continuous
 62
     7
370
    25
100
AcDbLine
 10
579.10846187
 20
561.8369919552
 30
0.0
 11
579.2957993767
 21
562.3005700593
 31
0.0
  0
LINE
  5
11C
330
1F
100
AcDbEntity
  8
0
  6
Continuous
 62
     7
370
    25
100
AcDbLine
 10
579.2957993767
 20
562.3005700593
 30
0.0
 11
581.0767978614
 21
561.5808470771
 31
0.0
  0
LINE
  5
11D
330
1F
100
AcDbEntity
  8
0
  6
Continuous
 62
     7
370
    25
100
AcDbLine
 10
578.058503972
 20
565.4446747659
 30
0.0
 11
578.325704828
 21
563.5424233431
 31
0.0
  0
ARC
  5
11E
330
1F
100
AcDbEntity
  8
0
  6
Continuous
 62
     7
370
    25
100
AcDbCircle
 10
591.0098307551
 20
572.4510118657
 30
0.0
 40
15.49999999999996
100
AcDbArc
 50
215.0819616499
 51
220.9095821328
  0
LINE
  5
11F
330
1F
100
AcDbEntity
  8
0
  6
Continuous
 62
     7
370
    25
100
AcDbLine
 10
586.2547066904
 20
586.8823811745
 30
0.0
 11
587.7685043189
 21
588.0649096152
 31
0.0
  0
LINE
  5
120
330
1F
100
AcDbEntity
  8
0
  6
Continuous
 62
     7
370
    25
100
AcDbLine
 10
587.7685043189
 20
588.0649096152
 30
0.0
 11
588.0763059804
 21
587.6708815233
 31
0.0
  0
LINE
  5
121
330
1F
100
AcDbEntity
  8
0
  6
Continuous
 62
     7
370
    25
100
AcDbLine
 10
589.6368297463
 20
587.8900814047
 30
0.0
 11
589.8241672529
 21
588.3536595088
 31
0.0
  0
LINE
  5
122
330
1F
100
AcDbEntity
  8
0
  6
Continuous
 62
     7
370
    25
100
AcDbLine
 10
589.8241672529
 20
588.3536595088
 30
0.0
 11
591.6051657376
 21
587.6339365266
 31
0.0
  0
LINE
  5
123
330
1F
100
AcDbEntity
  8
0
  6
Continuous
 62
     7
370
    25
100
AcDbLine
 10
576.6449021577
 20
579.375520974
 30
0.0
 11
576.9527038191
 21
578.9814928821
 31
0.0
  0
ARC
  5
124
330
1F
100
AcDbEntity
  8
0
  6
Continuous
 62
     7
370
    25
100
AcDbCircle
 10
576.9527038191
 20
578.9814928821
 30
0.0
 40
0.5000000000000193
100
AcDbArc
 50
127.9957718913
 51
155.0819616499
  0
LINE
  5
125
330
1F
100
AcDbEntity
  8
0
  6
Continuous
 62
     7
370
    25
100
AcDbLine
 10
576.6449021577
 20
579.375520974
 30
0.0
 11
578.1586997863
 21
580.5580494147
 31
0.0
  0
LINE
  5
126
330
1F
100
AcDbEntity
  8
0
  6
Continuous
 62
     7
370
    25
100
AcDbLine
 10
578.4665014477
 20
580.1640213228
 30
0.0
 11
576.9527038191
 21
578.9814928821
 31
0.0
  0
ARC
  5
127
330
1F
100
AcDbEntity
  8
0
  6
Continuous
 62
     7
370
    25
100
AcDbCircle
 10
588.0763059804
 20
587.6708815233
 30
0.0
 40
0.5000000000000014
100
AcDbArc
 50
100.9095821328
 51
127.9957718913
  0
ARC
  5
128
330
1F
100
AcDbEntity
  8
0
  6
Continuous
 62
     7
370
    25
100
AcDbCircle
 10
589.6368297463
 20
587.8900814047
 30
0.0
 40
0.4999999999999817
100
AcDbArc
 50
67.9957718913
 51
95.0819616499
  0
LINE
  5
129
330
1F
100
AcDbEntity
  8
0
  6
Continuous
 62
     7
370
    25
100
AcDbLine
 10
578.9179273968
 20
561.9731364526
 30
0.0
 11
579.2957993767
 21
562.3005700593
 31
0.0
  0
ARC
  5
12A
330
1F
100
AcDbEntity
  8
0
  6
Continuous
 62
     7
370
    25
100
AcDbCircle
 10
579.2957993767
 20
562.3005700593
 30
0.0
 40
0.4999999999999917
100
AcDbArc
 50
220.9095821328
 51
247.9957718913
  0
LINE
  5
12B
330
1F
100
AcDbEntity
  8
0
  6
Continuous
 62
     7
370
    25
100
AcDbLine
 10
576.3622746019
 20
577.5204397169
 30
0.0
 11
576.629475458
 21
575.618188294
 31
0.0
  0
LINE
  5
12C
330
1F
100
AcDbEntity
  8
0
  6
Continuous
 62
     7
370
    25
100
AcDbLine
 10
576.1343362899
 20
575.5486382819
 30
0.0
 11
575.8671354338
 21
577.4508897047
 31
0.0
  0
LINE
  5
12D
330
1F
100
AcDbEntity
  8
0
  6
Continuous
 62
     7
370
    25
100
AcDbLine
 10
575.8671354338
 20
577.4508897047
 30
0.0
 11
576.3622746019
 21
577.5204397169
 31
0.0
  0
ARC
  5
12E
330
1F
100
AcDbEntity
  8
0
  6
Continuous
 62
     7
370
    25
100
AcDbCircle
 10
591.0098307551
 20
572.4510118657
 30
0.0
 40
15.99999999999996
100
AcDbArc
 50
215.0819616499
 51
220.9095821328
  0
LINE
  5
12F
330
1F
100
AcDbEntity
  8
0
  6
Continuous
 62
     7
370
    25
100
AcDbLine
 10
577.8305656599
 20
563.4728733309
 30
0.0
 11
577.5633648038
 21
565.3751247538
 31
0.0
  0
ARC
  5
130
330
1F
100
AcDbEntity
  8
0
  6
Continuous
 62
     7
370
    25
100
AcDbCircle
 10
576.3622746019
 20
577.5204397169
 30
0.0
 40
0.500000000000027
100
AcDbArc
 50
160.9095821328
 51
187.9957718913
  0
ARC
  5
131
330
1F
100
AcDbEntity
  8
0
  6
Continuous
 62
     7
370
    25
100
AcDbCircle
 10
591.0098307551
 20
572.4510118657
 30
0.0
 40
8.05000000000002
100
AcDbArc
 50
352.4385644371
 51
182.3976863298
  0
ARC
  5
132
330
1F
100
AcDbEntity
  8
0
  6
Continuous
 62
     7
370
    25
100
AcDbCircle
 10
591.0098307551
 20
572.4510118657
 30
0.0
 40
8.25000000000008
100
AcDbArc
 50
343.3833939262
 51
192.7436161733
  0
ARC
  5
133
330
1F
100
AcDbEntity
  8
0
  6
Continuous
 62
     7
370
    25
100
AcDbCircle
 10
591.0098307551
 20
572.4510118657
 30
0.0
 40
9.574999999999996
100
AcDbArc
 50
325.7264246222
 51
213.7974613658
  0
CIRCLE
  5
134
330
1F
100
AcDbEntity
  8
0
  6
Continuous
 62
     7
370
    25
100
AcDbCircle
 10
641.8098307551
 20
572.4510118657
 30
0.0
 40
5.074569253689106
  0
CIRCLE
  5
135
330
1F
100
AcDbEntity
  8
0
  6
Continuous
 62
     7
370
    25
100
AcDbCircle
 10
641.8098307551
 20
572.4510118657
 30
0.0
 40
5.328914336627577
  0
CIRCLE
  5
136
330
1F
100
AcDbEntity
  8
0
  6
Continuous
 62
     7
370
    25
100
AcDbCircle
 10
641.8098307551
 20
572.4510118657
 30
0.0
 40
5.925127771161442
  0
CIRCLE
  5
137
330
1F
100
AcDbEntity
  8
0
  6
Continuous
 62
     7
370
    25
100
AcDbCircle
 10
641.8098307551
 20
572.4510118657
 30
0.0
 40
7.150000000000091
  0
LINE
  5
138
330
1F
100
AcDbEntity
  8
0
  6
Continuous
 62
     7
370
    25
100
AcDbLine
 10
639.142852076
 20
572.5360102492
 30
0.0
 11
639.4497930319
 21
573.6960909574
 31
0.0
  0
LINE
  5
139
330
1F
100
AcDbEntity
  8
0
  6
Continuous
 62
     7
370
    25
100
AcDbLine
 10
640.3512694805
 20
572.2162800869
 30
0.0
 11
639.142852076
 21
572.5360102492
 31
0.0
  0
SPLINE
  5
13A
330
1F
100
AcDbEntity
  8
0
  6
Continuous
 62
     7
370
    25
100
AcDbSpline
210
0.0
220
0.0
230
1.0
 70
     8
 71
     3
 72
    12
 73
     8
 74
     0
 42
0.00000001
 43
0.00000001
 40
0.0
 40
0.0
 40
0.0
 40
0.0
 40
0.2133534395476124
 40
0.4267919313634466
 40
0.6383539739091505
 40
0.8490950351927581
 40
1.0
 40
1.0
 40
1.0
 40
1.0
 10
640.8844818257202
 20
571.2993915468289
 30
0.0
 10
640.8980061586749
 20
571.3821800747496
 30
0.0
 10
640.9250602159908
 20
571.5477901338184
 30
0.0
 10
640.8591511178369
 20
571.796767910494
 30
0.0
 10
640.7212404095793
 20
572.0081612281504
 30
0.0
 10
640.5409840920776
 20
572.151704645998
 30
0.0
 10
640.4071251461379
 20
572.1972678231068
 30
0.0
 10
640.3512694804624
 20
572.2162800868733
 30
0.0
  0
LINE
  5
13B
330
1F
100
AcDbEntity
  8
0
  6
Continuous
 62
     7
370
    25
100
AcDbLine
 10
640.5647516634
 20
570.0909741424
 30
0.0
 11
640.8844818257
 21
571.2993915468
 31
0.0
  0
LINE
  5
13C
330
1F
100
AcDbEntity
  8
0
  6
Continuous
 62
     7
370
    25
100
AcDbLine
 10
641.7248323716
 20
569.7840331866
 30
0.0
 11
640.5647516634
 21
570.0909741424
 31
0.0
  0
LINE
  5
13D
330
1F
100
AcDbEntity
  8
0
  6
Continuous
 62
     7
370
    25
100
AcDbLine
 10
642.044562534
 20
570.992450591
 30
0.0
 11
641.7248323716
 21
569.7840331866
 31
0.0
  0
LINE
  5
13E
330
1F
100
AcDbEntity
  8
0
  6
Continuous
 62
     7
370
    25
100
AcDbLine
 10
644.1698684784
 20
571.2059327739
 30
0.0
 11
642.961451074
 21
571.5256629363
 31
0.0
  0
LINE
  5
13F
330
1F
100
AcDbEntity
  8
0
  6
Continuous
 62
     7
370
    25
100
AcDbLine
 10
644.4768094343
 20
572.3660134822
 30
0.0
 11
644.1698684784
 21
571.2059327739
 31
0.0
  0
LINE
  5
140
330
1F
100
AcDbEntity
  8
0
  6
Continuous
 62
     7
370
    25
100
AcDbLine
 10
643.2683920298
 20
572.6857436445
 30
0.0
 11
644.4768094343
 21
572.3660134822
 31
0.0
  0
SPLINE
  5
141
330
1F
100
AcDbEntity
  8
0
  6
Continuous
 62
     7
370
    25
100
AcDbSpline
210
0.0
220
0.0
230
1.0
 70
     8
 71
     3
 72
    12
 73
     8
 74
     0
 42
0.00000001
 43
0.00000001
 40
0.0
 40
0.0
 40
0.0
 40
0.0
 40
0.2133534395476122
 40
0.4267919313634442
 40
0.6383539739091508
 40
0.8490950351927531
 40
0.9999999999999999
 40
0.9999999999999999
 40
0.9999999999999999
 40
0.9999999999999999
 10
642.7351796845776
 20
573.6026321845436
 30
0.0
 10
642.7216553516231
 20
573.519843656623
 30
0.0
 10
642.694601294307
 20
573.3542335975542
 30
0.0
 10
642.760510392461
 20
573.1052558208786
 30
0.0
 10
642.8984211007185
 20
572.8938625032223
 30
0.0
 10
643.0786774182202
 20
572.7503190853746
 30
0.0
 10
643.21253636416
 20
572.7047559082657
 30
0.0
 10
643.2683920298355
 20
572.6857436444993
 30
0.0
  0
LINE
  5
142
330
1F
100
AcDbEntity
  8
0
  6
Continuous
 62
     7
370
    25
100
AcDbLine
 10
643.0549098469
 20
574.811049589
 30
0.0
 11
642.7351796846
 21
573.6026321845
 31
0.0
  0
LINE
  5
143
330
1F
100
AcDbEntity
  8
0
  6
Continuous
 62
     7
370
    25
100
AcDbLine
 10
641.8948291387
 20
575.1179905448
 30
0.0
 11
643.0549098469
 21
574.811049589
 31
0.0
  0
LINE
  5
144
330
1F
100
AcDbEntity
  8
0
  6
Continuous
 62
     7
370
    25
100
AcDbLine
 10
641.5750989763
 20
573.9095731404
 30
0.0
 11
641.8948291387
 21
575.1179905448
 31
0.0
  0
LINE
  5
145
330
1F
100
AcDbEntity
  8
0
  6
Continuous
 62
     7
370
    25
100
AcDbLine
 10
639.4497930319
 20
573.6960909574
 30
0.0
 11
640.6582104363
 21
573.3763607951
 31
0.0
  0
CIRCLE
  5
146
330
1F
100
AcDbEntity
  8
0
  6
Continuous
 62
     7
370
    25
100
AcDbCircle
 10
641.8098307551
 20
572.4510118657
 30
0.0
 40
4.197433366238792
  0
SPLINE
  5
147
330
1F
100
AcDbEntity
  8
0
  6
Continuous
 62
     7
370
    25
100
AcDbSpline
210
0.0
220
0.0
230
1.0
 70
     8
 71
     3
 72
    12
 73
     8
 74
     0
 42
0.00000001
 43
0.00000001
 40
0.0
 40
0.0
 40
0.0
 40
0.0
 40
0.2133534395476116
 40
0.4267919313634462
 40
0.6383539739091479
 40
0.8490950351927574
 40
1.0
 40
1.0
 40
1.0
 40
1.0
 10
640.6582104362916
 20
573.376360795115
 30
0.0
 10
640.7409989642122
 20
573.3628364621604
 30
0.0
 10
640.906609023281
 20
573.3357824048444
 30
0.0
 10
641.1555867999566
 20
573.4016915029983
 30
0.0
 10
641.3669801176129
 20
573.5396022112559
 30
0.0
 10
641.5105235354607
 20
573.7198585287576
 30
0.0
 10
641.5560867125695
 20
573.8537174746974
 30
0.0
 10
641.5750989763359
 20
573.9095731403728
 30
0.0
  0
SPLINE
  5
148
330
1F
100
AcDbEntity
  8
0
  6
Continuous
 62
     7
370
    25
100
AcDbSpline
210
0.0
220
0.0
230
1.0
 70
     8
 71
     3
 72
    12
 73
     8
 74
     0
 42
0.00000001
 43
0.00000001
 40
0.0
 40
0.0
 40
0.0
 40
0.0
 40
0.2133534395476112
 40
0.4267919313634456
 40
0.6383539739091519
 40
0.8490950351927574
 40
1.0
 40
1.0
 40
1.0
 40
1.0
 10
642.9614510740063
 20
571.5256629362576
 30
0.0
 10
642.8786625460856
 20
571.5391872692121
 30
0.0
 10
642.7130524870169
 20
571.5662413265283
 30
0.0
 10
642.4640747103412
 20
571.5003322283743
 30
0.0
 10
642.2526813926848
 20
571.3624215201168
 30
0.0
 10
642.1091379748372
 20
571.182165202615
 30
0.0
 10
642.0635747977284
 20
571.0483062566752
 30
0.0
 10
642.0445625339619
 20
570.9924505909997
 30
0.0
  0
CIRCLE
  5
149
330
1F
100
AcDbEntity
  8
0
  6
Continuous
 62
     7
370
    25
100
AcDbCircle
 10
641.8098307551
 20
572.4510118657
 30
0.0
 40
4.499999999999949
  0
LINE
  5
14A
330
1F
100
AcDbEntity
  8
0
  6
Continuous
 62
     7
370
    25
100
AcDbLine
 10
537.8497930319
 20
571.2059327739
 30
0.0
 11
537.542852076
 21
572.3660134822
 31
0.0
  0
LINE
  5
14B
330
1F
100
AcDbEntity
  8
0
  6
Continuous
 62
     7
370
    25
100
AcDbLine
 10
539.0582104363
 20
571.5256629363
 30
0.0
 11
537.8497930319
 21
571.2059327739
 31
0.0
  0
LINE
  5
14C
330
1F
100
AcDbEntity
  8
0
  6
Continuous
 62
     7
370
    25
100
AcDbLine
 10
540.2948291387
 20
569.7840331866
 30
0.0
 11
539.9750989763
 21
570.992450591
 31
0.0
  0
LINE
  5
14D
330
1F
100
AcDbEntity
  8
0
  6
Continuous
 62
     7
370
    25
100
AcDbLine
 10
541.4549098469
 20
570.0909741424
 30
0.0
 11
540.2948291387
 21
569.7840331866
 31
0.0
  0
LINE
  5
14E
330
1F
100
AcDbEntity
  8
0
  6
Continuous
 62
     7
370
    25
100
AcDbLine
 10
541.1351796846
 20
571.2993915468
 30
0.0
 11
541.4549098469
 21
570.0909741424
 31
0.0
  0
LINE
  5
14F
330
1F
100
AcDbEntity
  8
0
  6
Continuous
 62
     7
370
    25
100
AcDbLine
 10
542.8768094343
 20
572.5360102492
 30
0.0
 11
541.6683920298
 21
572.2162800869
 31
0.0
  0
LINE
  5
150
330
1F
100
AcDbEntity
  8
0
  6
Continuous
 62
     7
370
    25
100
AcDbLine
 10
542.5698684784
 20
573.6960909574
 30
0.0
 11
542.8768094343
 21
572.5360102492
 31
0.0
  0
LINE
  5
151
330
1F
100
AcDbEntity
  8
0
  6
Continuous
 62
     7
370
    25
100
AcDbLine
 10
541.361451074
 20
573.3763607951
 30
0.0
 11
542.5698684784
 21
573.6960909574
 31
0.0
  0
LINE
  5
152
330
1F
100
AcDbEntity
  8
0
  6
Continuous
 62
     7
370
    25
100
AcDbLine
 10
540.1248323716
 20
575.1179905448
 30
0.0
 11
540.444562534
 21
573.9095731404
 31
0.0
  0
LINE
  5
153
330
1F
100
AcDbEntity
  8
0
  6
Continuous
 62
     7
370
    25
100
AcDbLine
 10
538.9647516634
 20
574.811049589
 30
0.0
 11
540.1248323716
 21
575.1179905448
 31
0.0
  0
LINE
  5
154
330
1F
100
AcDbEntity
  8
0
  6
Continuous
 62
     7
370
    25
100
AcDbLine
 10
539.2844818257
 20
573.6026321845
 30
0.0
 11
538.9647516634
 21
574.811049589
 31
0.0
  0
SPLINE
  5
155
330
1F
100
AcDbEntity
  8
0
  6
Continuous
 62
     7
370
    25
100
AcDbSpline
210
0.0
220
0.0
230
1.0
 70
     8
 71
     3
 72
    12
 73
     8
 74
     0
 42
0.00000001
 43
0.00000001
 40
0.0
 40
0.0
 40
0.0
 40
0.0
 40
0.2133534395476105
 40
0.4267919313634458
 40
0.6383539739091508
 40
0.8490950351927568
 40
1.0
 40
1.0
 40
1.0
 40
1.0
 10
538.7512694804624
 20
572.6857436444993
 30
0.0
 10
538.8299135073735
 20
572.7149320834494
 30
0.0
 10
538.9872329122389
 20
572.7733205971728
 30
0.0
 10
539.1710363171044
 20
572.9537374779176
 30
0.0
 10
539.2865648041628
 20
573.178147074147
 30
0.0
 10
539.3221795839105
 20
573.4058061180485
 30
0.0
 10
539.2955807777738
 20
573.5446827684563
 30
0.0
 10
539.2844818257201
 20
573.6026321845436
 30
0.0
  0
LINE
  5
156
330
1F
100
AcDbEntity
  8
0
  6
Continuous
 62
     7
370
    25
100
AcDbLine
 10
537.542852076
 20
572.3660134822
 30
0.0
 11
538.7512694805
 21
572.6857436445
 31
0.0
  0
CIRCLE
  5
157
330
1F
100
AcDbEntity
  8
0
  6
Continuous
 62
     7
370
    25
100
AcDbCircle
 10
540.2098307551
 20
572.4510118657
 30
0.0
 40
4.197433366238822
  0
SPLINE
  5
158
330
1F
100
AcDbEntity
  8
0
  6
Continuous
 62
     7
370
    25
100
AcDbSpline
210
0.0
220
0.0
230
1.0
 70
     8
 71
     3
 72
    12
 73
     8
 74
     0
 42
0.00000001
 43
0.00000001
 40
0.0
 40
0.0
 40
0.0
 40
0.0
 40
0.2133534395476133
 40
0.4267919313634492
 40
0.6383539739091546
 40
0.8490950351927566
 40
1.0
 40
1.0
 40
1.0
 40
1.0
 10
540.4445625339619
 20
573.9095731403728
 30
0.0
 10
540.473750972912
 20
573.8309291134617
 30
0.0
 10
540.5321394866353
 20
573.6736097085962
 30
0.0
 10
540.7125563673801
 20
573.4898063037308
 30
0.0
 10
540.9369659636095
 20
573.3742778166724
 30
0.0
 10
541.1646250075111
 20
573.3386630369246
 30
0.0
 10
541.3035016579188
 20
573.3652618430614
 30
0.0
 10
541.3614510740063
 20
573.376360795115
 30
0.0
  0
SPLINE
  5
159
330
1F
100
AcDbEntity
  8
0
  6
Continuous
 62
     7
370
    25
100
AcDbSpline
210
0.0
220
0.0
230
1.0
 70
     8
 71
     3
 72
    12
 73
     8
 74
     0
 42
0.00000001
 43
0.00000001
 40
0.0
 40
0.0
 40
0.0
 40
0.0
 40
0.2133534395476105
 40
0.4267919313634458
 40
0.6383539739091507
 40
0.8490950351927564
 40
1.0
 40
1.0
 40
1.0
 40
1.0
 10
541.6683920298354
 20
572.2162800868733
 30
0.0
 10
541.5897480029242
 20
572.1870916479232
 30
0.0
 10
541.4324285980589
 20
572.1287031341999
 30
0.0
 10
541.2486251931933
 20
571.9482862534551
 30
0.0
 10
541.1330967061351
 20
571.7238766572257
 30
0.0
 10
541.0974819263872
 20
571.4962176133241
 30
0.0
 10
541.1240807325239
 20
571.3573409629165
 30
0.0
 10
541.1351796845776
 20
571.2993915468289
 30
0.0
  0
SPLINE
  5
15A
330
1F
100
AcDbEntity
  8
0
  6
Continuous
 62
     7
370
    25
100
AcDbSpline
210
0.0
220
0.0
230
1.0
 70
     8
 71
     3
 72
    12
 73
     8
 74
     0
 42
0.00000001
 43
0.00000001
 40
0.0
 40
0.0
 40
0.0
 40
0.0
 40
0.2133534395476129
 40
0.4267919313634445
 40
0.6383539739091494
 40
0.8490950351927571
 40
1.0
 40
1.0
 40
1.0
 40
1.0
 10
539.9750989763359
 20
570.9924505909997
 30
0.0
 10
539.9459105373859
 20
571.071094617911
 30
0.0
 10
539.8875220236624
 20
571.2284140227764
 30
0.0
 10
539.7071051429176
 20
571.4122174276418
 30
0.0
 10
539.4826955466883
 20
571.5277459147003
 30
0.0
 10
539.2550365027867
 20
571.563360694448
 30
0.0
 10
539.1161598523789
 20
571.5367618883113
 30
0.0
 10
539.0582104362916
 20
571.5256629362576
 30
0.0
  0
CIRCLE
  5
15B
330
1F
100
AcDbEntity
  8
0
  6
Continuous
 62
     7
370
    25
100
AcDbCircle
 10
540.2098307551
 20
572.4510118657
 30
0.0
 40
4.499999999999949
  0
CIRCLE
  5
15C
330
1F
100
AcDbEntity
  8
0
  6
Continuous
 62
     7
370
    25
100
AcDbCircle
 10
540.2098307551
 20
572.4510118657
 30
0.0
 40
5.328914336627577
  0
CIRCLE
  5
15D
330
1F
100
AcDbEntity
  8
0
  6
Continuous
 62
     7
370
    25
100
AcDbCircle
 10
540.2098307551
 20
572.4510118657
 30
0.0
 40
5.074569253689219
  0
CIRCLE
  5
15E
330
1F
100
AcDbEntity
  8
0
  6
Continuous
 62
     7
370
    25
100
AcDbCircle
 10
540.2098307551
 20
572.4510118657
 30
0.0
 40
5.925127771161442
  0
CIRCLE
  5
15F
330
1F
100
AcDbEntity
  8
0
  6
Continuous
 62
     7
370
    25
100
AcDbCircle
 10
540.2098307551
 20
572.4510118657
 30
0.0
 40
7.149999999999977
  0
SPLINE
  5
160
330
1F
100
AcDbEntity
  8
0
  6
Continuous
 62
     7
370
    25
100
AcDbSpline
210
0.0
220
0.0
230
1.0
 70
     8
 71
     3
 72
    11
 73
     7
 74
     0
 42
0.00000001
 43
0.00000001
 40
0.0
 40
0.0
 40
0.0
 40
0.0
 40
0.2200386424382248
 40
0.6637869905998172
 40
0.8890365590789576
 40
1.0
 40
1.0
 40
1.0
 40
1.0
 10
533.5322406105571
 20
566.6761148475638
 30
0.0
 10
533.3280191475556
 20
566.9411334588225
 30
0.0
 10
532.711947584672
 20
567.7406107891273
 30
0.0
 10
532.1883982336549
 20
569.0037800596551
 30
0.0
 10
531.9367690338936
 20
570.1703498729792
 30
0.0
 10
531.957476228616
 20
570.6816296716386
 30
0.0
 10
531.964310412642
 20
570.850371999111
 30
0.0
  0
SPLINE
  5
161
330
1F
100
AcDbEntity
  8
0
  6
Continuous
 62
     7
370
    25
100
AcDbSpline
210
0.0
220
0.0
230
1.0
 70
     8
 71
     3
 72
     9
 73
     5
 74
     0
 42
0.00000001
 43
0.00000001
 40
0.0
 40
0.0
 40
0.0
 40
0.0
 40
0.9209630919903058
 40
1.0
 40
1.0
 40
1.0
 40
1.0
 10
531.8921982473097
 20
566.9964381231972
 30
0.0
 10
532.4066197851826
 20
566.9396110642786
 30
0.0
 10
532.9651888986973
 20
566.8779071160826
 30
0.0
 10
533.4907054103667
 20
566.6908956551947
 30
0.0
 10
533.5322406105571
 20
566.6761148475638
 30
0.0
  0
SPLINE
  5
162
330
1F
100
AcDbEntity
  8
0
  6
Continuous
 62
     7
370
    25
100
AcDbSpline
210
0.0
220
0.0
230
1.0
 70
     8
 71
     3
 72
    10
 73
     6
 74
     0
 42
0.00000001
 43
0.00000001
 40
0.0
 40
0.0
 40
0.0
 40
0.0
 40
0.2596150688488839
 40
0.6297606444810658
 40
1.0
 40
1.0
 40
1.0
 40
1.0
 10
484.7170372933725
 20
569.5879956921863
 30
0.0
 10
488.7948575120955
 20
569.2882415550879
 30
0.0
 10
498.6866203454608
 20
568.5611136599238
 30
0.0
 10
514.416193028134
 20
567.7352667900336
 30
0.0
 10
526.0663712893986
 20
567.242735140768
 30
0.0
 10
531.8921982473097
 20
566.9964381231972
 30
0.0
  0
SPLINE
  5
163
330
1F
100
AcDbEntity
  8
0
  6
Continuous
 62
     7
370
    25
100
AcDbSpline
210
0.0
220
0.0
230
1.0
 70
     8
 71
     3
 72
    11
 73
     7
 74
     0
 42
0.00000001
 43
0.00000001
 40
0.0
 40
0.0
 40
0.0
 40
0.0
 40
0.0614641195413919
 40
0.4999988937835378
 40
0.9375097801832796
 40
1.0
 40
1.0
 40
1.0
 40
1.0
 10
484.7170372933727
 20
575.3140280391882
 30
0.0
 10
484.7053680971703
 20
575.197571066736
 30
0.0
 10
484.610441410901
 20
574.2502157994049
 30
0.0
 10
484.5267385836347
 20
572.4529716009566
 30
0.0
 10
484.610308507155
 20
570.6537735767158
 30
0.0
 10
484.7051802122001
 20
569.7063987522828
 30
0.0
 10
484.7170372933725
 20
569.5879956921863
 30
0.0
  0
SPLINE
  5
164
330
1F
100
AcDbEntity
  8
0
  6
Continuous
 62
     7
370
    25
100
AcDbSpline
210
0.0
220
0.0
230
1.0
 70
     8
 71
     3
 72
    11
 73
     7
 74
     0
 42
0.00000001
 43
0.00000001
 40
0.0
 40
0.0
 40
0.0
 40
0.0
 40
0.2594589277291888
 40
0.6296002946237422
 40
0.8147836738016292
 40
1.0
 40
1.0
 40
1.0
 40
1.0
 10
531.8921982473097
 20
577.9055856081754
 30
0.0
 10
527.8091975979647
 20
577.7400870217544
 30
0.0
 10
517.9014313311603
 20
577.3384898993029
 30
0.0
 10
505.0862943721993
 20
576.6602370832795
 30
0.0
 10
493.4420221059397
 20
575.9828161910674
 30
0.0
 10
487.6255380228071
 20
575.5369706424551
 30
0.0
 10
484.7170372933727
 20
575.3140280391882
 30
0.0
  0
SPLINE
  5
165
330
1F
100
AcDbEntity
  8
0
  6
Continuous
 62
     7
370
    25
100
AcDbSpline
210
0.0
220
0.0
230
1.0
 70
     8
 71
     3
 72
     9
 73
     5
 74
     0
 42
0.00000001
 43
0.00000001
 40
0.0
 40
0.0
 40
0.0
 40
0.0
 40
0.0790369080192175
 40
1.0
 40
1.0
 40
1.0
 40
1.0
 10
533.5322406105563
 20
578.2259088838088
 30
0.0
 10
533.4907054103609
 20
578.211128076176
 30
0.0
 10
532.9651888986916
 20
578.0241166152882
 30
0.0
 10
532.406619785177
 20
577.9624126670928
 30
0.0
 10
531.8921982473097
 20
577.9055856081754
 30
0.0
  0
SPLINE
  5
166
330
1F
100
AcDbEntity
  8
0
  6
Continuous
 62
     7
370
    25
100
AcDbSpline
210
0.0
220
0.0
230
1.0
 70
     8
 71
     3
 72
    11
 73
     7
 74
     0
 42
0.00000001
 43
0.00000001
 40
0.0
 40
0.0
 40
0.0
 40
0.0
 40
0.0728838064943292
 40
0.4140719411596028
 40
0.9209668754550557
 40
1.0
 40
1.0
 40
1.0
 40
1.0
 10
531.9643104126458
 20
574.0516517322469
 30
0.0
 10
531.9565952635081
 20
574.1620981664859
 30
0.0
 10
531.9127634861436
 20
574.7895732068168
 30
0.0
 10
532.2572551975816
 20
576.1725652372819
 30
0.0
 10
532.8969445470681
 20
577.4424967550594
 30
0.0
 10
533.4567332965008
 20
578.1327974212325
 30
0.0
 10
533.5322406105563
 20
578.2259088838088
 30
0.0
  0
SPLINE
  5
167
330
1F
100
AcDbEntity
  8
0
  6
Continuous
 62
     7
370
    25
100
AcDbSpline
210
0.0
220
0.0
230
1.0
 70
     8
 71
     3
 72
    10
 73
     6
 74
     0
 42
0.00000001
 43
0.00000001
 40
0.0
 40
0.0
 40
0.0
 40
0.0
 40
0.3880207377811387
 40
0.979063776650686
 40
1.0
 40
1.0
 40
1.0
 40
1.0
 10
531.964310412642
 20
570.850371999111
 30
0.0
 10
532.0376249434015
 20
571.2612118609667
 30
0.0
 10
532.2226140287247
 20
572.2978534308149
 30
0.0
 10
532.1269071028937
 20
573.3916227523862
 30
0.0
 10
531.9696889516458
 20
574.0298186211057
 30
0.0
 10
531.9643104126458
 20
574.0516517322469
 30
0.0
  0
ARC
  5
168
330
1F
100
AcDbEntity
  8
0
  6
Continuous
 62
     7
370
    25
100
AcDbCircle
 10
540.2098307551
 20
572.4510118657
 30
0.0
 40
8.39944365426456
100
AcDbArc
 50
190.985757993
 51
169.0142420071
  0
SPLINE
  5
169
330
1F
100
AcDbEntity
  8
0
  6
Continuous
 62
     7
370
    25
100
AcDbSpline
210
0.0
220
0.0
230
1.0
 70
     8
 71
     3
 72
     9
 73
     5
 74
     0
 42
0.00000001
 43
0.00000001
 40
0.0
 40
0.0
 40
0.0
 40
0.0
 40
0.6817923421274298
 40
1.0
 40
1.0
 40
1.0
 40
1.0
 10
533.5322406105563
 20
578.2259088838088
 30
0.0
 10
533.6745041711994
 20
578.415819238914
 30
0.0
 10
533.8831653013597
 20
578.6943649827875
 30
0.0
 10
534.1125911352401
 20
578.9272693557305
 30
0.0
 10
534.1855961924946
 20
579.0013813107529
 30
0.0
  0
ARC
  5
16A
330
1F
100
AcDbEntity
  8
0
  6
Continuous
 62
     7
370
    25
100
AcDbCircle
 10
540.2098307551
 20
572.4510118657
 30
0.0
 40
8.899367501836373
100
AcDbArc
 50
227.3959191961
 51
132.6040808039
  0
LINE
  5
16B
330
1F
100
AcDbEntity
  8
0
  6
Continuous
 62
     7
370
    25
100
AcDbLine
 10
534.1855961925
 20
565.9006424206
 30
0.0
 11
533.5322406106
 21
566.6761148476
 31
0.0
  0
SPLINE
  5
16C
330
1F
100
AcDbEntity
  8
0
  6
Continuous
 62
     7
370
    25
100
AcDbSpline
210
0.0
220
0.0
230
1.0
 70
     8
 71
     3
 72
    10
 73
     6
 74
     0
 42
0.00000001
 43
0.00000001
 40
0.0
 40
0.0
 40
0.0
 40
0.0
 40
0.3702896688583042
 40
0.7405318123903297
 40
0.9999999999999999
 40
0.9999999999999999
 40
0.9999999999999999
 40
0.9999999999999999
 10
484.7055178301942
 20
575.7568876200214
 30
0.0
 10
490.5255816764126
 20
576.0770786345477
 30
0.0
 10
502.1649623849162
 20
576.7174195682533
 30
0.0
 10
517.8838307916911
 20
577.5866539001165
 30
0.0
 10
527.7810046077009
 20
578.1353949017257
 30
0.0
 10
531.8590729281649
 20
578.3615001855576
 30
0.0
  0
ARC
  5
16D
330
1F
100
AcDbEntity
  8
0
  6
Continuous
 62
     7
370
    25
100
AcDbCircle
 10
524.6439837208
 20
577.6081138189
 30
0.0
 40
7.254316183285637
100
AcDbArc
 50
2.3501399448
 51
5.9611177314
  0
ARC
  5
16E
330
1F
100
AcDbEntity
  8
0
  6
Continuous
 62
     7
370
    25
100
AcDbCircle
 10
488.9660403714
 20
575.646130796
 30
0.0
 40
4.261961918910719
100
AcDbArc
 50
178.5108705387
 51
184.4691613065
  0
SPLINE
  5
16F
330
1F
100
AcDbEntity
  8
0
  6
Continuous
 62
     7
370
    25
100
AcDbSpline
210
0.0
220
0.0
230
1.0
 70
     8
 71
     3
 72
    10
 73
     6
 74
     0
 42
0.00000001
 43
0.00000001
 40
0.0
 40
0.0
 40
0.0
 40
0.0
 40
0.3702717503651156
 40
0.7405122151371748
 40
1.0
 40
1.0
 40
1.0
 40
1.0
 10
531.8590729281649
 20
566.5405235458151
 30
0.0
 10
526.0394008664958
 20
566.863052031483
 30
0.0
 10
514.400548468199
 20
567.508081751226
 30
0.0
 10
498.6814088842443
 20
568.3768962387051
 30
0.0
 10
488.7839114605456
 20
568.9209511494719
 30
0.0
 10
484.7055178301976
 20
569.145136111351
 30
0.0
  0
ARC
  5
170
330
1F
100
AcDbEntity
  8
0
  6
Continuous
 62
     7
370
    25
100
AcDbCircle
 10
488.9660403743
 20
569.2558929353
 30
0.0
 40
4.261961921838749
100
AcDbArc
 50
175.5308386961
 51
181.4891294598
  0
ARC
  5
171
330
1F
100
AcDbEntity
  8
0
  6
Continuous
 62
     7
370
    25
100
AcDbCircle
 10
524.6439837208
 20
567.2939099125
 30
0.0
 40
7.254316183315022
100
AcDbArc
 50
354.0388822686
 51
357.6498600552
  0
SPLINE
  5
172
330
1F
100
AcDbEntity
  8
0
  6
Continuous
 62
     7
370
    25
100
AcDbSpline
210
0.0
220
0.0
230
1.0
 70
     8
 71
     3
 72
    12
 73
     8
 74
     0
 42
0.00000001
 43
0.00000001
 40
0.0
 40
0.0
 40
0.0
 40
0.0
 40
0.1224290494151362
 40
0.3423522449770489
 40
0.5614228816909436
 40
0.7807229538533521
 40
1.0
 40
1.0
 40
1.0
 40
1.0
 10
482.781309860525
 20
569.6986700618424
 30
0.0
 10
482.7903139363891
 20
569.6963113774016
 30
0.0
 10
482.8154923201201
 20
569.6897157130768
 30
0.0
 10
483.0314800037648
 20
569.6727077453377
 30
0.0
 10
483.4673781334938
 20
569.6471967711833
 30
0.0
 10
484.0513037469241
 20
569.6176445886239
 30
0.0
 10
484.4951338784922
 20
569.5978783117449
 30
0.0
 10
484.7170372933725
 20
569.5879956921863
 30
0.0
  0
SPLINE
  5
173
330
1F
100
AcDbEntity
  8
0
  6
Continuous
 62
     7
370
    25
100
AcDbSpline
210
0.0
220
0.0
230
1.0
 70
     8
 71
     3
 72
    11
 73
     7
 74
     0
 42
0.00000001
 43
0.00000001
 40
0.0
 40
0.0
 40
0.0
 40
0.0
 40
0.0800485240044433
 40
0.5000005853538798
 40
0.9209248322279645
 40
1.0
 40
1.0
 40
1.0
 40
1.0
 10
482.781309860525
 20
569.6986700618424
 30
0.0
 10
482.7815961049391
 20
569.8449144869431
 30
0.0
 10
482.7833840501437
 20
570.7583891457763
 30
0.0
 10
482.7846197469737
 20
572.4527987335348
 30
0.0
 10
482.7833820488789
 20
574.1454255853894
 30
0.0
 10
482.7815928269108
 20
575.0588889610333
 30
0.0
 10
482.7813098605249
 20
575.2033536695246
 30
0.0
  0
SPLINE
  5
174
330
1F
100
AcDbEntity
  8
0
  6
Continuous
 62
     7
370
    25
100
AcDbSpline
210
0.0
220
0.0
230
1.0
 70
     8
 71
     3
 72
    12
 73
     8
 74
     0
 42
0.00000001
 43
0.00000001
 40
0.0
 40
0.0
 40
0.0
 40
0.0
 40
0.1130367476169282
 40
0.3328594693547963
 40
0.5544127937944965
 40
0.7774207483513224
 40
1.0
 40
1.0
 40
1.0
 40
1.0
 10
484.7170372933727
 20
575.3140280391882
 30
0.0
 10
484.6029664533858
 20
575.3090127934868
 30
0.0
 10
484.2670618907779
 20
575.2942443924311
 30
0.0
 10
483.7329940343832
 20
575.2686521883217
 30
0.0
 10
483.2164683964959
 20
575.2407769254506
 30
0.0
 10
482.8595736793415
 20
575.2173350518601
 30
0.0
 10
482.8073810618231
 20
575.2080111401004
 30
0.0
 10
482.7813098605249
 20
575.2033536695246
 30
0.0
  0
SPLINE
  5
175
330
1F
100
AcDbEntity
  8
0
  6
Continuous
 62
     7
370
    25
100
AcDbSpline
210
0.0
220
0.0
230
1.0
 70
     8
 71
     3
 72
     9
 73
     5
 74
     0
 42
0.00000001
 43
0.00000001
 40
0.0
 40
0.0
 40
0.0
 40
0.0
 40
0.5000106123815449
 40
1.0
 40
1.0
 40
1.0
 40
1.0
 10
534.6852040413376
 20
565.4688107313734
 30
0.0
 10
534.2554826745168
 20
565.7566512694667
 30
0.0
 10
533.3960581819562
 20
566.3323201272182
 30
0.0
 10
532.3713940966779
 20
566.4711233883048
 30
0.0
 10
531.8590729281649
 20
566.5405235458151
 30
0.0
  0
SPLINE
  5
176
330
1F
100
AcDbEntity
  8
0
  6
Continuous
 62
     7
370
    25
100
AcDbSpline
210
0.0
220
0.0
230
1.0
 70
     8
 71
     3
 72
     9
 73
     5
 74
     0
 42
0.00000001
 43
0.00000001
 40
0.0
 40
0.0
 40
0.0
 40
0.0
 40
0.9838702326459322
 40
1.0
 40
1.0
 40
1.0
 40
1.0
 10
534.1855961924946
 20
565.9006424206196
 30
0.0
 10
534.346937007429
 20
565.7558100076006
 30
0.0
 10
534.510922876277
 20
565.6086031827439
 30
0.0
 10
534.6824375495597
 20
565.4710297586973
 30
0.0
 10
534.6852040413376
 20
565.4688107313734
 30
0.0
  0
SPLINE
  5
177
330
1F
100
AcDbEntity
  8
0
  6
Continuous
 62
     7
370
    25
100
AcDbSpline
210
0.0
220
0.0
230
1.0
 70
     8
 71
     3
 72
     9
 73
     5
 74
     0
 42
0.00000001
 43
0.00000001
 40
0.0
 40
0.0
 40
0.0
 40
0.0
 40
0.5055561057107315
 40
1.0
 40
1.0
 40
1.0
 40
1.0
 10
531.8590729281649
 20
578.3615001855576
 30
0.0
 10
532.377132445498
 20
578.4321562198276
 30
0.0
 10
533.4018644415734
 20
578.571915256405
 30
0.0
 10
534.2606050103349
 20
579.1482485312007
 30
0.0
 10
534.6852040413376
 20
579.4332129999991
 30
0.0
  0
SPLINE
  5
178
330
1F
100
AcDbEntity
  8
0
  6
Continuous
 62
     7
370
    25
100
AcDbSpline
210
0.0
220
0.0
230
1.0
 70
     8
 71
     3
 72
     9
 73
     5
 74
     0
 42
0.00000001
 43
0.00000001
 40
0.0
 40
0.0
 40
0.0
 40
0.0
 40
0.0161297673533178
 40
1.0
 40
1.0
 40
1.0
 40
1.0
 10
534.6852040413376
 20
579.4332129999991
 30
0.0
 10
534.6824375495598
 20
579.4309939726753
 30
0.0
 10
534.510922876273
 20
579.2934205486257
 30
0.0
 10
534.346937007427
 20
579.1462137237704
 30
0.0
 10
534.1855961924946
 20
579.0013813107529
 30
0.0
  0
SPLINE
  5
179
330
1F
100
AcDbEntity
  8
0
  6
Continuous
 62
     7
370
    25
100
AcDbSpline
210
0.0
220
0.0
230
1.0
 70
     8
 71
     3
 72
    12
 73
     8
 74
     0
 42
0.00000001
 43
0.00000001
 40
0.0
 40
0.0
 40
0.0
 40
0.0
 40
0.2230315344150378
 40
0.4461337558340359
 40
0.6675099896777023
 40
0.8870667292265011
 40
1.0
 40
1.0
 40
1.0
 40
1.0
 10
483.2536641256094
 20
575.7025167405731
 30
0.0
 10
483.2731979117354
 20
575.7006264932783
 30
0.0
 10
483.312271674972
 20
575.6968453995988
 30
0.0
 10
483.5798608570281
 20
575.7037882358695
 30
0.0
 10
483.9673899408531
 20
575.7193770583594
 30
0.0
 10
484.3681120533162
 20
575.7387143384236
 30
0.0
 10
484.6199714755741
 20
575.7522799396
 30
0.0
 10
484.7055178301942
 20
575.7568876200214
 30
0.0
  0
ARC
  5
17A
330
1F
100
AcDbEntity
  8
0
  6
Continuous
 62
     7
370
    25
100
AcDbCircle
 10
483.2814097481
 20
575.2031870842
 30
0.0
 40
0.5000999153470841
100
AcDbArc
 50
93.1804119248
 51
179.9809145383
  0
SPLINE
  5
17B
330
1F
100
AcDbEntity
  8
0
  6
Continuous
 62
     7
370
    25
100
AcDbSpline
210
0.0
220
0.0
230
1.0
 70
     8
 71
     3
 72
    12
 73
     8
 74
     0
 42
0.00000001
 43
0.00000001
 40
0.0
 40
0.0
 40
0.0
 40
0.0
 40
0.2190444340109337
 40
0.4380981679380299
 40
0.6571027493691836
 40
0.8772791087290026
 40
1.0
 40
1.0
 40
1.0
 40
1.0
 10
484.7055178301976
 20
569.145136111351
 30
0.0
 10
484.5391000894268
 20
569.1539649243007
 30
0.0
 10
484.2062575423276
 20
569.1716229250429
 30
0.0
 10
483.7680990996844
 20
569.1911414144521
 30
0.0
 10
483.441133272925
 20
569.2024471980843
 30
0.0
 10
483.2792893959107
 20
569.204271066161
 30
0.0
 10
483.2604180634986
 20
569.2007626368362
 30
0.0
 10
483.2536641256095
 20
569.1995069907996
 30
0.0
  0
ARC
  5
17C
330
1F
100
AcDbEntity
  8
0
  6
Continuous
 62
     7
370
    25
100
AcDbCircle
 10
483.2814097481
 20
569.6988366472
 30
0.0
 40
0.5000999153471908
100
AcDbArc
 50
180.0190854624
 51
266.8195880753
  0
LINE
  5
17D
330
1F
100
AcDbEntity
  8
0
  6
Continuous
 62
     7
370
    25
100
AcDbLine
 10
531.8590729282
 20
578.3615001856
 30
0.0
 11
531.8320867465
 21
578.4327904609
 31
0.0
  0
LINE
  5
17E
330
1F
100
AcDbEntity
  8
0
  6
Continuous
 62
     7
370
    25
100
AcDbLine
 10
483.2489737649
 20
575.7069551936
 30
0.0
 11
483.2536641256
 21
575.7025167406
 31
0.0
  0
ELLIPSE
  5
17F
330
1F
100
AcDbEntity
  8
0
  6
Continuous
 62
     7
370
    25
100
AcDbEllipse
 10
484.7487453077
 20
575.7902476436
 30
0.0
 11
1.499999304622804
 21
0.0828726334386829
 31
0.0
210
0.0
220
0.0
230
1.0
 40
0.0174284859
 41
2.255125316699077
 42
3.158083049610986
  0
LINE
  5
180
330
1F
100
AcDbEntity
  8
0
  6
Continuous
 62
     7
370
    25
100
AcDbLine
 10
487.2643599767
 20
575.9990072317
 30
0.0
 11
483.7993967673
 21
575.7581159527
 31
0.0
  0
LINE
  5
181
330
1F
100
AcDbEntity
  8
0
  6
Continuous
 62
     7
370
    25
100
AcDbLine
 10
487.2643599767
 20
575.9989088404
 30
0.0
 11
487.2643599767
 21
575.9990072317
 31
0.0
  0
ELLIPSE
  5
182
330
1F
100
AcDbEntity
  8
0
  6
Continuous
 62
     7
370
    25
100
AcDbEllipse
 10
496.7138463976
 20
576.3285548919
 30
0.0
 11
14.49999327802044
 21
0.8011021232406392
 31
0.0
210
0.0
220
0.0
230
1.0
 40
0.0174284859
 41
1.543516838852407
 42
2.279642175408196
  0
ELLIPSE
  5
183
330
1F
100
AcDbEntity
  8
0
  6
Continuous
 62
     7
370
    25
100
AcDbEllipse
 10
498.0348563132
 20
577.2788384412
 30
0.0
 11
35.70262504606012
 21
1.972514619921867
 31
0.0
210
0.0
220
0.0
230
1.0
 40
0.0174284859
 41
4.685109492442219
 42
5.167309992307905
  0
ELLIPSE
  5
184
330
1F
100
AcDbEntity
  8
0
  6
Continuous
 62
     7
370
    25
100
AcDbEllipse
 10
517.0550837852
 20
577.6512345009
 30
0.0
 11
7.499996523113964
 21
0.4143631671934145
 31
0.0
210
0.0
220
0.0
230
1.0
 40
0.0174284859
 41
1.83482668100797
 42
2.025717338718135
  0
LINE
  5
185
330
1F
100
AcDbEntity
  8
0
  6
Continuous
 62
     7
370
    25
100
AcDbLine
 10
515.1104313842
 20
577.5188900497
 30
0.0
 11
515.0908131268
 21
577.6692805943
 31
0.0
  0
SPLINE
  5
186
330
1F
100
AcDbEntity
  8
0
  6
Continuous
 62
     7
370
    25
100
AcDbSpline
210
0.0
220
0.0
230
1.0
 70
     8
 71
     3
 72
    10
 73
     6
 74
     0
 42
0.00000001
 43
0.00000001
 40
0.0
 40
0.0
 40
0.0
 40
0.0
 40
0.0186368637457406
 40
0.3939469944633167
 40
1.0
 40
1.0
 40
1.0
 40
1.0
 10
515.2942026698952
 20
577.5193764169614
 30
0.0
 10
515.2917464626465
 20
577.5192886664821
 30
0.0
 10
515.2398270261693
 20
577.5174337922892
 30
0.0
 10
515.1358281776917
 20
577.514753810911
 30
0.0
 10
515.1201275203423
 20
577.5173108923086
 30
0.0
 10
515.1104313841988
 20
577.5188900497164
 30
0.0
  0
LINE
  5
187
330
1F
100
AcDbEntity
  8
0
  6
Continuous
 62
     7
370
    25
100
AcDbLine
 10
531.8320867465
 20
578.4327904609
 30
0.0
 11
515.2942026699
 21
577.519376417
 31
0.0
  0
LINE
  5
188
330
1F
100
AcDbEntity
  8
0
  6
Continuous
 62
     7
370
    25
100
AcDbLine
 10
515.292136938
 20
567.3664436656
 30
0.0
 11
531.8260453614
 21
566.4532492034
 31
0.0
  0
SPLINE
  5
189
330
1F
100
AcDbEntity
  8
0
  6
Continuous
 62
     7
370
    25
100
AcDbSpline
210
0.0
220
0.0
230
1.0
 70
     8
 71
     3
 72
    11
 73
     7
 74
     0
 42
0.00000001
 43
0.00000001
 40
0.0
 40
0.0
 40
0.0
 40
0.0
 40
0.417746929449536
 40
0.8392770662410924
 40
0.9817832068819766
 40
1.0
 40
1.0
 40
1.0
 40
1.0
 10
515.1084314973269
 20
567.3677931108696
 30
0.0
 10
515.1130685253588
 20
567.3688763020532
 30
0.0
 10
515.1223845753601
 20
567.3710524940363
 30
0.0
 10
515.1978810411102
 20
567.3698503171449
 30
0.0
 10
515.2681412416823
 20
567.3673797898049
 30
0.0
 10
515.28969407834
 20
567.366538966848
 30
0.0
 10
515.29213693797
 20
567.3664436655895
 30
0.0
  0
LINE
  5
18A
330
1F
100
AcDbEntity
  8
0
  6
Continuous
 62
     7
370
    25
100
AcDbLine
 10
515.0908131268
 20
567.2327431371
 30
0.0
 11
515.1084314973
 21
567.3677931109
 31
0.0
  0
ELLIPSE
  5
18B
330
1F
100
AcDbEntity
  8
0
  6
Continuous
 62
     7
370
    25
100
AcDbEllipse
 10
517.0550837852
 20
567.2507892305
 30
0.0
 11
7.499996523113964
 21
-0.4143631671935282
 31
0.0
210
0.0
220
0.0
230
1.0
 40
0.0174284859
 41
4.257467968461774
 42
4.448358626171958
  0
ELLIPSE
  5
18C
330
1F
100
AcDbEntity
  8
0
  6
Continuous
 62
     7
370
    25
100
AcDbEllipse
 10
498.0348563132
 20
567.6231852902
 30
0.0
 11
35.70262504606023
 21
-1.972514619921867
 31
0.0
210
0.0
220
0.0
230
1.0
 40
0.0174284859
 41
1.115875314871907
 42
1.598075814737362
  0
ELLIPSE
  5
18D
330
1F
100
AcDbEntity
  8
0
  6
Continuous
 62
     7
370
    25
100
AcDbEllipse
 10
496.7138463976
 20
568.5734688395
 30
0.0
 11
14.49999327802044
 21
-0.8011021232406392
 31
0.0
210
0.0
220
0.0
230
1.0
 40
0.0174284859
 41
4.003543131771957
 42
4.739668468327168
  0
LINE
  5
18E
330
1F
100
AcDbEntity
  8
0
  6
Continuous
 62
     7
370
    25
100
AcDbLine
 10
487.2643599767
 20
568.9030164997
 30
0.0
 11
487.2643599767
 21
568.9031148909
 31
0.0
  0
LINE
  5
18F
330
1F
100
AcDbEntity
  8
0
  6
Continuous
 62
     7
370
    25
100
AcDbLine
 10
483.7993967673
 20
569.1439077787
 30
0.0
 11
487.2643599767
 21
568.9030164997
 31
0.0
  0
ELLIPSE
  5
190
330
1F
100
AcDbEntity
  8
0
  6
Continuous
 62
     7
370
    25
100
AcDbEllipse
 10
484.7487453077
 20
569.1117760877
 30
0.0
 11
1.499999304622804
 21
-0.0828726334386829
 31
0.0
210
0.0
220
0.0
230
1.0
 40
0.0174284859
 41
3.623660891432
 42
4.028059990483511
  0
LINE
  5
191
330
1F
100
AcDbEntity
  8
0
  6
Continuous
 62
     7
370
    25
100
AcDbLine
 10
483.2536641256
 20
569.1995069908
 30
0.0
 11
483.2489737649
 21
569.1950685377
 31
0.0
  0
LINE
  5
192
330
1F
100
AcDbEntity
  8
0
  6
Continuous
 62
     7
370
    25
100
AcDbLine
 10
531.8260453614
 20
566.4532492034
 30
0.0
 11
531.8590729282
 21
566.5405235458
 31
0.0
  0
SPLINE
  5
193
330
1F
100
AcDbEntity
  8
0
  6
Continuous
 62
     7
370
    25
100
AcDbSpline
210
0.0
220
0.0
230
1.0
 70
     8
 71
     3
 72
     9
 73
     5
 74
     0
 42
0.00000001
 43
0.00000001
 40
0.0
 40
0.0
 40
0.0
 40
0.0
 40
0.5001021276704715
 40
0.9999999999999999
 40
0.9999999999999999
 40
0.9999999999999999
 40
0.9999999999999999
 10
534.6519851752821
 20
579.4989044469594
 30
0.0
 10
534.2230373995748
 20
579.212378812871
 30
0.0
 10
533.3653170421242
 20
578.639444569573
 30
0.0
 10
532.343093913509
 20
578.5016657831189
 30
0.0
 10
531.8320867464685
 20
578.4327904609183
 30
0.0
  0
LINE
  5
194
330
1F
100
AcDbEntity
  8
0
  6
Continuous
 62
     7
370
    25
100
AcDbLine
 10
534.6519851753
 20
579.498904447
 30
0.0
 11
534.6852040413
 21
579.433213
 31
0.0
  0
SPLINE
  5
195
330
1F
100
AcDbEntity
  8
0
  6
Continuous
 62
     7
370
    25
100
AcDbSpline
210
0.0
220
0.0
230
1.0
 70
     8
 71
     3
 72
     9
 73
     5
 74
     0
 42
0.00000001
 43
0.00000001
 40
0.0
 40
0.0
 40
0.0
 40
0.0
 40
0.4007227371565292
 40
1.0
 40
1.0
 40
1.0
 40
1.0
 10
531.8260453614167
 20
566.4532492033749
 30
0.0
 10
532.234731484826
 20
566.4048419413092
 30
0.0
 10
533.2546040438658
 20
566.2840420525654
 30
0.0
 10
534.1236800876917
 20
565.7239347792118
 30
0.0
 10
534.6444976004385
 20
565.3882752255377
 30
0.0
  0
LINE
  5
196
330
1F
100
AcDbEntity
  8
0
  6
Continuous
 62
     7
370
    25
100
AcDbLine
 10
534.6852040413
 20
565.4688107314
 30
0.0
 11
534.6444976004
 21
565.3882752255
 31
0.0
  0
ARC
  5
197
330
1F
100
AcDbEntity
  8
0
  6
Continuous
 62
     7
370
    25
100
AcDbCircle
 10
540.2098307551
 20
572.4510118657
 30
0.0
 40
8.975658044222143
100
AcDbArc
 50
65.1648853947
 51
128.2586979829
  0
LWPOLYLINE
  5
198
330
1F
100
AcDbEntity
  8
0
  6
Continuous
 62
     7
370
    25
100
AcDbPolyline
 90
        3
 70
   128
 43
0.0
 10
544.1451441794
 20
580.701671589
 10
544.0405626153
 20
580.6354191777
 10
543.9796820725
 20
580.5966032114
  0
ARC
  5
199
330
1F
100
AcDbEntity
  8
0
  6
Continuous
 62
     7
370
    25
100
AcDbCircle
 10
540.2098307551
 20
572.4510118657
 30
0.0
 40
9.141120151092158
100
AcDbArc
 50
295.4997164176
 51
64.5002794289
  0
LWPOLYLINE
  5
19A
330
1F
100
AcDbEntity
  8
0
  6
Continuous
 62
     7
370
    25
100
AcDbPolyline
 90
        3
 70
   128
 43
0.0
 10
543.995974983
 20
564.2950144492
 10
544.0405626153
 20
564.2666045536
 10
544.1451441797
 20
564.2003521422
  0
ARC
  5
19B
330
1F
100
AcDbEntity
  8
0
  6
Continuous
 62
     7
370
    25
100
AcDbCircle
 10
540.2098307551
 20
572.4510118657
 30
0.0
 40
8.99195095466071
100
AcDbArc
 50
231.762407147
 51
294.9014811666
  0
LINE
  5
19C
330
1F
100
AcDbEntity
  8
0
  6
Continuous
 62
     7
370
    25
100
AcDbLine
 10
482.7766194999
 20
569.6942316088
 30
0.0
 11
482.7813098605
 21
569.6986700618
 31
0.0
  0
LINE
  5
19D
330
1F
100
AcDbEntity
  8
0
  6
Continuous
 62
     7
370
    25
100
AcDbLine
 10
482.7766194999
 20
575.2077921226
 30
0.0
 11
482.7766194999
 21
569.6942316088
 31
0.0
  0
LINE
  5
19E
330
1F
100
AcDbEntity
  8
0
  6
Continuous
 62
     7
370
    25
100
AcDbLine
 10
482.7813098605
 20
575.2033536695
 30
0.0
 11
482.7766194999
 21
575.2077921226
 31
0.0
  0
ARC
  5
19F
330
1F
100
AcDbEntity
  8
0
  6
Continuous
 62
     7
370
    25
100
AcDbCircle
 10
483.2767193875
 20
569.6943981941
 30
0.0
 40
0.5000999153469134
100
AcDbArc
 50
180.0190854617
 51
266.8195880753
  0
ARC
  5
1A0
330
1F
100
AcDbEntity
  8
0
  6
Continuous
 62
     7
370
    25
100
AcDbCircle
 10
483.2767193875
 20
575.2076255372
 30
0.0
 40
0.500099915347084
100
AcDbArc
 50
93.1804119248
 51
179.9809145383
  0
LINE
  5
1A1
330
1F
100
AcDbEntity
  8
0
  6
Continuous
 62
     7
370
    25
100
AcDbLine
 10
483.7993967673
 20
569.1439077787
 30
0.0
 11
483.7922890365
 21
569.1442748153
 31
0.0
  0
LINE
  5
1A2
330
1F
100
AcDbEntity
  8
0
  6
Continuous
 62
     7
370
    25
100
AcDbLine
 10
483.7993967673
 20
575.7581159527
 30
0.0
 11
483.7922890365
 21
575.757748916
 31
0.0
  0
SPLINE
  5
1A3
330
1F
100
AcDbEntity
  8
0
  6
Continuous
 62
     7
370
    25
100
AcDbSpline
210
0.0
220
0.0
230
1.0
 70
     8
 71
     3
 72
    11
 73
     7
 74
     0
 42
0.00000001
 43
0.00000001
 40
0.0
 40
0.0
 40
0.0
 40
0.0
 40
0.1345990676765949
 40
0.4126978815969498
 40
0.6969472592954598
 40
1.0
 40
1.0
 40
1.0
 40
1.0
 10
543.9804606789729
 20
580.5974098285067
 30
0.0
 10
543.5511546587245
 20
580.7882937136678
 30
0.0
 10
542.2348477320004
 20
581.3735680130876
 30
0.0
 10
539.8590376811171
 20
581.9960358971113
 30
0.0
 10
536.805348296236
 20
582.3725385796116
 30
0.0
 10
534.6143183878753
 20
582.3996799079443
 30
0.0
 10
533.4837288703374
 20
582.4136850573894
 30
0.0
  0
ARC
  5
1A4
330
1F
100
AcDbEntity
  8
0
  6
Continuous
 62
     7
370
    25
100
AcDbCircle
 10
537.9762598633
 20
581.7938610128
 30
0.0
 40
4.535087272519783
100
AcDbArc
 50
149.0284626407
 51
172.1446266983
  0
SPLINE
  5
1A5
330
1F
100
AcDbEntity
  8
0
  6
Continuous
 62
     7
370
    25
100
AcDbSpline
210
0.0
220
0.0
230
1.0
 70
     8
 71
     3
 72
    12
 73
     8
 74
     0
 42
0.00000001
 43
0.00000001
 40
0.0
 40
0.0
 40
0.0
 40
0.0
 40
0.1662426524176543
 40
0.3368059756191302
 40
0.6054181071254584
 40
0.8801435087136191
 40
1.0
 40
1.0
 40
1.0
 40
1.0
 10
534.0877715078384
 20
584.1276722473573
 30
0.0
 10
534.7254530283744
 20
583.9721870718743
 30
0.0
 10
536.0173895051751
 20
583.657175638519
 30
0.0
 10
538.2015758875245
 20
582.9942105335206
 30
0.0
 10
540.5635502310843
 20
582.1420156167151
 30
0.0
 10
542.5290877929768
 20
581.299386938103
 30
0.0
 10
543.6428627777724
 20
580.7615288454078
 30
0.0
 10
543.98117825593
 20
580.5981513945806
 30
0.0
  0
LINE
  5
1A6
330
1F
100
AcDbEntity
  8
0
  6
Continuous
 62
     7
370
    25
100
AcDbLine
 10
543.9811782559
 20
580.5981513946
 30
0.0
 11
543.980460679
 21
580.5974098285
 31
0.0
  0
LINE
  5
1A7
330
1F
100
AcDbEntity
  8
0
  6
Continuous
 62
     7
370
    25
100
AcDbLine
 10
534.0877715078
 20
584.1276722474
 30
0.0
 11
534.1036295848
 21
584.1971457789
 31
0.0
  0
ARC
  5
1A8
330
1F
100
AcDbEntity
  8
0
  6
Continuous
 62
     7
370
    25
100
AcDbCircle
 10
523.3818513483
 20
537.2255109667
 30
0.0
 40
48.17977797259062
100
AcDbArc
 50
64.4718479123
 51
77.1419190681
  0
LWPOLYLINE
  5
1A9
330
1F
100
AcDbEntity
  8
0
  6
Continuous
 62
     7
370
    25
100
AcDbPolyline
 90
        3
 70
   128
 43
0.0
 10
543.9811782559
 20
580.5981513946
 10
544.0405661063
 20
580.6356750981
 10
544.1451441791
 20
580.701673128
  0
LINE
  5
1AA
330
1F
100
AcDbEntity
  8
0
  6
Continuous
 62
     7
370
    25
100
AcDbLine
 10
534.6519851753
 20
579.498904447
 30
0.0
 11
532.4541132551
 21
582.2860213213
 31
0.0
  0
ARC
  5
1AB
330
1F
100
AcDbEntity
  8
0
  6
Continuous
 62
     7
370
    25
100
AcDbCircle
 10
540.2098307551
 20
572.4510118657
 30
0.0
 40
12.52511736202731
100
AcDbArc
 50
127.8583068702
 51
128.2586979829
  0
LINE
  5
1AC
330
1F
100
AcDbEntity
  8
0
  6
Continuous
 62
     7
370
    25
100
AcDbLine
 10
533.4837288703
 20
582.4136850574
 30
0.0
 11
532.5230305215
 21
582.3399788036
 31
0.0
  0
LINE
  5
1AD
330
1F
100
AcDbEntity
  8
0
  6
Continuous
 62
     7
370
    25
100
AcDbLine
 10
543.9796820725
 20
580.5966032114
 30
0.0
 11
543.980460679
 21
580.5974098285
 31
0.0
  0
ARC
  5
1AE
330
1F
100
AcDbEntity
  8
0
  6
Continuous
 62
     7
370
    25
100
AcDbCircle
 10
522.2921590415
 20
577.7276112538
 30
0.0
 40
6.834138728210252
100
AcDbArc
 50
31.8771071303
 51
46.9488007428
  0
SPLINE
  5
1AF
330
1F
100
AcDbEntity
  8
0
  6
Continuous
 62
     7
370
    25
100
AcDbSpline
210
0.0
220
0.0
230
1.0
 70
     8
 71
     3
 72
    17
 73
    13
 74
     0
 42
0.00000001
 43
0.00000001
 40
0.0
 40
0.0
 40
0.0
 40
0.0
 40
0.2859834379244693
 40
0.521592264412223
 40
0.7592399016809378
 40
0.8521492405060498
 40
0.926670863383602
 40
0.960505839319536
 40
0.9835417153308589
 40
0.9930790992390832
 40
0.9972256067114875
 40
1.0
 40
1.0
 40
1.0
 40
1.0
 10
528.0955918325893
 20
581.3367136346715
 30
0.0
 10
526.866813648842
 20
580.8048455106511
 30
0.0
 10
524.6257006670113
 20
579.8347952826035
 30
0.0
 10
521.2867519801094
 20
578.7925646118189
 30
0.0
 10
518.7840966134027
 20
578.1747460508922
 30
0.0
 10
517.0137903293664
 20
577.820770741674
 30
0.0
 10
516.1486694940291
 20
577.6660697070612
 30
0.0
 10
515.6230820647537
 20
577.5775697162294
 30
0.0
 10
515.3894199510964
 20
577.5384579534068
 30
0.0
 10
515.311769791607
 20
577.5241381866449
 30
0.0
 10
515.2956881374068
 20
577.5204044343275
 30
0.0
 10
515.294627749431
 20
577.5196705931326
 30
0.0
 10
515.2942026698952
 20
577.5193764169614
 30
0.0
  0
SPLINE
  5
1B0
330
1F
100
AcDbEntity
  8
0
  6
Continuous
 62
     7
370
    25
100
AcDbSpline
210
0.0
220
0.0
230
1.0
 70
     8
 71
     3
 72
    10
 73
     6
 74
     0
 42
0.00000001
 43
0.00000001
 40
0.0
 40
0.0
 40
0.0
 40
0.0
 40
0.5975855365574454
 40
0.9790563563181981
 40
1.0
 40
1.0
 40
1.0
 40
1.0
 10
515.1841773502075
 20
577.5285033143008
 30
0.0
 10
515.1816582108542
 20
577.5247640165745
 30
0.0
 10
515.1775309700736
 20
577.518637725051
 30
0.0
 10
515.2519020966288
 20
577.5182611661944
 30
0.0
 10
515.2921100487333
 20
577.5193212451949
 30
0.0
 10
515.2942026698952
 20
577.5193764169614
 30
0.0
  0
SPLINE
  5
1B1
330
1F
100
AcDbEntity
  8
0
  6
Continuous
 62
     7
370
    25
100
AcDbSpline
210
0.0
220
0.0
230
1.0
 70
     8
 71
     3
 72
    14
 73
    10
 74
     0
 42
0.00000001
 43
0.00000001
 40
0.0
 40
0.0
 40
0.0
 40
0.0
 40
0.0129036569231464
 40
0.0519665716781148
 40
0.1318891824261205
 40
0.2280032005552168
 40
0.4679440229400844
 40
0.7079115564493632
 40
1.0
 40
1.0
 40
1.0
 40
1.0
 10
515.1841773502075
 20
577.5285033143008
 30
0.0
 10
515.2176459266718
 20
577.5363482883621
 30
0.0
 10
515.3524330795045
 20
577.5679421542947
 30
0.0
 10
515.791706524497
 20
577.6703242015885
 30
0.0
 10
516.6031339427228
 20
577.8727257104055
 30
0.0
 10
518.2566111245436
 20
578.3397763911717
 30
0.0
 10
520.6009011967873
 20
579.1772334505621
 30
0.0
 10
523.7459953732844
 20
580.6221736909123
 30
0.0
 10
525.8192940474769
 20
581.9775445737071
 30
0.0
 10
526.957494930224
 20
582.7216169808568
 30
0.0
  0
LINE
  5
1B2
330
1F
100
AcDbEntity
  8
0
  6
Continuous
 62
     7
370
    25
100
AcDbLine
 10
529.5362601947
 20
581.8608573167
 30
0.0
 11
531.6363427108
 21
581.9768482654
 31
0.0
  0
LINE
  5
1B3
330
1F
100
AcDbEntity
  8
0
  6
Continuous
 62
     7
370
    25
100
AcDbLine
 10
531.8320867465
 20
578.4327904609
 30
0.0
 11
531.6363427108
 21
581.9768482654
 31
0.0
  0
LINE
  5
1B4
330
1F
100
AcDbEntity
  8
0
  6
Continuous
 62
     7
370
    25
100
AcDbLine
 10
529.5362601947
 20
581.8608573167
 30
0.0
 11
528.0955918326
 21
581.3367136347
 31
0.0
  0
LWPOLYLINE
  5
1B5
330
1F
100
AcDbEntity
  8
0
  6
Continuous
 62
     7
370
    25
100
AcDbPolyline
 90
        4
 70
   128
 43
0.0
 10
515.1646505361
 20
577.6795988906
 10
515.1668951718
 20
577.6622407437
 10
515.1758702058
 20
577.5928079975
 10
515.1841773502
 20
577.5285033143
  0
LINE
  5
1B6
330
1F
100
AcDbEntity
  8
0
  6
Continuous
 62
     7
370
    25
100
AcDbLine
 10
516.9527748199
 20
578.1091263939
 30
0.0
 11
515.1646505361
 21
577.6795988906
 31
0.0
  0
ARC
  5
1B7
330
1F
100
AcDbEntity
  8
0
  6
Continuous
 62
     7
370
    25
100
AcDbCircle
 10
508.7672164214
 20
608.5348199877
 30
0.0
 40
31.50755777528338
100
AcDbArc
 50
285.0579972479
 51
305.1719294169
  0
LINE
  5
1B8
330
1F
100
AcDbEntity
  8
0
  6
Continuous
 62
     7
370
    25
100
AcDbLine
 10
526.9574949302
 20
582.7216169809
 30
0.0
 11
526.916575044
 21
582.7796849939
 31
0.0
  0
SPLINE
  5
1B9
330
1F
100
AcDbEntity
  8
0
  6
Continuous
 62
     7
370
    25
100
AcDbSpline
210
0.0
220
0.0
230
1.0
 70
     8
 71
     3
 72
     9
 73
     5
 74
     0
 42
0.00000001
 43
0.00000001
 40
0.0
 40
0.0
 40
0.0
 40
0.0
 40
0.4998978730609696
 40
0.9999999999999999
 40
0.9999999999999999
 40
0.9999999999999999
 40
0.9999999999999999
 10
531.6363427107631
 20
581.9768482653623
 30
0.0
 10
531.7845376266589
 20
581.9968146033646
 30
0.0
 10
532.0809880095909
 20
582.0367554374392
 30
0.0
 10
532.3297212383675
 20
582.2029213800097
 30
0.0
 10
532.4541132551192
 20
582.2860213213141
 30
0.0
  0
ARC
  5
1BA
330
1F
100
AcDbEntity
  8
0
  6
Continuous
 62
     7
370
    25
100
AcDbCircle
 10
515.0828420353
 20
578.0182047541
 30
0.0
 40
0.5000763404040395
100
AcDbArc
 50
273.1626296402
 51
281.6913635615
  0
SPLINE
  5
1BB
330
1F
100
AcDbEntity
  8
0
  6
Continuous
 62
     7
370
    25
100
AcDbSpline
210
0.0
220
0.0
230
1.0
 70
     8
 71
     3
 72
    13
 73
     9
 74
     0
 42
0.00000001
 43
0.00000001
 40
0.0
 40
0.0
 40
0.0
 40
0.0
 40
0.0460329529079877
 40
0.2492425848193723
 40
0.4775225570272882
 40
0.7051721168687842
 40
0.852680826381466
 40
1.0
 40
1.0
 40
1.0
 40
1.0
 10
543.9972092296201
 20
564.2937401055839
 30
0.0
 10
543.8688745775817
 20
564.2312311371472
 30
0.0
 10
543.1740145180962
 20
563.8927801822698
 30
0.0
 10
541.8143512835196
 20
563.274802758241
 30
0.0
 10
539.8063786667012
 20
562.4643304315277
 30
0.0
 10
537.791868404798
 20
561.7717056302631
 30
0.0
 10
535.9295851235526
 20
561.221471828565
 30
0.0
 10
534.837215560314
 20
560.953955717459
 30
0.0
 10
534.2913819043071
 20
560.8202836508988
 30
0.0
  0
LINE
  5
1BC
330
1F
100
AcDbEntity
  8
0
  6
Continuous
 62
     7
370
    25
100
AcDbLine
 10
533.8379218264
 20
562.7678861801
 30
0.0
 11
534.2913819043
 21
560.8202836509
 31
0.0
  0
SPLINE
  5
1BD
330
1F
100
AcDbEntity
  8
0
  6
Continuous
 62
     7
370
    25
100
AcDbSpline
210
0.0
220
0.0
230
1.0
 70
     8
 71
     3
 72
    13
 73
     9
 74
     0
 42
0.00000001
 43
0.00000001
 40
0.0
 40
0.0
 40
0.0
 40
0.0
 40
0.2574896950994369
 40
0.4890886589321034
 40
0.7206004760683484
 40
0.9447506334961274
 40
0.9460032291293298
 40
0.9999999999999999
 40
0.9999999999999999
 40
0.9999999999999999
 40
0.9999999999999999
 10
533.83792182642
 20
562.7678861801128
 30
0.0
 10
534.7566474024079
 20
562.7398232159981
 30
0.0
 10
536.501720189546
 20
562.6865190343326
 30
0.0
 10
538.9962854354593
 20
562.8510831531706
 30
0.0
 10
541.3119352414609
 20
563.2644571481809
 30
0.0
 10
542.7890438430629
 20
563.764014334744
 30
0.0
 10
543.6603052876053
 20
564.1382571896742
 30
0.0
 10
543.830351696428
 20
564.2172376081593
 30
0.0
 10
543.9965428684832
 20
564.294427408334
 30
0.0
  0
LINE
  5
1BE
330
1F
100
AcDbEntity
  8
0
  6
Continuous
 62
     7
370
    25
100
AcDbLine
 10
543.9965428685
 20
564.2944274083
 30
0.0
 11
543.9972092296
 21
564.2937401056
 31
0.0
  0
ARC
  5
1BF
330
1F
100
AcDbEntity
  8
0
  6
Continuous
 62
     7
370
    25
100
AcDbCircle
 10
523.3818513483
 20
607.6765127647
 30
0.0
 40
48.10950076354645
100
AcDbArc
 50
282.8580809319
 51
283.1066633214
  0
LWPOLYLINE
  5
1C0
330
1F
100
AcDbEntity
  8
0
  6
Continuous
 62
     7
370
    25
100
AcDbPolyline
 90
        3
 70
   128
 43
0.0
 10
543.9972092296
 20
564.2937401056
 10
544.0405661063
 20
564.2663486332
 10
544.1451441794
 20
564.2003506031
  0
ARC
  5
1C1
330
1F
100
AcDbEntity
  8
0
  6
Continuous
 62
     7
370
    25
100
AcDbCircle
 10
523.3818513483
 20
607.6765127647
 30
0.0
 40
48.17977797259062
100
AcDbArc
 50
282.8580809319
 51
295.5281512988
  0
LINE
  5
1C2
330
1F
100
AcDbEntity
  8
0
  6
Continuous
 62
     7
370
    25
100
AcDbLine
 10
534.0879903128
 20
560.7733929091
 30
0.0
 11
534.1036295848
 21
560.7048779524
 31
0.0
  0
LINE
  5
1C3
330
1F
100
AcDbEntity
  8
0
  6
Continuous
 62
     7
370
    25
100
AcDbLine
 10
531.8260453614
 20
566.4532492034
 30
0.0
 11
531.6826835324
 21
563.8576012339
 31
0.0
  0
LINE
  5
1C4
330
1F
100
AcDbEntity
  8
0
  6
Continuous
 62
     7
370
    25
100
AcDbLine
 10
531.6826835324
 20
563.8576012339
 30
0.0
 11
527.7326025106
 21
564.0757705876
 31
0.0
  0
SPLINE
  5
1C5
330
1F
100
AcDbEntity
  8
0
  6
Continuous
 62
     7
370
    25
100
AcDbSpline
210
0.0
220
0.0
230
1.0
 70
     8
 71
     3
 72
    17
 73
    13
 74
     0
 42
0.00000001
 43
0.00000001
 40
0.0
 40
0.0
 40
0.0
 40
0.0
 40
0.0068264277560522
 40
0.0088450004853823
 40
0.0223994102884418
 40
0.0309598270239211
 40
0.056322844823068
 40
0.1198844474831657
 40
0.1957493698893797
 40
0.555871606010061
 40
0.776984075093909
 40
1.0
 40
1.0
 40
1.0
 40
1.0
 10
515.29213693797
 20
567.3664436655895
 30
0.0
 10
515.295757083139
 20
567.3654054825448
 30
0.0
 10
515.3004477041964
 20
567.3640603090715
 30
0.0
 10
515.343980416828
 20
567.3564703209931
 30
0.0
 10
515.4185123407874
 20
567.344718814262
 30
0.0
 10
515.5853445790711
 20
567.3189999186812
 30
0.0
 10
515.9669208253229
 20
567.2604853460601
 30
0.0
 10
516.6498203516285
 20
567.1512882900997
 30
0.0
 10
518.7548361526606
 20
566.784116874463
 30
0.0
 10
521.5629624210633
 20
566.1509499721072
 30
0.0
 10
524.9625281063209
 20
565.1385040956318
 30
0.0
 10
526.806609906283
 20
564.4310257992644
 30
0.0
 10
527.7326025106432
 20
564.0757705875949
 30
0.0
  0
LINE
  5
1C6
330
1F
100
AcDbEntity
  8
0
  6
Continuous
 62
     7
370
    25
100
AcDbLine
 10
527.7326025106
 20
564.0757705876
 30
0.0
 11
526.6031270932
 21
562.425598798
 31
0.0
  0
SPLINE
  5
1C7
330
1F
100
AcDbEntity
  8
0
  6
Continuous
 62
     7
370
    25
100
AcDbSpline
210
0.0
220
0.0
230
1.0
 70
     8
 71
     3
 72
    15
 73
    11
 74
     0
 42
0.00000001
 43
0.00000001
 40
0.0
 40
0.0
 40
0.0
 40
0.0
 40
0.2255198391625378
 40
0.4515645943751949
 40
0.6337799820516976
 40
0.815879032447355
 40
0.8946729146060263
 40
0.9638048440471929
 40
0.9940832206369724
 40
1.0
 40
1.0
 40
1.0
 40
1.0
 10
526.6031270931512
 20
562.425598797956
 30
0.0
 10
525.7576785522973
 20
562.9706064672976
 30
0.0
 10
524.0648136192895
 20
564.06189035634
 30
0.0
 10
521.58849742561
 20
565.2789937459327
 30
0.0
 10
519.2600865108989
 20
566.2098935543679
 30
0.0
 10
517.5196070210765
 20
566.7656840991814
 30
0.0
 10
516.2619381647067
 20
567.1022369261458
 30
0.0
 10
515.6178052667944
 20
567.2575840324703
 30
0.0
 10
515.2898599767124
 20
567.3331374307378
 30
0.0
 10
515.1973225330883
 20
567.3546581387877
 30
0.0
 10
515.1821955465529
 20
567.3581761034965
 30
0.0
  0
SPLINE
  5
1C8
330
1F
100
AcDbEntity
  8
0
  6
Continuous
 62
     7
370
    25
100
AcDbSpline
210
0.0
220
0.0
230
1.0
 70
     8
 71
     3
 72
    11
 73
     7
 74
     0
 42
0.00000001
 43
0.00000001
 40
0.0
 40
0.0
 40
0.0
 40
0.0
 40
0.0195561212295929
 40
0.1681891996744423
 40
0.5898876540792745
 40
1.0
 40
1.0
 40
1.0
 40
1.0
 10
515.29213693797
 20
567.3664436655895
 30
0.0
 10
515.2901782248218
 20
567.3665017793053
 30
0.0
 10
515.2733326349992
 20
567.3670015767459
 30
0.0
 10
515.22143207124
 20
567.3678479941594
 30
0.0
 10
515.1721474391744
 20
567.3657586956374
 30
0.0
 10
515.1788774242508
 20
567.3606800544538
 30
0.0
 10
515.1821955465529
 20
567.3581761034965
 30
0.0
  0
LINE
  5
1C9
330
1F
100
AcDbEntity
  8
0
  6
Continuous
 62
     7
370
    25
100
AcDbLine
 10
534.6444976004
 20
565.3882752255
 30
0.0
 11
533.0355406072
 21
563.3464137246
 31
0.0
  0
LINE
  5
1CA
330
1F
100
AcDbEntity
  8
0
  6
Continuous
 62
     7
370
    25
100
AcDbLine
 10
543.9965428685
 20
564.2944274083
 30
0.0
 11
543.995974983
 21
564.2950144492
 31
0.0
  0
ARC
  5
1CB
330
1F
100
AcDbEntity
  8
0
  6
Continuous
 62
     7
370
    25
100
AcDbCircle
 10
540.2098307551
 20
572.4510118657
 30
0.0
 40
11.59155496206734
100
AcDbArc
 50
231.762407147
 51
236.6533814372
  0
LWPOLYLINE
  5
1CC
330
1F
100
AcDbEntity
  8
0
  6
Continuous
 62
     7
370
    25
100
AcDbPolyline
 90
        4
 70
   128
 43
0.0
 10
515.1821955466
 20
567.3581761035
 10
515.1799533002
 20
567.3408178485
 10
515.1709808174
 20
567.2713849869
 10
515.1646505361
 20
567.2224248408
  0
ARC
  5
1CD
330
1F
100
AcDbEntity
  8
0
  6
Continuous
 62
     7
370
    25
100
AcDbCircle
 10
508.7672164214
 20
536.3672037437
 30
0.0
 40
31.57783498432764
100
AcDbArc
 50
54.8280705831
 51
55.6099480104
  0
LINE
  5
1CE
330
1F
100
AcDbEntity
  8
0
  6
Continuous
 62
     7
370
    25
100
AcDbLine
 10
526.9570569588
 20
562.1797852403
 30
0.0
 11
526.916575044
 21
562.1223387375
 31
0.0
  0
ARC
  5
1CF
330
1F
100
AcDbEntity
  8
0
  6
Continuous
 62
     7
370
    25
100
AcDbCircle
 10
508.7672164214
 20
536.3672037437
 30
0.0
 40
31.50755777528346
100
AcDbArc
 50
54.8280705831
 51
74.9420027521
  0
LINE
  5
1D0
330
1F
100
AcDbEntity
  8
0
  6
Continuous
 62
     7
370
    25
100
AcDbLine
 10
515.1646505361
 20
567.2224248408
 30
0.0
 11
516.9527748199
 21
566.7928973375
 31
0.0
  0
LINE
  5
1D1
330
1F
100
AcDbEntity
  8
0
  6
Continuous
 62
     7
370
    25
100
AcDbLine
 10
515.0908131268
 20
577.6692805943
 30
0.0
 11
515.1646505361
 21
577.6795988906
 31
0.0
  0
SPLINE
  5
1D2
330
1F
100
AcDbEntity
  8
0
  6
Continuous
 62
     7
370
    25
100
AcDbSpline
210
0.0
220
0.0
230
1.0
 70
     8
 71
     3
 72
    10
 73
     6
 74
     0
 42
0.00000001
 43
0.00000001
 40
0.0
 40
0.0
 40
0.0
 40
0.0
 40
0.0490769085761621
 40
0.5995805843665267
 40
1.0
 40
1.0
 40
1.0
 40
1.0
 10
533.0355406071801
 20
563.3464137245614
 30
0.0
 10
533.016593068811
 20
563.3610364601627
 30
0.0
 10
532.7851079069043
 20
563.539684802352
 30
0.0
 10
532.3392341320872
 20
563.7737367957732
 30
0.0
 10
531.8772275552027
 20
563.8327511687908
 30
0.0
 10
531.6826835324491
 20
563.857601233923
 30
0.0
  0
ARC
  5
1D3
330
1F
100
AcDbEntity
  8
0
  6
Continuous
 62
     7
370
    25
100
AcDbCircle
 10
515.0808421456
 20
566.8684784065
 30
0.0
 40
0.5000763405227193
100
AcDbArc
 50
78.306520338
 51
86.8373700344
  0
SPLINE
  5
1D4
330
1F
100
AcDbEntity
  8
0
  6
Continuous
 62
     7
370
    25
100
AcDbSpline
210
0.0
220
0.0
230
1.0
 70
     8
 71
     3
 72
     9
 73
     5
 74
     0
 42
0.00000001
 43
0.00000001
 40
0.0
 40
0.0
 40
0.0
 40
0.0
 40
0.8458911907784387
 40
0.9999999999999999
 40
0.9999999999999999
 40
0.9999999999999999
 40
0.9999999999999999
 10
515.1646505361424
 20
567.2224248408102
 30
0.0
 10
515.1438099400312
 20
567.2262396478026
 30
0.0
 10
515.1191724968965
 20
567.2307494559599
 30
0.0
 10
515.0945999697202
 20
567.2324769197108
 30
0.0
 10
515.0908131268175
 20
567.2327431370925
 30
0.0
  0
LINE
  5
1D5
330
1F
100
AcDbEntity
  8
0
  6
Continuous
 62
     7
370
    25
100
AcDbLine
 10
497.0953929292
 20
568.2989989904
 30
0.0
 11
497.095850949
 21
568.2989739039
 31
0.0
  0
LINE
  5
1D6
330
1F
100
AcDbEntity
  8
0
  6
Continuous
 62
     7
370
    25
100
AcDbLine
 10
526.9574949302
 20
582.7216169809
 30
0.0
 11
528.7962357795
 21
583.7185832165
 31
0.0
  0
LINE
  5
1D7
330
1F
100
AcDbEntity
  8
0
  6
Continuous
 62
     7
370
    25
100
AcDbLine
 10
529.5362601947
 20
581.8608573167
 30
0.0
 11
528.7962357795
 21
583.7185832165
 31
0.0
  0
LINE
  5
1D8
330
1F
100
AcDbEntity
  8
0
  6
Continuous
 62
     7
370
    25
100
AcDbLine
 10
532.5230305215
 20
582.3399788036
 30
0.0
 11
532.6448642681
 21
584.3359593126
 31
0.0
  0
LINE
  5
1D9
330
1F
100
AcDbEntity
  8
0
  6
Continuous
 62
     7
370
    25
100
AcDbLine
 10
532.6448642681
 20
584.3359593126
 30
0.0
 11
534.0877715078
 21
584.1276722474
 31
0.0
  0
ARC
  5
1DA
330
1F
100
AcDbEntity
  8
0
  6
Continuous
 62
     7
370
    25
100
AcDbCircle
 10
532.1008155499
 20
569.4791173899
 30
0.0
 40
6.92994638714431
100
AcDbArc
 50
234.8280705831
 51
282.8580809319
  0
LINE
  5
1DB
330
1F
100
AcDbEntity
  8
0
  6
Continuous
 62
     7
370
    25
100
AcDbLine
 10
533.6429843079
 20
562.7229444754
 30
0.0
 11
534.0879903128
 21
560.7733929091
 31
0.0
  0
ARC
  5
1DC
330
1F
100
AcDbEntity
  8
0
  6
Continuous
 62
     7
370
    25
100
AcDbCircle
 10
532.1008155499
 20
569.4791173899
 30
0.0
 40
8.929641777457046
100
AcDbArc
 50
234.8280705831
 51
282.8580809319
  0
LINE
  5
1DD
330
1F
100
AcDbEntity
  8
0
  6
Continuous
 62
     7
370
    25
100
AcDbLine
 10
528.10894531
 20
563.8143906607
 30
0.0
 11
526.9570569588
 21
562.1797852403
 31
0.0
  0
ARC
  5
1DE
330
1F
100
AcDbEntity
  8
0
  6
Continuous
 62
     7
370
    25
100
AcDbCircle
 10
532.1008155499
 20
575.4229063415
 30
0.0
 40
6.929946387144418
100
AcDbArc
 50
86.5070253286
 51
111.7198462835
  0
ARC
  5
1DF
330
1F
100
AcDbEntity
  8
0
  6
Continuous
 62
     7
370
    25
100
AcDbCircle
 10
523.3818513483
 20
607.6765127647
 30
0.0
 40
46.10980537323368
100
AcDbArc
 50
282.8580809319
 51
283.1066633214
  0
ARC
  5
1E0
330
1F
100
AcDbEntity
  8
0
  6
Continuous
 62
     7
370
    25
100
AcDbCircle
 10
508.7672164214
 20
536.3672037437
 30
0.0
 40
33.5775303746404
100
AcDbArc
 50
54.8280705831
 51
55.6099480104
  0
ARC
  5
1E1
330
1F
100
AcDbEntity
  8
0
  6
Continuous
 62
     7
370
    25
100
AcDbCircle
 10
532.1008155499
 20
575.4229063415
 30
0.0
 40
8.929641777457107
100
AcDbArc
 50
86.5070253286
 51
111.7198462835
  0
ARC
  5
1E2
330
1F
100
AcDbEntity
  8
0
  6
Continuous
 62
     7
370
    25
100
AcDbCircle
 10
532.1008155499
 20
575.4229063415
 30
0.0
 40
8.999918986501363
100
AcDbArc
 50
77.1419190681
 51
125.1719294169
  0
ARC
  5
1E3
330
1F
100
AcDbEntity
  8
0
  6
Continuous
 62
     7
370
    25
100
AcDbCircle
 10
532.1008155499
 20
569.4791173899
 30
0.0
 40
8.999918986501244
100
AcDbArc
 50
234.8280705831
 51
282.8580809319
  0
SPLINE
  5
1E4
330
1F
100
AcDbEntity
  8
0
  6
Continuous
 62
     7
370
    25
100
AcDbSpline
210
0.0
220
0.0
230
1.0
 70
     8
 71
     3
 72
    11
 73
     7
 74
     0
 42
0.00000001
 43
0.00000001
 40
0.0
 40
0.0
 40
0.0
 40
0.0
 40
0.2200386424382247
 40
0.6637869905998173
 40
0.8890365590789576
 40
1.0
 40
1.0
 40
1.0
 40
1.0
 10
648.4874208997408
 20
578.4713301726373
 30
0.0
 10
648.6916423627422
 20
578.2063115613785
 30
0.0
 10
649.3077139256258
 20
577.4068342310737
 30
0.0
 10
649.831263276643
 20
576.143664960546
 30
0.0
 10
650.0828924764041
 20
574.9770951472217
 30
0.0
 10
650.0621852816818
 20
574.4658153485624
 30
0.0
 10
650.0553510976558
 20
574.29707302109
 30
0.0
  0
SPLINE
  5
1E5
330
1F
100
AcDbEntity
  8
0
  6
Continuous
 62
     7
370
    25
100
AcDbSpline
210
0.0
220
0.0
230
1.0
 70
     8
 71
     3
 72
     9
 73
     5
 74
     0
 42
0.00000001
 43
0.00000001
 40
0.0
 40
0.0
 40
0.0
 40
0.0
 40
0.9209630919903095
 40
0.9999999999999999
 40
0.9999999999999999
 40
0.9999999999999999
 40
0.9999999999999999
 10
650.127463262988
 20
578.1510068970038
 30
0.0
 10
649.6130417251153
 20
578.2078339559223
 30
0.0
 10
649.0544726116004
 20
578.2695379041182
 30
0.0
 10
648.5289560999311
 20
578.4565493650064
 30
0.0
 10
648.4874208997408
 20
578.4713301726373
 30
0.0
  0
SPLINE
  5
1E6
330
1F
100
AcDbEntity
  8
0
  6
Continuous
 62
     7
370
    25
100
AcDbSpline
210
0.0
220
0.0
230
1.0
 70
     8
 71
     3
 72
    10
 73
     6
 74
     0
 42
0.00000001
 43
0.00000001
 40
0.0
 40
0.0
 40
0.0
 40
0.0
 40
0.2596150688488839
 40
0.629760644481066
 40
1.0
 40
1.0
 40
1.0
 40
1.0
 10
697.3026242169253
 20
575.5594493280147
 30
0.0
 10
693.2248039982023
 20
575.8592034651131
 30
0.0
 10
683.333041164837
 20
576.5863313602773
 30
0.0
 10
667.6034684821637
 20
577.4121782301673
 30
0.0
 10
655.9532902208992
 20
577.9047098794331
 30
0.0
 10
650.127463262988
 20
578.1510068970038
 30
0.0
  0
SPLINE
  5
1E7
330
1F
100
AcDbEntity
  8
0
  6
Continuous
 62
     7
370
    25
100
AcDbSpline
210
0.0
220
0.0
230
1.0
 70
     8
 71
     3
 72
    11
 73
     7
 74
     0
 42
0.00000001
 43
0.00000001
 40
0.0
 40
0.0
 40
0.0
 40
0.0
 40
0.061464119541392
 40
0.4999988937835378
 40
0.9375097801832794
 40
1.0
 40
1.0
 40
1.0
 40
1.0
 10
697.3026242169251
 20
569.8334169810128
 30
0.0
 10
697.3142934131274
 20
569.9498739534648
 30
0.0
 10
697.4092200993969
 20
570.8972292207961
 30
0.0
 10
697.492922926663
 20
572.6944734192443
 30
0.0
 10
697.409353003143
 20
574.4936714434851
 30
0.0
 10
697.3144812980977
 20
575.4410462679183
 30
0.0
 10
697.3026242169253
 20
575.5594493280147
 30
0.0
  0
SPLINE
  5
1E8
330
1F
100
AcDbEntity
  8
0
  6
Continuous
 62
     7
370
    25
100
AcDbSpline
210
0.0
220
0.0
230
1.0
 70
     8
 71
     3
 72
    11
 73
     7
 74
     0
 42
0.00000001
 43
0.00000001
 40
0.0
 40
0.0
 40
0.0
 40
0.0
 40
0.259458927729189
 40
0.6296002946237427
 40
0.8147836738016297
 40
1.0
 40
1.0
 40
1.0
 40
1.0
 10
650.127463262988
 20
567.2418594120255
 30
0.0
 10
654.210463912333
 20
567.4073579984464
 30
0.0
 10
664.1182301791375
 20
567.808955120898
 30
0.0
 10
676.9333671380984
 20
568.4872079369214
 30
0.0
 10
688.5776394043581
 20
569.1646288291336
 30
0.0
 10
694.3941234874908
 20
569.610474377746
 30
0.0
 10
697.3026242169251
 20
569.8334169810128
 30
0.0
  0
SPLINE
  5
1E9
330
1F
100
AcDbEntity
  8
0
  6
Continuous
 62
     7
370
    25
100
AcDbSpline
210
0.0
220
0.0
230
1.0
 70
     8
 71
     3
 72
     9
 73
     5
 74
     0
 42
0.00000001
 43
0.00000001
 40
0.0
 40
0.0
 40
0.0
 40
0.0
 40
0.0790369080192211
 40
1.0
 40
1.0
 40
1.0
 40
1.0
 10
648.4874208997416
 20
566.9215361363922
 30
0.0
 10
648.5289560999369
 20
566.936316944025
 30
0.0
 10
649.0544726116061
 20
567.1233284049129
 30
0.0
 10
649.6130417251206
 20
567.1850323531081
 30
0.0
 10
650.127463262988
 20
567.2418594120255
 30
0.0
  0
SPLINE
  5
1EA
330
1F
100
AcDbEntity
  8
0
  6
Continuous
 62
     7
370
    25
100
AcDbSpline
210
0.0
220
0.0
230
1.0
 70
     8
 71
     3
 72
    11
 73
     7
 74
     0
 42
0.00000001
 43
0.00000001
 40
0.0
 40
0.0
 40
0.0
 40
0.0
 40
0.0728838064943292
 40
0.4140719411596023
 40
0.9209668754550557
 40
1.0
 40
1.0
 40
1.0
 40
1.0
 10
650.055351097652
 20
571.0957932879542
 30
0.0
 10
650.0630662467896
 20
570.9853468537151
 30
0.0
 10
650.1068980241542
 20
570.357871813384
 30
0.0
 10
649.7624063127162
 20
568.9748797829191
 30
0.0
 10
649.1227169632298
 20
567.7049482651415
 30
0.0
 10
648.562928213797
 20
567.0146475989685
 30
0.0
 10
648.4874208997416
 20
566.9215361363922
 30
0.0
  0
SPLINE
  5
1EB
330
1F
100
AcDbEntity
  8
0
  6
Continuous
 62
     7
370
    25
100
AcDbSpline
210
0.0
220
0.0
230
1.0
 70
     8
 71
     3
 72
    10
 73
     6
 74
     0
 42
0.00000001
 43
0.00000001
 40
0.0
 40
0.0
 40
0.0
 40
0.0
 40
0.3880207377811387
 40
0.9790637766506859
 40
1.0
 40
1.0
 40
1.0
 40
1.0
 10
650.0553510976558
 20
574.29707302109
 30
0.0
 10
649.9820365668963
 20
573.8862331592343
 30
0.0
 10
649.797047481573
 20
572.849591589386
 30
0.0
 10
649.8927544074043
 20
571.7558222678148
 30
0.0
 10
650.0499725586519
 20
571.1176263990952
 30
0.0
 10
650.055351097652
 20
571.0957932879542
 30
0.0
  0
ARC
  5
1EC
330
1F
100
AcDbEntity
  8
0
  6
Continuous
 62
     7
370
    25
100
AcDbCircle
 10
641.8098307551
 20
572.6964331545
 30
0.0
 40
8.399443654264672
100
AcDbArc
 50
10.985757993
 51
349.0142420071
  0
SPLINE
  5
1ED
330
1F
100
AcDbEntity
  8
0
  6
Continuous
 62
     7
370
    25
100
AcDbSpline
210
0.0
220
0.0
230
1.0
 70
     8
 71
     3
 72
     9
 73
     5
 74
     0
 42
0.00000001
 43
0.00000001
 40
0.0
 40
0.0
 40
0.0
 40
0.0
 40
0.6817923421274255
 40
1.0
 40
1.0
 40
1.0
 40
1.0
 10
648.4874208997416
 20
566.9215361363922
 30
0.0
 10
648.3451573390985
 20
566.7316257812871
 30
0.0
 10
648.1364962089381
 20
566.4530800374135
 30
0.0
 10
647.9070703750576
 20
566.2201756644706
 30
0.0
 10
647.8340653178032
 20
566.1460637094481
 30
0.0
  0
ARC
  5
1EE
330
1F
100
AcDbEntity
  8
0
  6
Continuous
 62
     7
370
    25
100
AcDbCircle
 10
641.8098307551
 20
572.6964331545
 30
0.0
 40
8.899367501836373
100
AcDbArc
 50
47.3959191961
 51
312.6040808039
  0
LINE
  5
1EF
330
1F
100
AcDbEntity
  8
0
  6
Continuous
 62
     7
370
    25
100
AcDbLine
 10
647.8340653178
 20
579.2468025996
 30
0.0
 11
648.4874208997
 21
578.4713301726
 31
0.0
  0
SPLINE
  5
1F0
330
1F
100
AcDbEntity
  8
0
  6
Continuous
 62
     7
370
    25
100
AcDbSpline
210
0.0
220
0.0
230
1.0
 70
     8
 71
     3
 72
    10
 73
     6
 74
     0
 42
0.00000001
 43
0.00000001
 40
0.0
 40
0.0
 40
0.0
 40
0.0
 40
0.3702896688583041
 40
0.7405318123903295
 40
1.0
 40
1.0
 40
1.0
 40
1.0
 10
697.3141436801036
 20
569.3905574001795
 30
0.0
 10
691.4940798338852
 20
569.0703663856532
 30
0.0
 10
679.8546991253816
 20
568.4300254519477
 30
0.0
 10
664.1358307186067
 20
567.5607911200844
 30
0.0
 10
654.238656902597
 20
567.0120501184753
 30
0.0
 10
650.1605885821328
 20
566.7859448346434
 30
0.0
  0
ARC
  5
1F1
330
1F
100
AcDbEntity
  8
0
  6
Continuous
 62
     7
370
    25
100
AcDbCircle
 10
657.3756777895
 20
567.5393312013
 30
0.0
 40
7.254316183361849
100
AcDbArc
 50
182.3501399449
 51
185.9611177313
  0
ARC
  5
1F2
330
1F
100
AcDbEntity
  8
0
  6
Continuous
 62
     7
370
    25
100
AcDbCircle
 10
693.0536211388
 20
569.5013142242
 30
0.0
 40
4.261961918959103
100
AcDbArc
 50
358.5108705387
 51
4.4691613064
  0
SPLINE
  5
1F3
330
1F
100
AcDbEntity
  8
0
  6
Continuous
 62
     7
370
    25
100
AcDbSpline
210
0.0
220
0.0
230
1.0
 70
     8
 71
     3
 72
    10
 73
     6
 74
     0
 42
0.00000001
 43
0.00000001
 40
0.0
 40
0.0
 40
0.0
 40
0.0
 40
0.3702717503651154
 40
0.740512215137175
 40
1.0
 40
1.0
 40
1.0
 40
1.0
 10
650.1605885821328
 20
578.6069214743859
 30
0.0
 10
655.980260643802
 20
578.2843929887181
 30
0.0
 10
667.6191130420989
 20
577.6393632689749
 30
0.0
 10
683.3382526260535
 20
576.7705487814959
 30
0.0
 10
693.2357500497523
 20
576.2264938707291
 30
0.0
 10
697.3141436801002
 20
576.00230890885
 30
0.0
  0
ARC
  5
1F4
330
1F
100
AcDbEntity
  8
0
  6
Continuous
 62
     7
370
    25
100
AcDbCircle
 10
693.053621136
 20
575.8915520849
 30
0.0
 40
4.261961921812059
100
AcDbArc
 50
355.530838696
 51
1.4891294598
  0
ARC
  5
1F5
330
1F
100
AcDbEntity
  8
0
  6
Continuous
 62
     7
370
    25
100
AcDbCircle
 10
657.3756777896
 20
577.8535351077
 30
0.0
 40
7.254316183410489
100
AcDbArc
 50
174.0388822687
 51
177.6498600551
  0
SPLINE
  5
1F6
330
1F
100
AcDbEntity
  8
0
  6
Continuous
 62
     7
370
    25
100
AcDbSpline
210
0.0
220
0.0
230
1.0
 70
     8
 71
     3
 72
    12
 73
     8
 74
     0
 42
0.00000001
 43
0.00000001
 40
0.0
 40
0.0
 40
0.0
 40
0.0
 40
0.122429049415135
 40
0.3423522449770488
 40
0.5614228816909436
 40
0.7807229538533572
 40
1.0
 40
1.0
 40
1.0
 40
1.0
 10
699.2383516497728
 20
575.4487749583584
 30
0.0
 10
699.2293475739087
 20
575.4511336427993
 30
0.0
 10
699.2041691901777
 20
575.4577293071242
 30
0.0
 10
698.9881815065331
 20
575.4747372748634
 30
0.0
 10
698.5522833768039
 20
575.5002482490178
 30
0.0
 10
697.9683577633738
 20
575.5298004315771
 30
0.0
 10
697.5245276318057
 20
575.5495667084562
 30
0.0
 10
697.3026242169253
 20
575.5594493280147
 30
0.0
  0
SPLINE
  5
1F7
330
1F
100
AcDbEntity
  8
0
  6
Continuous
 62
     7
370
    25
100
AcDbSpline
210
0.0
220
0.0
230
1.0
 70
     8
 71
     3
 72
    11
 73
     7
 74
     0
 42
0.00000001
 43
0.00000001
 40
0.0
 40
0.0
 40
0.0
 40
0.0
 40
0.0800485240044433
 40
0.5000005853538798
 40
0.9209248322279645
 40
1.0
 40
1.0
 40
1.0
 40
1.0
 10
699.2383516497728
 20
575.4487749583584
 30
0.0
 10
699.2380654053587
 20
575.3025305332578
 30
0.0
 10
699.236277460154
 20
574.3890558744247
 30
0.0
 10
699.2350417633241
 20
572.6946462866662
 30
0.0
 10
699.236279461419
 20
571.0020194348116
 30
0.0
 10
699.238068683387
 20
570.0885560591677
 30
0.0
 10
699.2383516497729
 20
569.9440913506763
 30
0.0
  0
SPLINE
  5
1F8
330
1F
100
AcDbEntity
  8
0
  6
Continuous
 62
     7
370
    25
100
AcDbSpline
210
0.0
220
0.0
230
1.0
 70
     8
 71
     3
 72
    12
 73
     8
 74
     0
 42
0.00000001
 43
0.00000001
 40
0.0
 40
0.0
 40
0.0
 40
0.0
 40
0.1130367476169276
 40
0.3328594693547989
 40
0.5544127937945017
 40
0.7774207483513241
 40
1.0
 40
1.0
 40
1.0
 40
1.0
 10
697.3026242169251
 20
569.8334169810128
 30
0.0
 10
697.416695056912
 20
569.8384322267142
 30
0.0
 10
697.7525996195199
 20
569.85320062777
 30
0.0
 10
698.2866674759146
 20
569.8787928318793
 30
0.0
 10
698.8031931138019
 20
569.9066680947503
 30
0.0
 10
699.1600878309563
 20
569.9301099683408
 30
0.0
 10
699.2122804484748
 20
569.9394338801005
 30
0.0
 10
699.2383516497729
 20
569.9440913506763
 30
0.0
  0
SPLINE
  5
1F9
330
1F
100
AcDbEntity
  8
0
  6
Continuous
 62
     7
370
    25
100
AcDbSpline
210
0.0
220
0.0
230
1.0
 70
     8
 71
     3
 72
     9
 73
     5
 74
     0
 42
0.00000001
 43
0.00000001
 40
0.0
 40
0.0
 40
0.0
 40
0.0
 40
0.500010612381545
 40
1.0
 40
1.0
 40
1.0
 40
1.0
 10
647.3344574689602
 20
579.6786342888277
 30
0.0
 10
647.7641788357811
 20
579.3907937507344
 30
0.0
 10
648.6236033283417
 20
578.8151248929828
 30
0.0
 10
649.6482674136199
 20
578.676321631896
 30
0.0
 10
650.1605885821328
 20
578.6069214743859
 30
0.0
  0
SPLINE
  5
1FA
330
1F
100
AcDbEntity
  8
0
  6
Continuous
 62
     7
370
    25
100
AcDbSpline
210
0.0
220
0.0
230
1.0
 70
     8
 71
     3
 72
     9
 73
     5
 74
     0
 42
0.00000001
 43
0.00000001
 40
0.0
 40
0.0
 40
0.0
 40
0.0
 40
0.9838702326459388
 40
1.0
 40
1.0
 40
1.0
 40
1.0
 10
647.8340653178032
 20
579.2468025995813
 30
0.0
 10
647.6727245028687
 20
579.3916350126002
 30
0.0
 10
647.5087386340205
 20
579.538841837457
 30
0.0
 10
647.3372239607381
 20
579.6764152615036
 30
0.0
 10
647.3344574689602
 20
579.6786342888277
 30
0.0
  0
SPLINE
  5
1FB
330
1F
100
AcDbEntity
  8
0
  6
Continuous
 62
     7
370
    25
100
AcDbSpline
210
0.0
220
0.0
230
1.0
 70
     8
 71
     3
 72
     9
 73
     5
 74
     0
 42
0.00000001
 43
0.00000001
 40
0.0
 40
0.0
 40
0.0
 40
0.0
 40
0.5055561057107295
 40
1.0
 40
1.0
 40
1.0
 40
1.0
 10
650.1605885821328
 20
566.7859448346434
 30
0.0
 10
649.6425290647998
 20
566.7152888003735
 30
0.0
 10
648.6177970687245
 20
566.575529763796
 30
0.0
 10
647.7590564999629
 20
565.9991964890002
 30
0.0
 10
647.3344574689602
 20
565.7142320202017
 30
0.0
  0
SPLINE
  5
1FC
330
1F
100
AcDbEntity
  8
0
  6
Continuous
 62
     7
370
    25
100
AcDbSpline
210
0.0
220
0.0
230
1.0
 70
     8
 71
     3
 72
     9
 73
     5
 74
     0
 42
0.00000001
 43
0.00000001
 40
0.0
 40
0.0
 40
0.0
 40
0.0
 40
0.016129767353325
 40
1.0
 40
1.0
 40
1.0
 40
1.0
 10
647.3344574689602
 20
565.7142320202017
 30
0.0
 10
647.337223960738
 20
565.7164510475257
 30
0.0
 10
647.5087386340248
 20
565.8540244715751
 30
0.0
 10
647.6727245028708
 20
566.0012312964304
 30
0.0
 10
647.8340653178032
 20
566.1460637094481
 30
0.0
  0
SPLINE
  5
1FD
330
1F
100
AcDbEntity
  8
0
  6
Continuous
 62
     7
370
    25
100
AcDbSpline
210
0.0
220
0.0
230
1.0
 70
     8
 71
     3
 72
    12
 73
     8
 74
     0
 42
0.00000001
 43
0.00000001
 40
0.0
 40
0.0
 40
0.0
 40
0.0
 40
0.2230315344150424
 40
0.446133755834037
 40
0.6675099896776974
 40
0.8870667292264951
 40
1.0
 40
1.0
 40
1.0
 40
1.0
 10
698.7659973846884
 20
569.4449282796279
 30
0.0
 10
698.7464635985624
 20
569.4468185269227
 30
0.0
 10
698.7073898353259
 20
569.450599620602
 30
0.0
 10
698.4398006532697
 20
569.4436567843314
 30
0.0
 10
698.0522715694447
 20
569.4280679618415
 30
0.0
 10
697.6515494569815
 20
569.4087306817773
 30
0.0
 10
697.3996900347237
 20
569.3951650806009
 30
0.0
 10
697.3141436801036
 20
569.3905574001795
 30
0.0
  0
ARC
  5
1FE
330
1F
100
AcDbEntity
  8
0
  6
Continuous
 62
     7
370
    25
100
AcDbCircle
 10
698.7382517622
 20
569.944257936
 30
0.0
 40
0.5000999153471408
100
AcDbArc
 50
273.1804119248
 51
359.9809145383
  0
SPLINE
  5
1FF
330
1F
100
AcDbEntity
  8
0
  6
Continuous
 62
     7
370
    25
100
AcDbSpline
210
0.0
220
0.0
230
1.0
 70
     8
 71
     3
 72
    12
 73
     8
 74
     0
 42
0.00000001
 43
0.00000001
 40
0.0
 40
0.0
 40
0.0
 40
0.0
 40
0.2190444340109335
 40
0.4380981679380244
 40
0.6571027493691858
 40
0.8772791087290026
 40
1.0
 40
1.0
 40
1.0
 40
1.0
 10
697.3141436801002
 20
576.00230890885
 30
0.0
 10
697.480561420871
 20
575.9934800959003
 30
0.0
 10
697.8134039679701
 20
575.9758220951579
 30
0.0
 10
698.2515624106132
 20
575.9563036057489
 30
0.0
 10
698.5785282373729
 20
575.9449978221166
 30
0.0
 10
698.740372114387
 20
575.9431739540399
 30
0.0
 10
698.7592434467991
 20
575.9466823833648
 30
0.0
 10
698.7659973846883
 20
575.9479380294014
 30
0.0
  0
ARC
  5
200
330
1F
100
AcDbEntity
  8
0
  6
Continuous
 62
     7
370
    25
100
AcDbCircle
 10
698.7382517622
 20
575.448608373
 30
0.0
 40
0.5000999153470742
100
AcDbArc
 50
0.0190854623
 51
86.8195880753
  0
LINE
  5
201
330
1F
100
AcDbEntity
  8
0
  6
Continuous
 62
     7
370
    25
100
AcDbLine
 10
650.1605885821
 20
566.7859448346
 30
0.0
 11
650.1875747638
 21
566.7146545593
 31
0.0
  0
LINE
  5
202
330
1F
100
AcDbEntity
  8
0
  6
Continuous
 62
     7
370
    25
100
AcDbLine
 10
698.7706877454
 20
569.4404898266
 30
0.0
 11
698.7659973847
 21
569.4449282796
 31
0.0
  0
ELLIPSE
  5
203
330
1F
100
AcDbEntity
  8
0
  6
Continuous
 62
     7
370
    25
100
AcDbEllipse
 10
697.2709162026
 20
569.3571973766
 30
0.0
 11
1.499999304622861
 21
0.0828726334386829
 31
0.0
210
0.0
220
0.0
230
1.0
 40
0.0174284859
 41
5.396717970286467
 42
6.29967570320429
  0
LINE
  5
204
330
1F
100
AcDbEntity
  8
0
  6
Continuous
 62
     7
370
    25
100
AcDbLine
 10
694.7553015336
 20
569.1484377885
 30
0.0
 11
698.220264743
 21
569.3893290675
 31
0.0
  0
LINE
  5
205
330
1F
100
AcDbEntity
  8
0
  6
Continuous
 62
     7
370
    25
100
AcDbLine
 10
694.7553015336
 20
569.1485361798
 30
0.0
 11
694.7553015336
 21
569.1484377885
 31
0.0
  0
ELLIPSE
  5
206
330
1F
100
AcDbEntity
  8
0
  6
Continuous
 62
     7
370
    25
100
AcDbEllipse
 10
685.3058151127
 20
568.8188901283
 30
0.0
 11
14.4999932780205
 21
0.8011021232407529
 31
0.0
210
0.0
220
0.0
230
1.0
 40
0.0174284859
 41
4.685109492442221
 42
5.421234828998204
  0
ELLIPSE
  5
207
330
1F
100
AcDbEntity
  8
0
  6
Continuous
 62
     7
370
    25
100
AcDbEllipse
 10
683.9848051971
 20
567.868606579
 30
0.0
 11
35.70262504606012
 21
1.972514619921867
 31
0.0
210
0.0
220
0.0
230
1.0
 40
0.0174284859
 41
1.543516838852421
 42
2.025717338718041
  0
ELLIPSE
  5
208
330
1F
100
AcDbEntity
  8
0
  6
Continuous
 62
     7
370
    25
100
AcDbEllipse
 10
664.9645777251
 20
567.4962105193
 30
0.0
 11
7.499996523114078
 21
0.4143631671934145
 31
0.0
210
0.0
220
0.0
230
1.0
 40
0.0174284859
 41
4.976419334597816
 42
5.167309992308083
  0
LINE
  5
209
330
1F
100
AcDbEntity
  8
0
  6
Continuous
 62
     7
370
    25
100
AcDbLine
 10
666.9092301261
 20
567.6285549705
 30
0.0
 11
666.9288483835
 21
567.4781644259
 31
0.0
  0
SPLINE
  5
20A
330
1F
100
AcDbEntity
  8
0
  6
Continuous
 62
     7
370
    25
100
AcDbSpline
210
0.0
220
0.0
230
1.0
 70
     8
 71
     3
 72
    10
 73
     6
 74
     0
 42
0.00000001
 43
0.00000001
 40
0.0
 40
0.0
 40
0.0
 40
0.0
 40
0.0186368637457253
 40
0.3939469944633057
 40
1.0
 40
1.0
 40
1.0
 40
1.0
 10
666.7254588404026
 20
567.6280686032395
 30
0.0
 10
666.7279150476513
 20
567.6281563537189
 30
0.0
 10
666.7798344841283
 20
567.6300112279118
 30
0.0
 10
666.8838333326064
 20
567.63269120929
 30
0.0
 10
666.8995339899554
 20
567.6301341278923
 30
0.0
 10
666.909230126099
 20
567.6285549704845
 30
0.0
  0
LINE
  5
20B
330
1F
100
AcDbEntity
  8
0
  6
Continuous
 62
     7
370
    25
100
AcDbLine
 10
650.1875747638
 20
566.7146545593
 30
0.0
 11
666.7254588404
 21
567.6280686032
 31
0.0
  0
LINE
  5
20C
330
1F
100
AcDbEntity
  8
0
  6
Continuous
 62
     7
370
    25
100
AcDbLine
 10
666.7275245723
 20
577.7810013546
 30
0.0
 11
650.1936161489
 21
578.6941958168
 31
0.0
  0
SPLINE
  5
20D
330
1F
100
AcDbEntity
  8
0
  6
Continuous
 62
     7
370
    25
100
AcDbSpline
210
0.0
220
0.0
230
1.0
 70
     8
 71
     3
 72
    11
 73
     7
 74
     0
 42
0.00000001
 43
0.00000001
 40
0.0
 40
0.0
 40
0.0
 40
0.0
 40
0.4177469294495335
 40
0.8392770662410767
 40
0.9817832068819767
 40
1.0
 40
1.0
 40
1.0
 40
1.0
 10
666.9112300129709
 20
577.7796519093314
 30
0.0
 10
666.906592984939
 20
577.7785687181477
 30
0.0
 10
666.8972769349376
 20
577.7763925261646
 30
0.0
 10
666.8217804691876
 20
577.777594703056
 30
0.0
 10
666.7515202686155
 20
577.7800652303961
 30
0.0
 10
666.7299674319579
 20
577.780906053353
 30
0.0
 10
666.7275245723279
 20
577.7810013546115
 30
0.0
  0
LINE
  5
20E
330
1F
100
AcDbEntity
  8
0
  6
Continuous
 62
     7
370
    25
100
AcDbLine
 10
666.9288483835
 20
577.9147018831
 30
0.0
 11
666.911230013
 21
577.7796519093
 31
0.0
  0
ELLIPSE
  5
20F
330
1F
100
AcDbEntity
  8
0
  6
Continuous
 62
     7
370
    25
100
AcDbEllipse
 10
664.9645777251
 20
577.8966557897
 30
0.0
 11
7.499996523114078
 21
-0.4143631671934145
 31
0.0
210
0.0
220
0.0
230
1.0
 40
0.0174284859
 41
1.115875314871656
 42
1.306765972582053
  0
ELLIPSE
  5
210
330
1F
100
AcDbEntity
  8
0
  6
Continuous
 62
     7
370
    25
100
AcDbEllipse
 10
683.9848051971
 20
577.52425973
 30
0.0
 11
35.70262504606001
 21
-1.972514619921981
 31
0.0
210
0.0
220
0.0
230
1.0
 40
0.0174284859
 41
4.257467968461817
 42
4.739668468327162
  0
ELLIPSE
  5
211
330
1F
100
AcDbEntity
  8
0
  6
Continuous
 62
     7
370
    25
100
AcDbEllipse
 10
685.3058151127
 20
576.5739761807
 30
0.0
 11
14.4999932780205
 21
-0.8011021232408666
 31
0.0
210
0.0
220
0.0
230
1.0
 40
0.0174284859
 41
0.8619504781819081
 42
1.598075814737379
  0
LINE
  5
212
330
1F
100
AcDbEntity
  8
0
  6
Continuous
 62
     7
370
    25
100
AcDbLine
 10
694.7553015336
 20
576.2444285205
 30
0.0
 11
694.7553015336
 21
576.2443301293
 31
0.0
  0
LINE
  5
213
330
1F
100
AcDbEntity
  8
0
  6
Continuous
 62
     7
370
    25
100
AcDbLine
 10
698.220264743
 20
576.0035372415
 30
0.0
 11
694.7553015336
 21
576.2444285205
 31
0.0
  0
ELLIPSE
  5
214
330
1F
100
AcDbEntity
  8
0
  6
Continuous
 62
     7
370
    25
100
AcDbEllipse
 10
697.2709162026
 20
576.0356689325
 30
0.0
 11
1.499999304622861
 21
-0.0828726334386829
 31
0.0
210
0.0
220
0.0
230
1.0
 40
0.0174284859
 41
0.4820682378417743
 42
0.8864673368905804
  0
LINE
  5
215
330
1F
100
AcDbEntity
  8
0
  6
Continuous
 62
     7
370
    25
100
AcDbLine
 10
698.7659973847
 20
575.9479380294
 30
0.0
 11
698.7706877454
 21
575.9523764825
 31
0.0
  0
LINE
  5
216
330
1F
100
AcDbEntity
  8
0
  6
Continuous
 62
     7
370
    25
100
AcDbLine
 10
650.1936161489
 20
578.6941958168
 30
0.0
 11
650.1605885821
 21
578.6069214744
 31
0.0
  0
SPLINE
  5
217
330
1F
100
AcDbEntity
  8
0
  6
Continuous
 62
     7
370
    25
100
AcDbSpline
210
0.0
220
0.0
230
1.0
 70
     8
 71
     3
 72
     9
 73
     5
 74
     0
 42
0.00000001
 43
0.00000001
 40
0.0
 40
0.0
 40
0.0
 40
0.0
 40
0.5001021276704715
 40
0.9999999999999999
 40
0.9999999999999999
 40
0.9999999999999999
 40
0.9999999999999999
 10
647.3676763350156
 20
565.6485405732417
 30
0.0
 10
647.796624110723
 20
565.9350662073301
 30
0.0
 10
648.6543444681735
 20
566.5080004506278
 30
0.0
 10
649.6765675967887
 20
566.645779237082
 30
0.0
 10
650.1875747638294
 20
566.7146545592826
 30
0.0
  0
LINE
  5
218
330
1F
100
AcDbEntity
  8
0
  6
Continuous
 62
     7
370
    25
100
AcDbLine
 10
647.367676335
 20
565.6485405732
 30
0.0
 11
647.334457469
 21
565.7142320202
 31
0.0
  0
SPLINE
  5
219
330
1F
100
AcDbEntity
  8
0
  6
Continuous
 62
     7
370
    25
100
AcDbSpline
210
0.0
220
0.0
230
1.0
 70
     8
 71
     3
 72
     9
 73
     5
 74
     0
 42
0.00000001
 43
0.00000001
 40
0.0
 40
0.0
 40
0.0
 40
0.0
 40
0.4007227371565293
 40
1.0
 40
1.0
 40
1.0
 40
1.0
 10
650.193616148881
 20
578.694195816826
 30
0.0
 10
649.7849300254718
 20
578.7426030788916
 30
0.0
 10
648.7650574664319
 20
578.8634029676355
 30
0.0
 10
647.895981422606
 20
579.4235102409891
 30
0.0
 10
647.3751639098592
 20
579.7591697946632
 30
0.0
  0
LINE
  5
21A
330
1F
100
AcDbEntity
  8
0
  6
Continuous
 62
     7
370
    25
100
AcDbLine
 10
647.334457469
 20
579.6786342888
 30
0.0
 11
647.3751639099
 21
579.7591697947
 31
0.0
  0
ARC
  5
21B
330
1F
100
AcDbEntity
  8
0
  6
Continuous
 62
     7
370
    25
100
AcDbCircle
 10
641.8098307551
 20
572.6964331545
 30
0.0
 40
8.975658044222202
100
AcDbArc
 50
245.1648853947
 51
308.2586979829
  0
LWPOLYLINE
  5
21C
330
1F
100
AcDbEntity
  8
0
  6
Continuous
 62
     7
370
    25
100
AcDbPolyline
 90
        3
 70
   128
 43
0.0
 10
637.8745173309
 20
564.4457734312
 10
637.979098895
 20
564.5120258425
 10
638.0399794378
 20
564.5508418088
  0
ARC
  5
21D
330
1F
100
AcDbEntity
  8
0
  6
Continuous
 62
     7
370
    25
100
AcDbCircle
 10
641.8098307551
 20
572.6964331545
 30
0.0
 40
9.14112015109216
100
AcDbArc
 50
115.4997164176
 51
244.500279429
  0
LWPOLYLINE
  5
21E
330
1F
100
AcDbEntity
  8
0
  6
Continuous
 62
     7
370
    25
100
AcDbPolyline
 90
        3
 70
   128
 43
0.0
 10
638.0236865273
 20
580.852430571
 10
637.979098895
 20
580.8808404666
 10
637.8745173306
 20
580.947092878
  0
ARC
  5
21F
330
1F
100
AcDbEntity
  8
0
  6
Continuous
 62
     7
370
    25
100
AcDbCircle
 10
641.8098307551
 20
572.6964331545
 30
0.0
 40
8.991950954660766
100
AcDbArc
 50
51.762407147
 51
114.9014811666
  0
LINE
  5
220
330
1F
100
AcDbEntity
  8
0
  6
Continuous
 62
     7
370
    25
100
AcDbLine
 10
699.2430420104
 20
575.4532134114
 30
0.0
 11
699.2383516498
 21
575.4487749584
 31
0.0
  0
LINE
  5
221
330
1F
100
AcDbEntity
  8
0
  6
Continuous
 62
     7
370
    25
100
AcDbLine
 10
699.2430420104
 20
569.9396528976
 30
0.0
 11
699.2430420104
 21
575.4532134114
 31
0.0
  0
LINE
  5
222
330
1F
100
AcDbEntity
  8
0
  6
Continuous
 62
     7
370
    25
100
AcDbLine
 10
699.2383516498
 20
569.9440913507
 30
0.0
 11
699.2430420104
 21
569.9396528976
 31
0.0
  0
ARC
  5
223
330
1F
100
AcDbEntity
  8
0
  6
Continuous
 62
     7
370
    25
100
AcDbCircle
 10
698.7429421228
 20
575.4530468261
 30
0.0
 40
0.5000999153471408
100
AcDbArc
 50
0.0190854617
 51
86.8195880753
  0
ARC
  5
224
330
1F
100
AcDbEntity
  8
0
  6
Continuous
 62
     7
370
    25
100
AcDbCircle
 10
698.7429421228
 20
569.939819483
 30
0.0
 40
0.5000999153471409
100
AcDbArc
 50
273.1804119247
 51
359.9809145383
  0
LINE
  5
225
330
1F
100
AcDbEntity
  8
0
  6
Continuous
 62
     7
370
    25
100
AcDbLine
 10
698.220264743
 20
576.0035372415
 30
0.0
 11
698.2273724738
 21
576.0031702049
 31
0.0
  0
LINE
  5
226
330
1F
100
AcDbEntity
  8
0
  6
Continuous
 62
     7
370
    25
100
AcDbLine
 10
698.220264743
 20
569.3893290675
 30
0.0
 11
698.2273724738
 21
569.3896961042
 31
0.0
  0
SPLINE
  5
227
330
1F
100
AcDbEntity
  8
0
  6
Continuous
 62
     7
370
    25
100
AcDbSpline
210
0.0
220
0.0
230
1.0
 70
     8
 71
     3
 72
    12
 73
     8
 74
     0
 42
0.00000001
 43
0.00000001
 40
0.0
 40
0.0
 40
0.0
 40
0.0
 40
0.1662426524176549
 40
0.3368059756191304
 40
0.6054181071254592
 40
0.8801435087136196
 40
1.0
 40
1.0
 40
1.0
 40
1.0
 10
647.9318900024595
 20
561.0197727728437
 30
0.0
 10
647.2942084819233
 20
561.1752579483267
 30
0.0
 10
646.0022720051227
 20
561.4902693816819
 30
0.0
 10
643.8180856227733
 20
562.1532344866804
 30
0.0
 10
641.4561112792136
 20
563.0054294034859
 30
0.0
 10
639.490573717321
 20
563.848058082098
 30
0.0
 10
638.3767987325253
 20
564.3859161747931
 30
0.0
 10
638.0384832543679
 20
564.5492936256203
 30
0.0
  0
LINE
  5
228
330
1F
100
AcDbEntity
  8
0
  6
Continuous
 62
     7
370
    25
100
AcDbLine
 10
647.9318900025
 20
561.0197727728
 30
0.0
 11
647.9160319255
 21
560.9502992413
 31
0.0
  0
ARC
  5
229
330
1F
100
AcDbEntity
  8
0
  6
Continuous
 62
     7
370
    25
100
AcDbCircle
 10
658.637810162
 20
607.9219340535
 30
0.0
 40
48.17977797259062
100
AcDbArc
 50
244.4718479123
 51
257.1419190681
  0
LWPOLYLINE
  5
22A
330
1F
100
AcDbEntity
  8
0
  6
Continuous
 62
     7
370
    25
100
AcDbPolyline
 90
        3
 70
   128
 43
0.0
 10
638.0384832544
 20
564.5492936256
 10
637.979095404
 20
564.5117699221
 10
637.8745173312
 20
564.4457718922
  0
SPLINE
  5
22B
330
1F
100
AcDbEntity
  8
0
  6
Continuous
 62
     7
370
    25
100
AcDbSpline
210
0.0
220
0.0
230
1.0
 70
     8
 71
     3
 72
    11
 73
     7
 74
     0
 42
0.00000001
 43
0.00000001
 40
0.0
 40
0.0
 40
0.0
 40
0.0
 40
0.1345990676765955
 40
0.41269788159695
 40
0.6969472592954596
 40
0.9999999999999999
 40
0.9999999999999999
 40
0.9999999999999999
 40
0.9999999999999999
 10
638.0392008313249
 20
564.5500351916943
 30
0.0
 10
638.4685068515734
 20
564.3591513065332
 30
0.0
 10
639.7848137782975
 20
563.7738770071134
 30
0.0
 10
642.1606238291807
 20
563.1514091230897
 30
0.0
 10
645.2143132140619
 20
562.7749064405895
 30
0.0
 10
647.4053431224224
 20
562.7477651122565
 30
0.0
 10
648.5359326399605
 20
562.7337599628115
 30
0.0
  0
ARC
  5
22C
330
1F
100
AcDbEntity
  8
0
  6
Continuous
 62
     7
370
    25
100
AcDbCircle
 10
644.0434016469
 20
563.3535840074
 30
0.0
 40
4.53508727252296
100
AcDbArc
 50
329.0284626407
 51
352.1446266983
  0
LINE
  5
22D
330
1F
100
AcDbEntity
  8
0
  6
Continuous
 62
     7
370
    25
100
AcDbLine
 10
638.0384832544
 20
564.5492936256
 30
0.0
 11
638.0392008313
 21
564.5500351917
 31
0.0
  0
LINE
  5
22E
330
1F
100
AcDbEntity
  8
0
  6
Continuous
 62
     7
370
    25
100
AcDbLine
 10
647.367676335
 20
565.6485405732
 30
0.0
 11
649.5655482552
 21
562.8614236989
 31
0.0
  0
ARC
  5
22F
330
1F
100
AcDbEntity
  8
0
  6
Continuous
 62
     7
370
    25
100
AcDbCircle
 10
641.8098307551
 20
572.6964331545
 30
0.0
 40
12.52511736202734
100
AcDbArc
 50
307.8583068702
 51
308.2586979829
  0
LINE
  5
230
330
1F
100
AcDbEntity
  8
0
  6
Continuous
 62
     7
370
    25
100
AcDbLine
 10
648.53593264
 20
562.7337599628
 30
0.0
 11
649.4966309888
 21
562.8074662166
 31
0.0
  0
LINE
  5
231
330
1F
100
AcDbEntity
  8
0
  6
Continuous
 62
     7
370
    25
100
AcDbLine
 10
638.0399794378
 20
564.5508418088
 30
0.0
 11
638.0392008313
 21
564.5500351917
 31
0.0
  0
ARC
  5
232
330
1F
100
AcDbEntity
  8
0
  6
Continuous
 62
     7
370
    25
100
AcDbCircle
 10
659.7275024688
 20
567.4198337664
 30
0.0
 40
6.834138728214479
100
AcDbArc
 50
211.8771071303
 51
226.9488007428
  0
SPLINE
  5
233
330
1F
100
AcDbEntity
  8
0
  6
Continuous
 62
     7
370
    25
100
AcDbSpline
210
0.0
220
0.0
230
1.0
 70
     8
 71
     3
 72
    17
 73
    13
 74
     0
 42
0.00000001
 43
0.00000001
 40
0.0
 40
0.0
 40
0.0
 40
0.0
 40
0.2859834379244695
 40
0.5215922644122232
 40
0.7592399016809382
 40
0.8521492405060503
 40
0.9266708633836017
 40
0.9605058393195365
 40
0.9835417153308587
 40
0.9930790992390833
 40
0.9972256067114874
 40
1.0
 40
1.0
 40
1.0
 40
1.0
 10
653.9240696777084
 20
563.8107313855295
 30
0.0
 10
655.1528478614558
 20
564.3425995095499
 30
0.0
 10
657.3939608432865
 20
565.3126497375976
 30
0.0
 10
660.7329095301884
 20
566.3548804083822
 30
0.0
 10
663.2355648968952
 20
566.9726989693088
 30
0.0
 10
665.0058711809313
 20
567.326674278527
 30
0.0
 10
665.8709920162687
 20
567.4813753131398
 30
0.0
 10
666.396579445544
 20
567.5698753039716
 30
0.0
 10
666.6302415592014
 20
567.608987066794
 30
0.0
 10
666.7078917186907
 20
567.623306833556
 30
0.0
 10
666.7239733728908
 20
567.6270405858735
 30
0.0
 10
666.7250337608668
 20
567.6277744270685
 30
0.0
 10
666.7254588404026
 20
567.6280686032395
 30
0.0
  0
SPLINE
  5
234
330
1F
100
AcDbEntity
  8
0
  6
Continuous
 62
     7
370
    25
100
AcDbSpline
210
0.0
220
0.0
230
1.0
 70
     8
 71
     3
 72
    10
 73
     6
 74
     0
 42
0.00000001
 43
0.00000001
 40
0.0
 40
0.0
 40
0.0
 40
0.0
 40
0.5975855365574468
 40
0.9790563563182108
 40
1.0
 40
1.0
 40
1.0
 40
1.0
 10
666.8354841600903
 20
567.6189417059
 30
0.0
 10
666.8380032994437
 20
567.6226810036266
 30
0.0
 10
666.8421305402243
 20
567.62880729515
 30
0.0
 10
666.7677594136691
 20
567.6291838540066
 30
0.0
 10
666.7275514615645
 20
567.6281237750062
 30
0.0
 10
666.7254588404026
 20
567.6280686032395
 30
0.0
  0
SPLINE
  5
235
330
1F
100
AcDbEntity
  8
0
  6
Continuous
 62
     7
370
    25
100
AcDbSpline
210
0.0
220
0.0
230
1.0
 70
     8
 71
     3
 72
    14
 73
    10
 74
     0
 42
0.00000001
 43
0.00000001
 40
0.0
 40
0.0
 40
0.0
 40
0.0
 40
0.0129036569231464
 40
0.0519665716781149
 40
0.1318891824261205
 40
0.2280032005552169
 40
0.4679440229400838
 40
0.7079115564493629
 40
0.9999999999999999
 40
0.9999999999999999
 40
0.9999999999999999
 40
0.9999999999999999
 10
666.8354841600903
 20
567.6189417059
 30
0.0
 10
666.8020155836259
 20
567.6110967318389
 30
0.0
 10
666.6672284307933
 20
567.5795028659063
 30
0.0
 10
666.2279549858008
 20
567.4771208186124
 30
0.0
 10
665.4165275675748
 20
567.2747193097955
 30
0.0
 10
663.7630503857542
 20
566.8076686290293
 30
0.0
 10
661.4187603135106
 20
565.970211569639
 30
0.0
 10
658.2736661370134
 20
564.5252713292887
 30
0.0
 10
656.200367462821
 20
563.1699004464939
 30
0.0
 10
655.0621665800737
 20
562.4258280393443
 30
0.0
  0
LINE
  5
236
330
1F
100
AcDbEntity
  8
0
  6
Continuous
 62
     7
370
    25
100
AcDbLine
 10
652.4834013156
 20
563.2865877035
 30
0.0
 11
650.3833187995
 21
563.1705967548
 31
0.0
  0
LINE
  5
237
330
1F
100
AcDbEntity
  8
0
  6
Continuous
 62
     7
370
    25
100
AcDbLine
 10
650.1875747638
 20
566.7146545593
 30
0.0
 11
650.3833187995
 21
563.1705967548
 31
0.0
  0
LINE
  5
238
330
1F
100
AcDbEntity
  8
0
  6
Continuous
 62
     7
370
    25
100
AcDbLine
 10
652.4834013156
 20
563.2865877035
 30
0.0
 11
653.9240696777
 21
563.8107313855
 31
0.0
  0
LWPOLYLINE
  5
239
330
1F
100
AcDbEntity
  8
0
  6
Continuous
 62
     7
370
    25
100
AcDbPolyline
 90
        4
 70
   128
 43
0.0
 10
666.8550109742
 20
567.4678461296
 10
666.8527663385
 20
567.4852042765
 10
666.8437913045
 20
567.5546370227
 10
666.8354841601
 20
567.6189417059
  0
LINE
  5
23A
330
1F
100
AcDbEntity
  8
0
  6
Continuous
 62
     7
370
    25
100
AcDbLine
 10
665.0668866904
 20
567.0383186263
 30
0.0
 11
666.8550109742
 21
567.4678461296
 31
0.0
  0
ARC
  5
23B
330
1F
100
AcDbEntity
  8
0
  6
Continuous
 62
     7
370
    25
100
AcDbCircle
 10
673.2524450889
 20
536.6126250325
 30
0.0
 40
31.50755777528349
100
AcDbArc
 50
105.0579972479
 51
125.1719294169
  0
LINE
  5
23C
330
1F
100
AcDbEntity
  8
0
  6
Continuous
 62
     7
370
    25
100
AcDbLine
 10
655.0621665801
 20
562.4258280393
 30
0.0
 11
655.1030864663
 21
562.3677600263
 31
0.0
  0
SPLINE
  5
23D
330
1F
100
AcDbEntity
  8
0
  6
Continuous
 62
     7
370
    25
100
AcDbSpline
210
0.0
220
0.0
230
1.0
 70
     8
 71
     3
 72
     9
 73
     5
 74
     0
 42
0.00000001
 43
0.00000001
 40
0.0
 40
0.0
 40
0.0
 40
0.0
 40
0.499897873060973
 40
0.9999999999999999
 40
0.9999999999999999
 40
0.9999999999999999
 40
0.9999999999999999
 10
650.3833187995347
 20
563.1705967548387
 30
0.0
 10
650.235123883639
 20
563.1506304168365
 30
0.0
 10
649.9386735007068
 20
563.1106895827618
 30
0.0
 10
649.6899402719303
 20
562.9445236401912
 30
0.0
 10
649.5655482551787
 20
562.8614236988868
 30
0.0
  0
ARC
  5
23E
330
1F
100
AcDbEntity
  8
0
  6
Continuous
 62
     7
370
    25
100
AcDbCircle
 10
666.936819475
 20
567.1292402661
 30
0.0
 40
0.5000763403581063
100
AcDbArc
 50
93.1626296398
 51
101.691363562
  0
ARC
  5
23F
330
1F
100
AcDbEntity
  8
0
  6
Continuous
 62
     7
370
    25
100
AcDbCircle
 10
658.637810162
 20
537.4709322555
 30
0.0
 40
48.10950076354642
100
AcDbArc
 50
102.8580809319
 51
103.1066633214
  0
SPLINE
  5
240
330
1F
100
AcDbEntity
  8
0
  6
Continuous
 62
     7
370
    25
100
AcDbSpline
210
0.0
220
0.0
230
1.0
 70
     8
 71
     3
 72
    13
 73
     9
 74
     0
 42
0.00000001
 43
0.00000001
 40
0.0
 40
0.0
 40
0.0
 40
0.0
 40
0.0460329529079877
 40
0.2492425848193723
 40
0.4775225570272884
 40
0.7051721168687842
 40
0.852680826381466
 40
1.0
 40
1.0
 40
1.0
 40
1.0
 10
638.0224522806776
 20
580.8537049146172
 30
0.0
 10
638.1507869327161
 20
580.9162138830537
 30
0.0
 10
638.8456469922015
 20
581.254664837931
 30
0.0
 10
640.2053102267782
 20
581.8726422619601
 30
0.0
 10
642.2132828435966
 20
582.6831145886732
 30
0.0
 10
644.2277931054997
 20
583.375739389938
 30
0.0
 10
646.0900763867452
 20
583.925973191636
 30
0.0
 10
647.1824459499837
 20
584.1934893027418
 30
0.0
 10
647.7282796059908
 20
584.3271613693022
 30
0.0
  0
LWPOLYLINE
  5
241
330
1F
100
AcDbEntity
  8
0
  6
Continuous
 62
     7
370
    25
100
AcDbPolyline
 90
        3
 70
   128
 43
0.0
 10
638.0224522807
 20
580.8537049146
 10
637.979095404
 20
580.881096387
 10
637.8745173309
 20
580.9470944171
  0
ARC
  5
242
330
1F
100
AcDbEntity
  8
0
  6
Continuous
 62
     7
370
    25
100
AcDbCircle
 10
658.637810162
 20
537.4709322555
 30
0.0
 40
48.17977797259051
100
AcDbArc
 50
102.8580809319
 51
115.5281512988
  0
LINE
  5
243
330
1F
100
AcDbEntity
  8
0
  6
Continuous
 62
     7
370
    25
100
AcDbLine
 10
647.9316711975
 20
584.3740521111
 30
0.0
 11
647.9160319255
 21
584.4425670678
 31
0.0
  0
LINE
  5
244
330
1F
100
AcDbEntity
  8
0
  6
Continuous
 62
     7
370
    25
100
AcDbLine
 10
648.1817396839
 20
582.3795588401
 30
0.0
 11
647.728279606
 21
584.3271613693
 31
0.0
  0
SPLINE
  5
245
330
1F
100
AcDbEntity
  8
0
  6
Continuous
 62
     7
370
    25
100
AcDbSpline
210
0.0
220
0.0
230
1.0
 70
     8
 71
     3
 72
    13
 73
     9
 74
     0
 42
0.00000001
 43
0.00000001
 40
0.0
 40
0.0
 40
0.0
 40
0.0
 40
0.2574896950994369
 40
0.4890886589321034
 40
0.7206004760683483
 40
0.9447506334961274
 40
0.9460032291293298
 40
0.9999999999999999
 40
0.9999999999999999
 40
0.9999999999999999
 40
0.9999999999999999
 10
648.1817396838778
 20
582.3795588400882
 30
0.0
 10
647.26301410789
 20
582.4076218042029
 30
0.0
 10
645.5179413207518
 20
582.4609259858684
 30
0.0
 10
643.0233760748384
 20
582.2963618670302
 30
0.0
 10
640.7077262688372
 20
581.8829878720202
 30
0.0
 10
639.230617667234
 20
581.3834306854566
 30
0.0
 10
638.3593562226927
 20
581.0091878305269
 30
0.0
 10
638.1893098138698
 20
580.9302074120417
 30
0.0
 10
638.0231186418146
 20
580.853017611867
 30
0.0
  0
LINE
  5
246
330
1F
100
AcDbEntity
  8
0
  6
Continuous
 62
     7
370
    25
100
AcDbLine
 10
638.0231186418
 20
580.8530176119
 30
0.0
 11
638.0224522807
 21
580.8537049146
 31
0.0
  0
LINE
  5
247
330
1F
100
AcDbEntity
  8
0
  6
Continuous
 62
     7
370
    25
100
AcDbLine
 10
654.2870589997
 20
581.0716744326
 30
0.0
 11
655.4165344171
 21
582.7218462222
 31
0.0
  0
SPLINE
  5
248
330
1F
100
AcDbEntity
  8
0
  6
Continuous
 62
     7
370
    25
100
AcDbSpline
210
0.0
220
0.0
230
1.0
 70
     8
 71
     3
 72
    15
 73
    11
 74
     0
 42
0.00000001
 43
0.00000001
 40
0.0
 40
0.0
 40
0.0
 40
0.0
 40
0.2255198391625371
 40
0.4515645943751955
 40
0.6337799820516983
 40
0.8158790324473555
 40
0.8946729146060259
 40
0.9638048440471934
 40
0.9940832206369729
 40
1.0
 40
1.0
 40
1.0
 40
1.0
 10
655.4165344171465
 20
582.7218462222448
 30
0.0
 10
656.2619829580005
 20
582.1768385529035
 30
0.0
 10
657.9548478910083
 20
581.0855546638609
 30
0.0
 10
660.4311640846878
 20
579.8684512742682
 30
0.0
 10
662.759574999399
 20
578.937551465833
 30
0.0
 10
664.5000544892214
 20
578.3817609210196
 30
0.0
 10
665.757723345591
 20
578.0452080940552
 30
0.0
 10
666.4018562435033
 20
577.8898609877308
 30
0.0
 10
666.7298015335854
 20
577.8143075894633
 30
0.0
 10
666.8223389772096
 20
577.7927868814132
 30
0.0
 10
666.837465963745
 20
577.7892689167045
 30
0.0
  0
SPLINE
  5
249
330
1F
100
AcDbEntity
  8
0
  6
Continuous
 62
     7
370
    25
100
AcDbSpline
210
0.0
220
0.0
230
1.0
 70
     8
 71
     3
 72
    11
 73
     7
 74
     0
 42
0.00000001
 43
0.00000001
 40
0.0
 40
0.0
 40
0.0
 40
0.0
 40
0.0195561212295859
 40
0.1681891996744558
 40
0.5898876540792811
 40
1.0
 40
1.0
 40
1.0
 40
1.0
 10
666.7275245723279
 20
577.7810013546115
 30
0.0
 10
666.729483285476
 20
577.7809432408958
 30
0.0
 10
666.7463288752986
 20
577.780443443455
 30
0.0
 10
666.7982294390578
 20
577.7795970260415
 30
0.0
 10
666.8475140711234
 20
577.7816863245636
 30
0.0
 10
666.8407840860469
 20
577.7867649657471
 30
0.0
 10
666.837465963745
 20
577.7892689167045
 30
0.0
  0
SPLINE
  5
24A
330
1F
100
AcDbEntity
  8
0
  6
Continuous
 62
     7
370
    25
100
AcDbSpline
210
0.0
220
0.0
230
1.0
 70
     8
 71
     3
 72
    17
 73
    13
 74
     0
 42
0.00000001
 43
0.00000001
 40
0.0
 40
0.0
 40
0.0
 40
0.0
 40
0.0068264277560522
 40
0.0088450004853823
 40
0.0223994102884411
 40
0.0309598270239204
 40
0.0563228448230682
 40
0.1198844474831659
 40
0.1957493698893789
 40
0.5558716060100601
 40
0.7769840750939091
 40
1.0
 40
1.0
 40
1.0
 40
1.0
 10
666.7275245723279
 20
577.7810013546115
 30
0.0
 10
666.7239044271587
 20
577.7820395376561
 30
0.0
 10
666.7192138061015
 20
577.7833847111294
 30
0.0
 10
666.6756810934697
 20
577.7909746992079
 30
0.0
 10
666.6011491695103
 20
577.8027262059388
 30
0.0
 10
666.4343169312267
 20
577.8284451015196
 30
0.0
 10
666.052740684975
 20
577.8869596741408
 30
0.0
 10
665.3698411586694
 20
577.9961567301013
 30
0.0
 10
663.264825357637
 20
578.3633281457379
 30
0.0
 10
660.4566990892346
 20
578.9964950480937
 30
0.0
 10
657.057133403977
 20
580.0089409245692
 30
0.0
 10
655.2130516040148
 20
580.7164192209366
 30
0.0
 10
654.2870589996545
 20
581.0716744326061
 30
0.0
  0
LINE
  5
24B
330
1F
100
AcDbEntity
  8
0
  6
Continuous
 62
     7
370
    25
100
AcDbLine
 10
650.1936161489
 20
578.6941958168
 30
0.0
 11
650.3369779778
 21
581.2898437863
 31
0.0
  0
LINE
  5
24C
330
1F
100
AcDbEntity
  8
0
  6
Continuous
 62
     7
370
    25
100
AcDbLine
 10
650.3369779778
 20
581.2898437863
 30
0.0
 11
654.2870589997
 21
581.0716744326
 31
0.0
  0
LINE
  5
24D
330
1F
100
AcDbEntity
  8
0
  6
Continuous
 62
     7
370
    25
100
AcDbLine
 10
647.3751639099
 20
579.7591697947
 30
0.0
 11
648.9841209031
 21
581.8010312956
 31
0.0
  0
LINE
  5
24E
330
1F
100
AcDbEntity
  8
0
  6
Continuous
 62
     7
370
    25
100
AcDbLine
 10
638.0231186418
 20
580.8530176119
 30
0.0
 11
638.0236865273
 21
580.852430571
 31
0.0
  0
ARC
  5
24F
330
1F
100
AcDbEntity
  8
0
  6
Continuous
 62
     7
370
    25
100
AcDbCircle
 10
641.8098307551
 20
572.6964331545
 30
0.0
 40
11.5915549620674
100
AcDbArc
 50
51.762407147
 51
56.6533814372
  0
LWPOLYLINE
  5
250
330
1F
100
AcDbEntity
  8
0
  6
Continuous
 62
     7
370
    25
100
AcDbPolyline
 90
        4
 70
   128
 43
0.0
 10
666.8374659637
 20
577.7892689167
 10
666.8397082101
 20
577.8066271717
 10
666.8486806929
 20
577.8760600333
 10
666.8550109742
 20
577.9250201794
  0
ARC
  5
251
330
1F
100
AcDbEntity
  8
0
  6
Continuous
 62
     7
370
    25
100
AcDbCircle
 10
673.2524450889
 20
608.7802412765
 30
0.0
 40
31.57783498432761
100
AcDbArc
 50
234.8280705831
 51
235.6099480104
  0
LINE
  5
252
330
1F
100
AcDbEntity
  8
0
  6
Continuous
 62
     7
370
    25
100
AcDbLine
 10
655.0626045515
 20
582.9676597799
 30
0.0
 11
655.1030864663
 21
583.0251062827
 31
0.0
  0
ARC
  5
253
330
1F
100
AcDbEntity
  8
0
  6
Continuous
 62
     7
370
    25
100
AcDbCircle
 10
673.2524450889
 20
608.7802412765
 30
0.0
 40
31.5075577752834
100
AcDbArc
 50
234.8280705831
 51
254.9420027521
  0
LINE
  5
254
330
1F
100
AcDbEntity
  8
0
  6
Continuous
 62
     7
370
    25
100
AcDbLine
 10
666.8550109742
 20
577.9250201794
 30
0.0
 11
665.0668866904
 21
578.3545476827
 31
0.0
  0
LINE
  5
255
330
1F
100
AcDbEntity
  8
0
  6
Continuous
 62
     7
370
    25
100
AcDbLine
 10
666.9288483835
 20
567.4781644259
 30
0.0
 11
666.8550109742
 21
567.4678461296
 31
0.0
  0
SPLINE
  5
256
330
1F
100
AcDbEntity
  8
0
  6
Continuous
 62
     7
370
    25
100
AcDbSpline
210
0.0
220
0.0
230
1.0
 70
     8
 71
     3
 72
    10
 73
     6
 74
     0
 42
0.00000001
 43
0.00000001
 40
0.0
 40
0.0
 40
0.0
 40
0.0
 40
0.0490769085761621
 40
0.5995805843665267
 40
1.0
 40
1.0
 40
1.0
 40
1.0
 10
648.9841209031177
 20
581.8010312956395
 30
0.0
 10
649.0030684414868
 20
581.7864085600381
 30
0.0
 10
649.2345536033936
 20
581.6077602178491
 30
0.0
 10
649.6804273782107
 20
581.3737082244278
 30
0.0
 10
650.142433955095
 20
581.3146938514102
 30
0.0
 10
650.3369779778487
 20
581.2898437862779
 30
0.0
  0
ARC
  5
257
330
1F
100
AcDbEntity
  8
0
  6
Continuous
 62
     7
370
    25
100
AcDbCircle
 10
666.9388193647
 20
578.2789666137
 30
0.0
 40
0.500076340522585
100
AcDbArc
 50
258.306520338
 51
266.8373700344
  0
SPLINE
  5
258
330
1F
100
AcDbEntity
  8
0
  6
Continuous
 62
     7
370
    25
100
AcDbSpline
210
0.0
220
0.0
230
1.0
 70
     8
 71
     3
 72
     9
 73
     5
 74
     0
 42
0.00000001
 43
0.00000001
 40
0.0
 40
0.0
 40
0.0
 40
0.0
 40
0.845891190778427
 40
0.9999999999999999
 40
0.9999999999999999
 40
0.9999999999999999
 40
0.9999999999999999
 10
666.8550109741554
 20
577.9250201793907
 30
0.0
 10
666.8758515702665
 20
577.9212053723984
 30
0.0
 10
666.9004890134014
 20
577.9166955642411
 30
0.0
 10
666.9250615405776
 20
577.91496810049
 30
0.0
 10
666.9288483834803
 20
577.9147018831085
 30
0.0
  0
LINE
  5
259
330
1F
100
AcDbEntity
  8
0
  6
Continuous
 62
     7
370
    25
100
AcDbLine
 10
684.9242685811
 20
576.8484460298
 30
0.0
 11
684.9238105613
 21
576.8484711163
 31
0.0
  0
LINE
  5
25A
330
1F
100
AcDbEntity
  8
0
  6
Continuous
 62
     7
370
    25
100
AcDbLine
 10
655.0621665801
 20
562.4258280393
 30
0.0
 11
653.2234257308
 21
561.4288618037
 31
0.0
  0
LINE
  5
25B
330
1F
100
AcDbEntity
  8
0
  6
Continuous
 62
     7
370
    25
100
AcDbLine
 10
652.4834013156
 20
563.2865877035
 30
0.0
 11
653.2234257308
 21
561.4288618037
 31
0.0
  0
LINE
  5
25C
330
1F
100
AcDbEntity
  8
0
  6
Continuous
 62
     7
370
    25
100
AcDbLine
 10
649.4966309888
 20
562.8074662166
 30
0.0
 11
649.3747972422
 21
560.8114857076
 31
0.0
  0
LINE
  5
25D
330
1F
100
AcDbEntity
  8
0
  6
Continuous
 62
     7
370
    25
100
AcDbLine
 10
649.3747972422
 20
560.8114857076
 30
0.0
 11
647.9318900025
 21
561.0197727728
 31
0.0
  0
ARC
  5
25E
330
1F
100
AcDbEntity
  8
0
  6
Continuous
 62
     7
370
    25
100
AcDbCircle
 10
649.9188459604
 20
569.7245386787
 30
0.0
 40
6.929946387144299
100
AcDbArc
 50
266.5070253286
 51
291.7198462835
  0
ARC
  5
25F
330
1F
100
AcDbEntity
  8
0
  6
Continuous
 62
     7
370
    25
100
AcDbCircle
 10
649.9188459604
 20
569.7245386787
 30
0.0
 40
8.929641777457114
100
AcDbArc
 50
266.5070253286
 51
291.7198462835
  0
ARC
  5
260
330
1F
100
AcDbEntity
  8
0
  6
Continuous
 62
     7
370
    25
100
AcDbCircle
 10
658.637810162
 20
537.4709322555
 30
0.0
 40
46.10980537323358
100
AcDbArc
 50
102.8580809319
 51
103.1066633214
  0
LINE
  5
261
330
1F
100
AcDbEntity
  8
0
  6
Continuous
 62
     7
370
    25
100
AcDbLine
 10
648.3766772024
 20
582.4245005448
 30
0.0
 11
647.9316711975
 21
584.3740521111
 31
0.0
  0
ARC
  5
262
330
1F
100
AcDbEntity
  8
0
  6
Continuous
 62
     7
370
    25
100
AcDbCircle
 10
673.2524450889
 20
608.7802412765
 30
0.0
 40
33.5775303746404
100
AcDbArc
 50
234.8280705831
 51
235.6099480104
  0
ARC
  5
263
330
1F
100
AcDbEntity
  8
0
  6
Continuous
 62
     7
370
    25
100
AcDbCircle
 10
649.9188459604
 20
575.6683276303
 30
0.0
 40
6.92994638714431
100
AcDbArc
 50
54.8280705831
 51
102.8580809319
  0
LINE
  5
264
330
1F
100
AcDbEntity
  8
0
  6
Continuous
 62
     7
370
    25
100
AcDbLine
 10
653.9107162003
 20
581.3330543595
 30
0.0
 11
655.0626045515
 21
582.9676597799
 31
0.0
  0
ARC
  5
265
330
1F
100
AcDbEntity
  8
0
  6
Continuous
 62
     7
370
    25
100
AcDbCircle
 10
649.9188459604
 20
575.6683276303
 30
0.0
 40
8.929641777457157
100
AcDbArc
 50
54.8280705831
 51
102.8580809319
  0
ARC
  5
266
330
1F
100
AcDbEntity
  8
0
  6
Continuous
 62
     7
370
    25
100
AcDbCircle
 10
649.9188459604
 20
569.7245386787
 30
0.0
 40
8.999918986501244
100
AcDbArc
 50
257.1419190681
 51
305.1719294169
  0
ARC
  5
267
330
1F
100
AcDbEntity
  8
0
  6
Continuous
 62
     7
370
    25
100
AcDbCircle
 10
649.9188459604
 20
575.6683276303
 30
0.0
 40
8.999918986501244
100
AcDbArc
 50
54.8280705831
 51
102.8580809319
  0
SPLINE
  5
268
330
1F
100
AcDbEntity
  8
0
  6
Continuous
 62
     7
370
    25
100
AcDbSpline
210
0.0
220
0.0
230
1.0
 70
    24
 71
     3
 72
    10
 73
     6
 74
     0
 42
0.00000001
 43
0.00000001
 40
0.0
 40
0.0
 40
0.0
 40
0.0
 40
0.0880702362772951
 40
0.5356723585275353
 40
1.0
 40
1.0
 40
1.0
 40
1.0
 10
540.9338445497802
 20
581.9339761454391
 30
0.0
 10
541.0647316954133
 20
581.9177506694406
 30
0.0
 10
541.8608306837423
 20
581.819061948214
 30
0.0
 10
543.3712040139607
 20
581.6318279299333
 30
0.0
 10
544.6679886689784
 20
581.471071514982
 30
0.0
 10
545.3282730289317
 20
581.3892191070717
 30
0.0
  0
ARC
  5
269
330
1F
100
AcDbEntity
  8
0
  6
Continuous
 62
     7
370
    25
100
AcDbCircle
 10
540.2098307551
 20
572.4510118657
 30
0.0
 40
10.30000000000003
100
AcDbArc
 50
45.6642188199
 51
60.2024969667
  0
SPLINE
  5
26A
330
1F
100
AcDbEntity
  8
0
  6
Continuous
 62
     7
370
    25
100
AcDbSpline
210
0.0
220
0.0
230
1.0
 70
    24
 71
     3
 72
    11
 73
     7
 74
     0
 42
0.00000001
 43
0.00000001
 40
0.0
 40
0.0
 40
0.0
 40
0.0
 40
0.2431641197380915
 40
0.4936284730588936
 40
0.7421706076863288
 40
1.0
 40
1.0
 40
1.0
 40
1.0
 10
547.4081103737749
 20
579.8181531383967
 30
0.0
 10
547.652629166347
 20
579.2402349740672
 30
0.0
 10
548.1490076548408
 20
578.0670484804418
 30
0.0
 10
548.9364243963322
 20
576.205995458634
 30
0.0
 10
549.7404548140163
 20
574.305676149163
 30
0.0
 10
550.2502127671045
 20
573.1008674005091
 30
0.0
 10
550.5097664273701
 20
572.4874144494789
 30
0.0
  0
ARC
  5
26B
330
1F
100
AcDbEntity
  8
0
  6
Continuous
 62
     7
370
    25
100
AcDbCircle
 10
540.2098307551
 20
572.4510118657
 30
0.0
 40
10.30000000000006
100
AcDbArc
 50
345.6642188199
 51
0.2024969667
  0
SPLINE
  5
26C
330
1F
100
AcDbEntity
  8
0
  6
Continuous
 62
     7
370
    25
100
AcDbSpline
210
0.0
220
0.0
230
1.0
 70
    24
 71
     3
 72
    13
 73
     9
 74
     0
 42
0.00000001
 43
0.00000001
 40
0.0
 40
0.0
 40
0.0
 40
0.0
 40
0.0290865078712628
 40
0.2691317361521215
 40
0.5086847447945269
 40
0.7393528760311809
 40
0.9704551097945746
 40
1.0
 40
1.0
 40
1.0
 40
1.0
 10
550.1891020598979
 20
569.9006894887676
 30
0.0
 10
550.1444787935534
 20
569.8416154984687
 30
0.0
 10
549.7315884872559
 20
569.2950154858127
 30
0.0
 10
548.9258554591349
 20
568.2283552212072
 30
0.0
 10
547.7615890138234
 20
566.6870546771253
 30
0.0
 10
546.6138756752429
 20
565.1676677701786
 30
0.0
 10
545.8365399473574
 20
564.1386009400311
 30
0.0
 10
545.4366522505098
 20
563.6092142801263
 30
0.0
 10
545.3913241535872
 20
563.5492072080935
 30
0.0
  0
ARC
  5
26D
330
1F
100
AcDbEntity
  8
0
  6
Continuous
 62
     7
370
    25
100
AcDbCircle
 10
540.2098307551
 20
572.4510118657
 30
0.0
 40
10.29999999999999
100
AcDbArc
 50
285.6642188199
 51
300.2024969667
  0
SPLINE
  5
26E
330
1F
100
AcDbEntity
  8
0
  6
Continuous
 62
     7
370
    25
100
AcDbSpline
210
0.0
220
0.0
230
1.0
 70
    24
 71
     3
 72
     9
 73
     5
 74
     0
 42
0.00000001
 43
0.00000001
 40
0.0
 40
0.0
 40
0.0
 40
0.0
 40
0.8671190983107571
 40
1.0
 40
1.0
 40
1.0
 40
1.0
 10
542.9908224412719
 20
562.5335482160572
 30
0.0
 10
542.3724164153922
 20
562.6102091599695
 30
0.0
 10
541.6592433033198
 20
562.6986179426403
 30
0.0
 10
540.9062581080279
 20
562.7919620457172
 30
0.0
 10
540.806200756319
 20
562.8043656943015
 30
0.0
  0
SPLINE
  5
26F
330
1F
100
AcDbEntity
  8
0
  6
Continuous
 62
     7
370
    25
100
AcDbSpline
210
0.0
220
0.0
230
1.0
 70
    24
 71
     3
 72
    10
 73
     6
 74
     0
 42
0.00000001
 43
0.00000001
 40
0.0
 40
0.0
 40
0.0
 40
0.0
 40
0.4562748068386538
 40
0.9412367068380505
 40
1.0
 40
1.0
 40
1.0
 40
1.0
 10
641.7697624234802
 20
562.9510118656863
 30
0.0
 10
641.1558694872532
 20
562.9510118656863
 30
0.0
 10
639.8894866912165
 20
562.9510118656863
 30
0.0
 10
638.5889374504619
 20
562.9510118656863
 30
0.0
 10
637.9039150461149
 20
562.9510118656863
 30
0.0
 10
637.8298810067224
 20
562.9510118656863
 30
0.0
  0
ARC
  5
270
330
1F
100
AcDbEntity
  8
0
  6
Continuous
 62
     7
370
    25
100
AcDbCircle
 10
641.8098307551
 20
572.4510118657
 30
0.0
 40
10.30000000000001
100
AcDbArc
 50
232.7308609266
 51
247.2691390734
  0
SPLINE
  5
271
330
1F
100
AcDbEntity
  8
0
  6
Continuous
 62
     7
370
    25
100
AcDbSpline
210
0.0
220
0.0
230
1.0
 70
    24
 71
     3
 72
    11
 73
     7
 74
     0
 42
0.00000001
 43
0.00000001
 40
0.0
 40
0.0
 40
0.0
 40
0.0
 40
0.243164119738092
 40
0.4936284730588937
 40
0.7421706076863289
 40
1.0
 40
1.0
 40
1.0
 40
1.0
 10
635.57256429341
 20
564.2542742777636
 30
0.0
 10
635.2588052917133
 20
564.7977208100343
 30
0.0
 10
634.6218676666932
 20
565.9009291378211
 30
0.0
 10
633.6114786976867
 20
567.6509741675477
 30
0.0
 10
632.5797715698507
 20
569.4379433314906
 30
0.0
 10
631.9256658269526
 20
570.5708877117128
 30
0.0
 10
631.5926145449835
 20
571.1477494536091
 30
0.0
  0
ARC
  5
272
330
1F
100
AcDbEntity
  8
0
  6
Continuous
 62
     7
370
    25
100
AcDbCircle
 10
641.8098307551
 20
572.4510118657
 30
0.0
 40
10.30000000000007
100
AcDbArc
 50
172.7308609266
 51
187.2691390734
  0
SPLINE
  5
273
330
1F
100
AcDbEntity
  8
0
  6
Continuous
 62
     7
370
    25
100
AcDbSpline
210
0.0
220
0.0
230
1.0
 70
    24
 71
     3
 72
    11
 73
     7
 74
     0
 42
0.00000001
 43
0.00000001
 40
0.0
 40
0.0
 40
0.0
 40
0.0
 40
0.2431641197380916
 40
0.4936284730588936
 40
0.7421706076863288
 40
0.9999999999999999
 40
0.9999999999999999
 40
0.9999999999999999
 40
0.9999999999999999
 10
631.5926145449835
 20
573.7542742777634
 30
0.0
 10
631.9063735466802
 20
574.2977208100344
 30
0.0
 10
632.5433111717001
 20
575.4009291378211
 30
0.0
 10
633.5537001407067
 20
577.1509741675477
 30
0.0
 10
634.5854072685428
 20
578.9379433314905
 30
0.0
 10
635.239513011441
 20
580.0708877117129
 30
0.0
 10
635.57256429341
 20
580.6477494536091
 30
0.0
  0
ARC
  5
274
330
1F
100
AcDbEntity
  8
0
  6
Continuous
 62
     7
370
    25
100
AcDbCircle
 10
641.8098307551
 20
572.4510118657
 30
0.0
 40
10.30000000000002
100
AcDbArc
 50
112.7308609266
 51
127.2691390734
  0
SPLINE
  5
275
330
1F
100
AcDbEntity
  8
0
  6
Continuous
 62
     7
370
    25
100
AcDbSpline
210
0.0
220
0.0
230
1.0
 70
    24
 71
     3
 72
    10
 73
     6
 74
     0
 42
0.00000001
 43
0.00000001
 40
0.0
 40
0.0
 40
0.0
 40
0.0
 40
0.0981590835589895
 40
0.9082466927366118
 40
1.0
 40
1.0
 40
1.0
 40
1.0
 10
637.8298810067224
 20
581.9510118656863
 30
0.0
 10
637.9039378068096
 20
581.9510118656863
 30
0.0
 10
638.5891708113887
 20
581.9510118656863
 30
0.0
 10
639.3615447329398
 20
581.9510118656863
 30
0.0
 10
640.0849309313335
 20
581.9510118656863
 30
0.0
 10
640.158528253124
 20
581.9510118656863
 30
0.0
  0
LWPOLYLINE
  5
276
330
1F
100
AcDbEntity
  8
0
  6
Continuous
 62
     7
370
    25
100
AcDbPolyline
 90
        3
 70
   128
 43
0.0
 10
634.3422245282
 20
566.1822514428
 10
633.3660830683
 20
567.5760118657
 10
632.7426890479
 20
568.8664001348
  0
ARC
  5
277
330
1F
100
AcDbEntity
  8
0
  6
Continuous
 62
     7
370
    25
100
AcDbCircle
 10
641.8098307551
 20
572.4510118657
 30
0.0
 40
14.87500000000005
100
AcDbArc
 50
55.1611835908
 51
308.4167037132
  0
ARC
  5
278
330
1F
100
AcDbEntity
  8
0
  6
Continuous
 62
     7
370
    25
100
AcDbCircle
 10
641.8098307551
 20
572.4510118657
 30
0.0
 40
10.57500000000004
100
AcDbArc
 50
84.5490172093
 51
281.0490866707
  0
SPLINE
  5
279
330
1F
100
AcDbEntity
  8
0
  6
Continuous
 62
     7
370
    25
100
AcDbSpline
210
0.0
220
0.0
230
1.0
 70
     8
 71
     3
 72
     9
 73
     5
 74
     0
 42
0.00000001
 43
0.00000001
 40
0.0
 40
0.0
 40
0.0
 40
0.0
 40
0.5850553834534129
 40
1.0
 40
1.0
 40
1.0
 40
1.0
 10
630.6834201072342
 20
559.2225204137501
 30
0.0
 10
630.943195027043
 20
558.8359738881861
 30
0.0
 10
631.3872126827314
 20
558.1752731468608
 30
0.0
 10
632.0590638747642
 20
557.6971143147348
 30
0.0
 10
632.3378449100186
 20
557.4987048814897
 30
0.0
  0
SPLINE
  5
27A
330
1F
100
AcDbEntity
  8
0
  6
Continuous
 62
     7
370
    25
100
AcDbSpline
210
0.0
220
0.0
230
1.0
 70
    24
 71
     3
 72
    11
 73
     7
 74
     0
 42
0.00000001
 43
0.00000001
 40
0.0
 40
0.0
 40
0.0
 40
0.0
 40
0.2379053903768482
 40
0.4814905141303173
 40
0.7366519444348056
 40
0.9999999999999999
 40
0.9999999999999999
 40
0.9999999999999999
 40
0.9999999999999999
 10
624.7904157800685
 20
569.4295033176242
 30
0.0
 10
625.2471478908437
 20
568.6384200963132
 30
0.0
 10
626.1715160965773
 20
567.0373673990815
 30
0.0
 10
627.647842189097
 20
564.4802955982977
 30
0.0
 10
629.1799755735606
 20
561.8265627324345
 30
0.0
 10
630.177024538207
 20
560.0996232680328
 30
0.0
 10
630.6834201072342
 20
559.2225204137501
 30
0.0
  0
SPLINE
  5
27B
330
1F
100
AcDbEntity
  8
0
  6
Continuous
 62
     7
370
    25
100
AcDbSpline
210
0.0
220
0.0
230
1.0
 70
     8
 71
     3
 72
     9
 73
     5
 74
     0
 42
0.00000001
 43
0.00000001
 40
0.0
 40
0.0
 40
0.0
 40
0.0
 40
0.5841917497409947
 40
1.0
 40
1.0
 40
1.0
 40
1.0
 10
624.1247601390861
 20
571.7241849916151
 30
0.0
 10
624.1814522874944
 20
571.2438268660488
 30
0.0
 10
624.2784960208803
 20
570.4215658091626
 30
0.0
 10
624.6400702376534
 20
569.7208618180981
 30
0.0
 10
624.7904157800685
 20
569.4295033176242
 30
0.0
  0
ARC
  5
27C
330
1F
100
AcDbEntity
  8
0
  6
Continuous
 62
     7
370
    25
100
AcDbCircle
 10
641.8098307551
 20
572.4510118657
 30
0.0
 40
17.70000000000003
100
AcDbArc
 50
177.6465635726
 51
182.3534364274
  0
SPLINE
  5
27D
330
1F
100
AcDbEntity
  8
0
  6
Continuous
 62
     7
370
    25
100
AcDbSpline
210
0.0
220
0.0
230
1.0
 70
     8
 71
     3
 72
     9
 73
     5
 74
     0
 42
0.00000001
 43
0.00000001
 40
0.0
 40
0.0
 40
0.0
 40
0.0
 40
0.585055383453618
 40
1.0
 40
1.0
 40
1.0
 40
1.0
 10
624.7904157800687
 20
575.4725204137487
 30
0.0
 10
624.5855441290903
 20
575.0542754711463
 30
0.0
 10
624.2353693306479
 20
574.339394530929
 30
0.0
 10
624.1571972309994
 20
573.5184749150033
 30
0.0
 10
624.1247601390861
 20
573.1778387397576
 30
0.0
  0
SPLINE
  5
27E
330
1F
100
AcDbEntity
  8
0
  6
Continuous
 62
     7
370
    25
100
AcDbSpline
210
0.0
220
0.0
230
1.0
 70
    24
 71
     3
 72
    11
 73
     7
 74
     0
 42
0.00000001
 43
0.00000001
 40
0.0
 40
0.0
 40
0.0
 40
0.0
 40
0.2328716322111471
 40
0.4710265024313225
 40
0.7311421212560291
 40
1.0
 40
1.0
 40
1.0
 40
1.0
 10
630.6834201072348
 20
585.6795033176238
 30
0.0
 10
630.2364918920747
 20
584.9054009416303
 30
0.0
 10
629.3324958491651
 20
583.3396338654696
 30
0.0
 10
627.8686594788836
 20
580.8041948981748
 30
0.0
 10
626.3251100236446
 20
578.1306888177057
 30
0.0
 10
625.3075860131515
 20
576.3682855336104
 30
0.0
 10
624.7904157800687
 20
575.4725204137487
 30
0.0
  0
SPLINE
  5
27F
330
1F
100
AcDbEntity
  8
0
  6
Continuous
 62
     7
370
    25
100
AcDbSpline
210
0.0
220
0.0
230
1.0
 70
     8
 71
     3
 72
     9
 73
     5
 74
     0
 42
0.00000001
 43
0.00000001
 40
0.0
 40
0.0
 40
0.0
 40
0.0
 40
0.5841917497409241
 40
1.0
 40
1.0
 40
1.0
 40
1.0
 10
632.3378449100186
 20
587.4033188498828
 30
0.0
 10
631.950188644568
 20
587.114042946383
 30
0.0
 10
631.2866115474548
 20
586.6188700795495
 30
0.0
 10
630.8605711990464
 20
585.9553856269383
 30
0.0
 10
630.6834201072348
 20
585.6795033176238
 30
0.0
  0
ARC
  5
280
330
1F
100
AcDbEntity
  8
0
  6
Continuous
 62
     7
370
    25
100
AcDbCircle
 10
641.8098307551
 20
572.4510118657
 30
0.0
 40
17.70000000000005
100
AcDbArc
 50
117.6465635726
 51
122.3534364274
  0
SPLINE
  5
281
330
1F
100
AcDbEntity
  8
0
  6
Continuous
 62
     7
370
    25
100
AcDbSpline
210
0.0
220
0.0
230
1.0
 70
     8
 71
     3
 72
     9
 73
     5
 74
     0
 42
0.00000001
 43
0.00000001
 40
0.0
 40
0.0
 40
0.0
 40
0.0
 40
0.5850553834536188
 40
1.0
 40
1.0
 40
1.0
 40
1.0
 10
635.9168264279826
 20
588.7010118656864
 30
0.0
 10
635.4521798571953
 20
588.6693134486476
 30
0.0
 10
634.6579874030648
 20
588.6151332497551
 30
0.0
 10
633.9079641113839
 20
588.2723724659551
 30
0.0
 10
633.5967459842165
 20
588.130145723954
 30
0.0
  0
SPLINE
  5
282
330
1F
100
AcDbEntity
  8
0
  6
Continuous
 62
     7
370
    25
100
AcDbSpline
210
0.0
220
0.0
230
1.0
 70
    24
 71
     3
 72
    11
 73
     7
 74
     0
 42
0.00000001
 43
0.00000001
 40
0.0
 40
0.0
 40
0.0
 40
0.0
 40
0.2328716322111483
 40
0.4710265024313251
 40
0.731142121256031
 40
1.0
 40
1.0
 40
1.0
 40
1.0
 10
647.7028350823152
 20
588.7010118656864
 30
0.0
 10
646.8089786519947
 20
588.7010118656864
 30
0.0
 10
645.0009865661755
 20
588.7010118656864
 30
0.0
 10
642.0733138256124
 20
588.7010118656864
 30
0.0
 10
638.9862149151344
 20
588.7010118656864
 30
0.0
 10
636.9511668941483
 20
588.7010118656864
 30
0.0
 10
635.9168264279826
 20
588.7010118656864
 30
0.0
  0
SPLINE
  5
283
330
1F
100
AcDbEntity
  8
0
  6
Continuous
 62
     7
370
    25
100
AcDbSpline
210
0.0
220
0.0
230
1.0
 70
     8
 71
     3
 72
     9
 73
     5
 74
     0
 42
0.00000001
 43
0.00000001
 40
0.0
 40
0.0
 40
0.0
 40
0.0
 40
0.584191749740921
 40
1.0
 40
1.0
 40
1.0
 40
1.0
 10
650.0229155260814
 20
588.130145723954
 30
0.0
 10
649.5785671122227
 20
588.3212279460206
 30
0.0
 10
648.8179462817234
 20
588.6483161360734
 30
0.0
 10
648.0303317165419
 20
588.6855356745266
 30
0.0
 10
647.7028350823152
 20
588.7010118656864
 30
0.0
  0
ARC
  5
284
330
1F
100
AcDbEntity
  8
0
  6
Continuous
 62
     7
370
    25
100
AcDbCircle
 10
641.8098307551
 20
572.4510118657
 30
0.0
 40
17.70000000000005
100
AcDbArc
 50
57.6465635726
 51
62.3534364274
  0
SPLINE
  5
285
330
1F
100
AcDbEntity
  8
0
  6
Continuous
 62
     7
370
    25
100
AcDbSpline
210
0.0
220
0.0
230
1.0
 70
     8
 71
     3
 72
     9
 73
     5
 74
     0
 42
0.00000001
 43
0.00000001
 40
0.0
 40
0.0
 40
0.0
 40
0.0
 40
0.5850553834536193
 40
1.0
 40
1.0
 40
1.0
 40
1.0
 10
652.9362414030629
 20
585.6795033176238
 30
0.0
 10
652.6764664832541
 20
586.0660498431877
 30
0.0
 10
652.2324488275657
 20
586.7267505845124
 30
0.0
 10
651.5605976355333
 20
587.2049094166382
 30
0.0
 10
651.2818166002793
 20
587.4033188498828
 30
0.0
  0
LINE
  5
286
330
1F
100
AcDbEntity
  8
0
  6
Continuous
 62
     7
370
    25
100
AcDbLine
 10
654.2398563821
 20
583.4215759404
 30
0.0
 11
652.9362414031
 21
585.6795033176
 31
0.0
  0
SPLINE
  5
287
330
1F
100
AcDbEntity
  8
0
  6
Continuous
 62
     7
370
    25
100
AcDbSpline
210
0.0
220
0.0
230
1.0
 70
    24
 71
     3
 72
     9
 73
     5
 74
     0
 42
0.00000001
 43
0.00000001
 40
0.0
 40
0.0
 40
0.0
 40
0.0
 40
0.7713561932191271
 40
1.0
 40
1.0
 40
1.0
 40
1.0
 10
652.9362414030629
 20
559.2225204137487
 30
0.0
 10
653.38124398571
 20
559.9932874963928
 30
0.0
 10
653.9581533131503
 20
560.9925237628798
 30
0.0
 10
654.5608165196456
 20
562.036367056382
 30
0.0
 10
654.6986117293853
 20
562.275035360691
 30
0.0
  0
SPLINE
  5
288
330
1F
100
AcDbEntity
  8
0
  6
Continuous
 62
     7
370
    25
100
AcDbSpline
210
0.0
220
0.0
230
1.0
 70
     8
 71
     3
 72
     9
 73
     5
 74
     0
 42
0.00000001
 43
0.00000001
 40
0.0
 40
0.0
 40
0.0
 40
0.0
 40
0.5841917497409247
 40
1.0
 40
1.0
 40
1.0
 40
1.0
 10
651.2818166002793
 20
557.4987048814897
 30
0.0
 10
651.6694728657299
 20
557.7879807849896
 30
0.0
 10
652.333049962843
 20
558.2831536518231
 30
0.0
 10
652.7590903112515
 20
558.9466381044343
 30
0.0
 10
652.9362414030629
 20
559.2225204137487
 30
0.0
  0
ARC
  5
289
330
1F
100
AcDbEntity
  8
0
  6
Continuous
 62
     7
370
    25
100
AcDbCircle
 10
641.8098307551
 20
572.4510118657
 30
0.0
 40
17.70000000000005
100
AcDbArc
 50
297.6465635726
 51
302.3534364274
  0
SPLINE
  5
28A
330
1F
100
AcDbEntity
  8
0
  6
Continuous
 62
     7
370
    25
100
AcDbSpline
210
0.0
220
0.0
230
1.0
 70
     8
 71
     3
 72
     9
 73
     5
 74
     0
 42
0.00000001
 43
0.00000001
 40
0.0
 40
0.0
 40
0.0
 40
0.0
 40
0.5850553834536198
 40
1.0
 40
1.0
 40
1.0
 40
1.0
 10
647.7028350823152
 20
556.2010118656863
 30
0.0
 10
648.1674816531024
 20
556.232710282725
 30
0.0
 10
648.9616741072331
 20
556.2868904816175
 30
0.0
 10
649.711697398914
 20
556.6296512654176
 30
0.0
 10
650.0229155260814
 20
556.7718780074185
 30
0.0
  0
SPLINE
  5
28B
330
1F
100
AcDbEntity
  8
0
  6
Continuous
 62
     7
370
    25
100
AcDbSpline
210
0.0
220
0.0
230
1.0
 70
    24
 71
     3
 72
    11
 73
     7
 74
     0
 42
0.00000001
 43
0.00000001
 40
0.0
 40
0.0
 40
0.0
 40
0.0
 40
0.2328716322111492
 40
0.4710265024313262
 40
0.7311421212560313
 40
1.0
 40
1.0
 40
1.0
 40
1.0
 10
635.9168264279826
 20
556.2010118656863
 30
0.0
 10
636.8106828583032
 20
556.2010118656863
 30
0.0
 10
638.6186749441225
 20
556.2010118656863
 30
0.0
 10
641.5463476846854
 20
556.2010118656863
 30
0.0
 10
644.6334465951633
 20
556.2010118656863
 30
0.0
 10
646.6684946161495
 20
556.2010118656863
 30
0.0
 10
647.7028350823152
 20
556.2010118656863
 30
0.0
  0
SPLINE
  5
28C
330
1F
100
AcDbEntity
  8
0
  6
Continuous
 62
     7
370
    25
100
AcDbSpline
210
0.0
220
0.0
230
1.0
 70
     8
 71
     3
 72
     9
 73
     5
 74
     0
 42
0.00000001
 43
0.00000001
 40
0.0
 40
0.0
 40
0.0
 40
0.0
 40
0.5841917497409255
 40
1.0
 40
1.0
 40
1.0
 40
1.0
 10
633.5967459842165
 20
556.7718780074185
 30
0.0
 10
634.0410943980752
 20
556.580795785352
 30
0.0
 10
634.8017152285744
 20
556.2537075952993
 30
0.0
 10
635.5893297937561
 20
556.216488056846
 30
0.0
 10
635.9168264279826
 20
556.2010118656863
 30
0.0
  0
ARC
  5
28D
330
1F
100
AcDbEntity
  8
0
  6
Continuous
 62
     7
370
    25
100
AcDbCircle
 10
641.8098307551
 20
572.4510118657
 30
0.0
 40
17.70000000000005
100
AcDbArc
 50
237.6465635726
 51
242.3534364274
  0
ARC
  5
28E
330
1F
100
AcDbEntity
  8
0
  6
Continuous
 62
     7
370
    25
100
AcDbCircle
 10
641.8098307551
 20
572.4510118657
 30
0.0
 40
16.19999999999998
100
AcDbArc
 50
210.0
 51
318.1420914366
  0
ARC
  5
28F
330
1F
100
AcDbEntity
  8
0
  6
Continuous
 62
     7
370
    25
100
AcDbCircle
 10
641.8098307551
 20
572.4510118657
 30
0.0
 40
16.19999999999998
100
AcDbArc
 50
45.9729863763
 51
210.0
  0
LWPOLYLINE
  5
290
330
1F
100
AcDbEntity
  8
0
  6
Continuous
 62
     7
370
    25
100
AcDbPolyline
 90
        3
 70
   128
 43
0.0
 10
540.6895817477
 20
582.1892015838
 10
541.4093119778
 20
582.126948244
 10
542.8147046323
 20
581.8466029639
  0
LINE
  5
291
330
1F
100
AcDbEntity
  8
0
  6
Continuous
 62
     7
370
    25
100
AcDbLine
 10
538.9088549675
 20
561.9563424092
 30
0.0
 11
538.6742974166
 21
561.9880886429
 31
0.0
  0
ARC
  5
292
330
1F
100
AcDbEntity
  8
0
  6
Continuous
 62
     7
370
    25
100
AcDbCircle
 10
540.2098307551
 20
572.4510118657
 30
0.0
 40
10.57500000000005
100
AcDbArc
 50
262.9333578933
 51
98.3490982393
  0
ARC
  5
293
330
1F
100
AcDbEntity
  8
0
  6
Continuous
 62
     7
370
    25
100
AcDbCircle
 10
540.2098307551
 20
572.4510118657
 30
0.0
 40
14.87499999999993
100
AcDbArc
 50
233.3837470415
 51
262.9333578933
  0
ARC
  5
294
330
1F
100
AcDbEntity
  8
0
  6
Continuous
 62
     7
370
    25
100
AcDbCircle
 10
540.2098307551
 20
572.4510118657
 30
0.0
 40
14.87500000000002
100
AcDbArc
 50
262.9333578933
 51
126.6156955593
  0
ARC
  5
295
330
1F
100
AcDbEntity
  8
0
  6
Continuous
 62
     7
370
    25
100
AcDbCircle
 10
540.2098307551
 20
572.4510118657
 30
0.0
 40
16.20000000000004
100
AcDbArc
 50
82.9333578933
 51
136.0742282651
  0
ARC
  5
296
330
1F
100
AcDbEntity
  8
0
  6
Continuous
 62
     7
370
    25
100
AcDbCircle
 10
540.2098307551
 20
572.4510118657
 30
0.0
 40
16.20000000000001
100
AcDbArc
 50
223.9250761661
 51
82.9333578933
  0
SPLINE
  5
297
330
1F
100
AcDbEntity
  8
0
  6
Continuous
 62
     7
370
    25
100
AcDbSpline
210
0.0
220
0.0
230
1.0
 70
     8
 71
     3
 72
     9
 73
     5
 74
     0
 42
0.00000001
 43
0.00000001
 40
0.0
 40
0.0
 40
0.0
 40
0.0
 40
0.5850553834534096
 40
1.0
 40
1.0
 40
1.0
 40
1.0
 10
536.3607266444716
 20
589.302551781823
 30
0.0
 10
535.8957099969483
 20
589.3282567018492
 30
0.0
 10
535.1008849928977
 20
589.3721925765597
 30
0.0
 10
534.3143913747891
 20
589.1243061476237
 30
0.0
 10
533.9880400820067
 20
589.0214470084218
 30
0.0
  0
SPLINE
  5
298
330
1F
100
AcDbEntity
  8
0
  6
Continuous
 62
     7
370
    25
100
AcDbSpline
210
0.0
220
0.0
230
1.0
 70
    24
 71
     3
 72
    11
 73
     7
 74
     0
 42
0.00000001
 43
0.00000001
 40
0.0
 40
0.0
 40
0.0
 40
0.0
 40
0.2379053903768481
 40
0.4814905141303175
 40
0.7366519444348052
 40
1.0
 40
1.0
 40
1.0
 40
1.0
 10
548.0572056078777
 20
587.8525932104951
 30
0.0
 10
547.1506803061792
 20
587.9649709726777
 30
0.0
 10
545.3159873936077
 20
588.192409394331
 30
0.0
 10
542.3857643485162
 20
588.5556556356507
 30
0.0
 10
539.3447745739288
 20
588.9326331177441
 30
0.0
 10
537.3658243487077
 20
589.1779544533588
 30
0.0
 10
536.3607266444716
 20
589.302551781823
 30
0.0
  0
SPLINE
  5
299
330
1F
100
AcDbEntity
  8
0
  6
Continuous
 62
     7
370
    25
100
AcDbSpline
210
0.0
220
0.0
230
1.0
 70
     8
 71
     3
 72
     9
 73
     5
 74
     0
 42
0.00000001
 43
0.00000001
 40
0.0
 40
0.0
 40
0.0
 40
0.0
 40
0.5841917497409934
 40
1.0
 40
1.0
 40
1.0
 40
1.0
 10
550.2894320231336
 20
587.0006386058622
 30
0.0
 10
549.8719666441649
 20
587.2449347086786
 30
0.0
 10
549.1573632983394
 20
587.6631126492684
 30
0.0
 10
548.3803105510761
 20
587.7969447280065
 30
0.0
 10
548.0572056078777
 20
587.8525932104951
 30
0.0
  0
ARC
  5
29A
330
1F
100
AcDbEntity
  8
0
  6
Continuous
 62
     7
370
    25
100
AcDbCircle
 10
540.2098307551
 20
572.4510118657
 30
0.0
 40
17.69999999999999
100
AcDbArc
 50
50.5799214659
 51
55.2867943207
  0
SPLINE
  5
29B
330
1F
100
AcDbEntity
  8
0
  6
Continuous
 62
     7
370
    25
100
AcDbSpline
210
0.0
220
0.0
230
1.0
 70
     8
 71
     3
 72
     9
 73
     5
 74
     0
 42
0.00000001
 43
0.00000001
 40
0.0
 40
0.0
 40
0.0
 40
0.0
 40
0.5850553834536202
 40
1.0
 40
1.0
 40
1.0
 40
1.0
 10
552.8791403600715
 20
584.2102037654138
 30
0.0
 10
552.6688931500546
 20
584.6257724553645
 30
0.0
 10
552.3095302316661
 20
585.3360790377901
 30
0.0
 10
551.7016074779003
 20
585.893259276518
 30
0.0
 10
551.449353203949
 20
586.1244582170242
 30
0.0
  0
SPLINE
  5
29C
330
1F
100
AcDbEntity
  8
0
  6
Continuous
 62
     7
370
    25
100
AcDbSpline
210
0.0
220
0.0
230
1.0
 70
    24
 71
     3
 72
    11
 73
     7
 74
     0
 42
0.00000001
 43
0.00000001
 40
0.0
 40
0.0
 40
0.0
 40
0.0
 40
0.232871632211147
 40
0.4710265024313224
 40
0.7311421212560292
 40
1.0
 40
1.0
 40
1.0
 40
1.0
 10
557.4716788845701
 20
573.3557765626088
 30
0.0
 10
557.123378606502
 20
574.1789814182326
 30
0.0
 10
556.4188760433665
 20
575.8440674583281
 30
0.0
 10
555.2780784890377
 20
578.540333138092
 30
0.0
 10
554.0751589009806
 20
581.38342373597
 30
0.0
 10
553.2821816760616
 20
583.2576189148348
 30
0.0
 10
552.8791403600715
 20
584.2102037654138
 30
0.0
  0
SPLINE
  5
29D
330
1F
100
AcDbEntity
  8
0
  6
Continuous
 62
     7
370
    25
100
AcDbSpline
210
0.0
220
0.0
230
1.0
 70
     8
 71
     3
 72
     9
 73
     5
 74
     0
 42
0.00000001
 43
0.00000001
 40
0.0
 40
0.0
 40
0.0
 40
0.0
 40
0.5841917497409242
 40
1.0
 40
1.0
 40
1.0
 40
1.0
 10
557.849977761715
 20
570.9966344776817
 30
0.0
 10
557.8528117033152
 20
571.4803181524771
 30
0.0
 10
557.8576627502554
 20
572.3082717738865
 30
0.0
 10
557.5850383566521
 20
573.0481352324662
 30
0.0
 10
557.4716788845701
 20
573.3557765626088
 30
0.0
  0
ARC
  5
29E
330
1F
100
AcDbEntity
  8
0
  6
Continuous
 62
     7
370
    25
100
AcDbCircle
 10
540.2098307551
 20
572.4510118657
 30
0.0
 40
17.70000000000001
100
AcDbArc
 50
350.5799214659
 51
355.2867943207
  0
SPLINE
  5
29F
330
1F
100
AcDbEntity
  8
0
  6
Continuous
 62
     7
370
    25
100
AcDbSpline
210
0.0
220
0.0
230
1.0
 70
     8
 71
     3
 72
     9
 73
     5
 74
     0
 42
0.00000001
 43
0.00000001
 40
0.0
 40
0.0
 40
0.0
 40
0.0
 40
0.585055383453619
 40
0.9999999999999999
 40
0.9999999999999999
 40
0.9999999999999999
 40
0.9999999999999999
 10
556.7282444707504
 20
567.3586638492769
 30
0.0
 10
556.9830139082567
 20
567.7485276192016
 30
0.0
 10
557.4184759939184
 20
568.4148983269171
 30
0.0
 10
557.5970468582605
 20
569.2199649945808
 30
0.0
 10
557.6711438770913
 20
569.5540230742888
 30
0.0
  0
SPLINE
  5
2A0
330
1F
100
AcDbEntity
  8
0
  6
Continuous
 62
     7
370
    25
100
AcDbSpline
210
0.0
220
0.0
230
1.0
 70
    24
 71
     3
 72
    11
 73
     7
 74
     0
 42
0.00000001
 43
0.00000001
 40
0.0
 40
0.0
 40
0.0
 40
0.0
 40
0.2328716322111486
 40
0.4710265024313255
 40
0.7311421212560308
 40
1.0
 40
1.0
 40
1.0
 40
1.0
 10
549.6243040318416
 20
557.9541952177999
 30
0.0
 10
550.1630702102966
 20
558.667434534564
 30
0.0
 10
551.2528257389384
 20
560.1100946713184
 30
0.0
 10
553.0174615358017
 20
562.4461871738241
 30
0.0
 10
554.8781904247962
 20
564.9094913947306
 30
0.0
 10
556.1048024488838
 20
566.5333274055653
 30
0.0
 10
556.7282444707504
 20
567.3586638492769
 30
0.0
  0
SPLINE
  5
2A1
330
1F
100
AcDbEntity
  8
0
  6
Continuous
 62
     7
370
    25
100
AcDbSpline
210
0.0
220
0.0
230
1.0
 70
     8
 71
     3
 72
     9
 73
     5
 74
     0
 42
0.00000001
 43
0.00000001
 40
0.0
 40
0.0
 40
0.0
 40
0.0
 40
0.584191749740921
 40
1.0
 40
1.0
 40
1.0
 40
1.0
 10
547.7703764937303
 20
556.4470077375058
 30
0.0
 10
548.1906758142991
 20
556.686395309485
 30
0.0
 10
548.910130207065
 20
557.0961709903044
 30
0.0
 10
549.4145585607251
 20
557.7022023701459
 30
0.0
 10
549.6243040318416
 20
557.9541952177999
 30
0.0
  0
ARC
  5
2A2
330
1F
100
AcDbEntity
  8
0
  6
Continuous
 62
     7
370
    25
100
AcDbCircle
 10
540.2098307551
 20
572.4510118657
 30
0.0
 40
17.69999999999999
100
AcDbArc
 50
290.5799214659
 51
295.2867943207
  0
SPLINE
  5
2A3
330
1F
100
AcDbEntity
  8
0
  6
Continuous
 62
     7
370
    25
100
AcDbSpline
210
0.0
220
0.0
230
1.0
 70
     8
 71
     3
 72
     9
 73
     5
 74
     0
 42
0.00000001
 43
0.00000001
 40
0.0
 40
0.0
 40
0.0
 40
0.0
 40
0.585055383453617
 40
1.0
 40
1.0
 40
1.0
 40
1.0
 10
544.0589348658278
 20
555.5994719495494
 30
0.0
 10
544.523951513351
 20
555.5737670295234
 30
0.0
 10
545.3187765174011
 20
555.5298311548131
 30
0.0
 10
546.1052701355092
 20
555.7777175837491
 30
0.0
 10
546.4316214282911
 20
555.8805767229509
 30
0.0
  0
SPLINE
  5
2A4
330
1F
100
AcDbEntity
  8
0
  6
Continuous
 62
     7
370
    25
100
AcDbSpline
210
0.0
220
0.0
230
1.0
 70
    24
 71
     3
 72
    11
 73
     7
 74
     0
 42
0.00000001
 43
0.00000001
 40
0.0
 40
0.0
 40
0.0
 40
0.0
 40
0.255627964438097
 40
0.5185037642963863
 40
0.7560467972580102
 40
0.9999999999999999
 40
0.9999999999999999
 40
0.9999999999999999
 40
0.9999999999999999
 10
532.3624559024204
 20
557.0494305208774
 30
0.0
 10
533.3375780703002
 20
556.9285491214551
 30
0.0
 10
535.3154701049451
 20
556.6833589648477
 30
0.0
 10
538.3327960562095
 20
556.3093149778313
 30
0.0
 10
541.2935645518373
 20
555.9422821578362
 30
0.0
 10
543.1289996985871
 20
555.7147517248337
 30
0.0
 10
544.0589348658278
 20
555.5994719495494
 30
0.0
  0
SPLINE
  5
2A5
330
1F
100
AcDbEntity
  8
0
  6
Continuous
 62
     7
370
    25
100
AcDbSpline
210
0.0
220
0.0
230
1.0
 70
     8
 71
     3
 72
     9
 73
     5
 74
     0
 42
0.00000001
 43
0.00000001
 40
0.0
 40
0.0
 40
0.0
 40
0.0
 40
0.5841917497409234
 40
1.0
 40
1.0
 40
1.0
 40
1.0
 10
530.1302294871641
 20
557.9013851255105
 30
0.0
 10
530.5476948661328
 20
557.6570890226941
 30
0.0
 10
531.2622982119585
 20
557.2389110821041
 30
0.0
 10
532.0393509592218
 20
557.1050790033661
 30
0.0
 10
532.3624559024204
 20
557.0494305208774
 30
0.0
  0
ARC
  5
2A6
330
1F
100
AcDbEntity
  8
0
  6
Continuous
 62
     7
370
    25
100
AcDbCircle
 10
540.2098307551
 20
572.4510118657
 30
0.0
 40
17.69999999999996
100
AcDbArc
 50
230.5799214659
 51
235.2867943207
  0
SPLINE
  5
2A7
330
1F
100
AcDbEntity
  8
0
  6
Continuous
 62
     7
370
    25
100
AcDbSpline
210
0.0
220
0.0
230
1.0
 70
     8
 71
     3
 72
     9
 73
     5
 74
     0
 42
0.00000001
 43
0.00000001
 40
0.0
 40
0.0
 40
0.0
 40
0.0
 40
0.5850553834536163
 40
0.9999999999999999
 40
0.9999999999999999
 40
0.9999999999999999
 40
0.9999999999999999
 10
527.5405211502264
 20
560.6918199659589
 30
0.0
 10
527.7507683602431
 20
560.2762512760081
 30
0.0
 10
528.1101312786316
 20
559.5659446935824
 30
0.0
 10
528.7180540323975
 20
559.0087644548546
 30
0.0
 10
528.9703083063487
 20
558.7775655143485
 30
0.0
  0
LINE
  5
2A8
330
1F
100
AcDbEntity
  8
0
  6
Continuous
 62
     7
370
    25
100
AcDbLine
 10
526.8954926491
 20
562.2163395473
 30
0.0
 11
527.5405211502
 21
560.691819966
 31
0.0
  0
SPLINE
  5
2A9
330
1F
100
AcDbEntity
  8
0
  6
Continuous
 62
     7
370
    25
100
AcDbSpline
210
0.0
220
0.0
230
1.0
 70
    24
 71
     3
 72
     9
 73
     5
 74
     0
 42
0.00000001
 43
0.00000001
 40
0.0
 40
0.0
 40
0.0
 40
0.0
 40
0.6016866694271162
 40
1.0
 40
1.0
 40
1.0
 40
1.0
 10
530.7953574784561
 20
586.9478285135727
 30
0.0
 10
530.2575582381214
 20
586.2358692665526
 30
0.0
 10
529.3637388007606
 20
585.0525968372367
 30
0.0
 10
528.4301187482428
 20
583.8166348281054
 30
0.0
 10
528.0582454356347
 20
583.3243346837869
 30
0.0
  0
SPLINE
  5
2AA
330
1F
100
AcDbEntity
  8
0
  6
Continuous
 62
     7
370
    25
100
AcDbSpline
210
0.0
220
0.0
230
1.0
 70
     8
 71
     3
 72
     9
 73
     5
 74
     0
 42
0.00000001
 43
0.00000001
 40
0.0
 40
0.0
 40
0.0
 40
0.0
 40
0.5841917497409256
 40
1.0
 40
1.0
 40
1.0
 40
1.0
 10
532.6492850165675
 20
588.4550159938668
 30
0.0
 10
532.2289856959987
 20
588.2156284218877
 30
0.0
 10
531.5095313032327
 20
587.8058527410682
 30
0.0
 10
531.0051029495726
 20
587.1998213612268
 30
0.0
 10
530.7953574784561
 20
586.9478285135727
 30
0.0
  0
ARC
  5
2AB
330
1F
100
AcDbEntity
  8
0
  6
Continuous
 62
     7
370
    25
100
AcDbCircle
 10
540.2098307551
 20
572.4510118657
 30
0.0
 40
17.70000000000009
100
AcDbArc
 50
110.5799214659
 51
115.2867943207
  0
SPLINE
  5
2AC
330
1F
100
AcDbEntity
  8
0
  6
Continuous
 62
     7
370
    25
100
AcDbSpline
210
0.0
220
0.0
230
1.0
 70
    24
 71
     3
 72
     9
 73
     5
 74
     0
 42
0.00000001
 43
0.00000001
 40
0.0
 40
0.0
 40
0.0
 40
0.0
 40
0.3295577428983638
 40
1.0
 40
1.0
 40
1.0
 40
1.0
 10
629.0292337010238
 20
559.7734340823616
 30
0.0
 10
629.3339211369519
 20
559.2456999629064
 30
0.0
 10
630.2584554332738
 20
557.6443595883369
 30
0.0
 10
631.1572445506422
 20
556.0876111717649
 30
0.0
 10
631.759830755149
 20
555.0439012496191
 30
0.0
  0
SPLINE
  5
2AD
330
1F
100
AcDbEntity
  8
0
  6
Continuous
 62
     7
370
    25
100
AcDbSpline
210
0.0
220
0.0
230
1.0
 70
    24
 71
     3
 72
     9
 73
     5
 74
     0
 42
0.00000001
 43
0.00000001
 40
0.0
 40
0.0
 40
0.0
 40
0.0
 40
0.9671116747707319
 40
1.0
 40
1.0
 40
1.0
 40
1.0
 10
631.7598307551489
 20
589.8581224817535
 30
0.0
 10
630.8920344550469
 20
588.3550551993568
 30
0.0
 10
629.9947272228625
 20
586.8008734832143
 30
0.0
 10
629.0665985666183
 20
585.1933074946386
 30
0.0
 10
629.0360739695171
 20
585.1404373415788
 30
0.0
  0
SPLINE
  5
2AE
330
1F
100
AcDbEntity
  8
0
  6
Continuous
 62
     7
370
    25
100
AcDbSpline
210
0.0
220
0.0
230
1.0
 70
    24
 71
     3
 72
     9
 73
     5
 74
     0
 42
0.00000001
 43
0.00000001
 40
0.0
 40
0.0
 40
0.0
 40
0.0
 40
0.6345639713284262
 40
1.0
 40
1.0
 40
1.0
 40
1.0
 10
651.8598307551489
 20
589.8581224817535
 30
0.0
 10
650.1176298204025
 20
589.8581224817535
 30
0.0
 10
647.372121071932
 20
589.8581224817535
 30
0.0
 10
644.5326651080886
 20
589.8581224817535
 30
0.0
 10
643.4950255970738
 20
589.8581224817535
 30
0.0
  0
SPLINE
  5
2AF
330
1F
100
AcDbEntity
  8
0
  6
Continuous
 62
     7
370
    25
100
AcDbSpline
210
0.0
220
0.0
230
1.0
 70
    24
 71
     3
 72
     9
 73
     5
 74
     0
 42
0.00000001
 43
0.00000001
 40
0.0
 40
0.0
 40
0.0
 40
0.0
 40
0.4629245966223682
 40
0.9999999999999999
 40
0.9999999999999999
 40
0.9999999999999999
 40
0.9999999999999999
 10
640.5240726393188
 20
589.8581224817535
 30
0.0
 10
639.1493334883397
 20
589.8581224817535
 30
0.0
 10
636.1796508207746
 20
589.8581224817535
 30
0.0
 10
633.3041770112833
 20
589.8581224817535
 30
0.0
 10
631.7598307551489
 20
589.8581224817535
 30
0.0
  0
SPLINE
  5
2B0
330
1F
100
AcDbEntity
  8
0
  6
Continuous
 62
     7
370
    25
100
AcDbSpline
210
0.0
220
0.0
230
1.0
 70
    24
 71
     3
 72
    10
 73
     6
 74
     0
 42
0.00000001
 43
0.00000001
 40
0.0
 40
0.0
 40
0.0
 40
0.0
 40
0.1191074496002432
 40
0.7048887553687283
 40
1.0
 40
1.0
 40
1.0
 40
1.0
 10
656.2436751956388
 20
582.2650811783466
 30
0.0
 10
656.0666311424508
 20
582.5717304736463
 30
0.0
 10
655.018868280295
 20
584.3865089851839
 30
0.0
 10
653.5458406081393
 20
586.9378677543125
 30
0.0
 10
652.2829250242992
 20
589.1253017111941
 30
0.0
 10
651.8598307551489
 20
589.8581224817535
 30
0.0
  0
SPLINE
  5
2B1
330
1F
100
AcDbEntity
  8
0
  6
Continuous
 62
     7
370
    25
100
AcDbSpline
210
0.0
220
0.0
230
1.0
 70
    24
 71
     3
 72
     9
 73
     5
 74
     0
 42
0.00000001
 43
0.00000001
 40
0.0
 40
0.0
 40
0.0
 40
0.0
 40
0.6354193480720565
 40
1.0
 40
1.0
 40
1.0
 40
1.0
 10
651.859830755149
 20
555.0439012496191
 30
0.0
 10
652.7309227235675
 20
556.5526767969852
 30
0.0
 10
654.1018157740571
 20
558.9271332121762
 30
0.0
 10
655.5196191981945
 20
561.3828407779273
 30
0.0
 10
656.0365228948722
 20
562.2781442431932
 30
0.0
  0
SPLINE
  5
2B2
330
1F
100
AcDbEntity
  8
0
  6
Continuous
 62
     7
370
    25
100
AcDbSpline
210
0.0
220
0.0
230
1.0
 70
    24
 71
     3
 72
     9
 73
     5
 74
     0
 42
0.00000001
 43
0.00000001
 40
0.0
 40
0.0
 40
0.0
 40
0.0
 40
0.6358492798547353
 40
1.0
 40
1.0
 40
1.0
 40
1.0
 10
631.7598307551489
 20
555.0439012496191
 30
0.0
 10
633.5020061484506
 20
555.0439012496191
 30
0.0
 10
636.2419249444581
 20
555.0439012496191
 30
0.0
 10
639.0756010505249
 20
555.0439012496191
 30
0.0
 10
640.1074862452076
 20
555.0439012496191
 30
0.0
  0
SPLINE
  5
2B3
330
1F
100
AcDbEntity
  8
0
  6
Continuous
 62
     7
370
    25
100
AcDbSpline
210
0.0
220
0.0
230
1.0
 70
    24
 71
     3
 72
     9
 73
     5
 74
     0
 42
0.00000001
 43
0.00000001
 40
0.0
 40
0.0
 40
0.0
 40
0.0
 40
0.4635399192251441
 40
1.0
 40
1.0
 40
1.0
 40
1.0
 10
643.0854201676608
 20
555.0439012496191
 30
0.0
 10
644.4635745278891
 20
555.0439012496191
 30
0.0
 10
647.436682782583
 20
555.0439012496191
 30
0.0
 10
650.3154741211353
 20
555.0439012496191
 30
0.0
 10
651.859830755149
 20
555.0439012496191
 30
0.0
  0
SPLINE
  5
2B4
330
1F
100
AcDbEntity
  8
0
  6
Continuous
 62
     7
370
    25
100
AcDbSpline
210
0.0
220
0.0
230
1.0
 70
    24
 71
     3
 72
     9
 73
     5
 74
     0
 42
0.00000001
 43
0.00000001
 40
0.0
 40
0.0
 40
0.0
 40
0.0
 40
0.3303019577757082
 40
1.0
 40
1.0
 40
1.0
 40
1.0
 10
552.9935006004362
 20
585.1232674185969
 30
0.0
 10
552.6877836460574
 20
585.6527847163162
 30
0.0
 10
551.7622155494056
 20
587.2559156855818
 30
0.0
 10
550.8624212415347
 20
588.8144051431757
 30
0.0
 10
550.2598307551489
 20
589.8581224817535
 30
0.0
  0
SPLINE
  5
2B5
330
1F
100
AcDbEntity
  8
0
  6
Continuous
 62
     7
370
    25
100
AcDbSpline
210
0.0
220
0.0
230
1.0
 70
    24
 71
     3
 72
     9
 73
     5
 74
     0
 42
0.00000001
 43
0.00000001
 40
0.0
 40
0.0
 40
0.0
 40
0.0
 40
0.9704344448968955
 40
0.9999999999999999
 40
0.9999999999999999
 40
0.9999999999999999
 40
0.9999999999999999
 10
550.259830755149
 20
555.0439012496191
 30
0.0
 10
551.1275940404736
 20
556.5469113487444
 30
0.0
 10
552.0217948696878
 20
558.0957126171136
 30
0.0
 10
552.9467115903235
 20
559.6977153700246
 30
0.0
 10
552.9740572665934
 20
559.7450794706912
 30
0.0
  0
SPLINE
  5
2B6
330
1F
100
AcDbEntity
  8
0
  6
Continuous
 62
     7
370
    25
100
AcDbSpline
210
0.0
220
0.0
230
1.0
 70
    24
 71
     3
 72
     9
 73
     5
 74
     0
 42
0.00000001
 43
0.00000001
 40
0.0
 40
0.0
 40
0.0
 40
0.0
 40
0.605338502283805
 40
1.0
 40
1.0
 40
1.0
 40
1.0
 10
530.159830755149
 20
555.0439012496191
 30
0.0
 10
531.9026124537214
 20
555.0439012496191
 30
0.0
 10
534.7816325259574
 20
555.0439012496191
 30
0.0
 10
537.7591355426247
 20
555.0439012496191
 30
0.0
 10
538.9342413426372
 20
555.0439012496191
 30
0.0
  0
SPLINE
  5
2B7
330
1F
100
AcDbEntity
  8
0
  6
Continuous
 62
     7
370
    25
100
AcDbSpline
210
0.0
220
0.0
230
1.0
 70
    24
 71
     3
 72
     9
 73
     5
 74
     0
 42
0.00000001
 43
0.00000001
 40
0.0
 40
0.0
 40
0.0
 40
0.0
 40
0.4364430866691203
 40
1.0
 40
1.0
 40
1.0
 40
1.0
 10
541.91217526509
 20
555.0439012496191
 30
0.0
 10
543.147023292209
 20
555.0439012496191
 30
0.0
 10
545.9763682052954
 20
555.0439012496191
 30
0.0
 10
548.7159311296333
 20
555.0439012496191
 30
0.0
 10
550.259830755149
 20
555.0439012496191
 30
0.0
  0
SPLINE
  5
2B8
330
1F
100
AcDbEntity
  8
0
  6
Continuous
 62
     7
370
    25
100
AcDbSpline
210
0.0
220
0.0
230
1.0
 70
    24
 71
     3
 72
    10
 73
     6
 74
     0
 42
0.00000001
 43
0.00000001
 40
0.0
 40
0.0
 40
0.0
 40
0.0
 40
0.0761697509613271
 40
0.690504029693409
 40
1.0
 40
1.0
 40
1.0
 40
1.0
 10
525.9831386154257
 20
562.2781442431933
 30
0.0
 10
526.0910782198866
 20
562.0911873641179
 30
0.0
 10
527.0695864978209
 20
560.3963613111091
 30
0.0
 10
528.473760346914
 20
557.9642608618204
 30
0.0
 10
529.7367212900157
 20
555.776748340393
 30
0.0
 10
530.159830755149
 20
555.0439012496191
 30
0.0
  0
SPLINE
  5
2B9
330
1F
100
AcDbEntity
  8
0
  6
Continuous
 62
     7
370
    25
100
AcDbSpline
210
0.0
220
0.0
230
1.0
 70
    24
 71
     3
 72
     9
 73
     5
 74
     0
 42
0.00000001
 43
0.00000001
 40
0.0
 40
0.0
 40
0.0
 40
0.0
 40
0.6057963558245658
 40
1.0
 40
1.0
 40
1.0
 40
1.0
 10
530.1598307551488
 20
589.8581224817535
 30
0.0
 10
529.2884444550587
 20
588.3488371369779
 30
0.0
 10
527.8500298926202
 20
585.8574300324875
 30
0.0
 10
526.3624110740739
 20
583.2807986564695
 30
0.0
 10
525.7759863146589
 20
582.2650811783466
 30
0.0
  0
SPLINE
  5
2BA
330
1F
100
AcDbEntity
  8
0
  6
Continuous
 62
     7
370
    25
100
AcDbSpline
210
0.0
220
0.0
230
1.0
 70
    24
 71
     3
 72
     9
 73
     5
 74
     0
 42
0.00000001
 43
0.00000001
 40
0.0
 40
0.0
 40
0.0
 40
0.0
 40
0.6060314190847154
 40
1.0
 40
1.0
 40
1.0
 40
1.0
 10
550.259830755149
 20
589.8581224817535
 30
0.0
 10
548.5170628261078
 20
589.8581224817535
 30
0.0
 10
545.6413572534939
 20
589.8581224817535
 30
0.0
 10
542.6672813386747
 20
589.8581224817535
 30
0.0
 10
541.4955888709792
 20
589.8581224817535
 30
0.0
  0
SPLINE
  5
2BB
330
1F
100
AcDbEntity
  8
0
  6
Continuous
 62
     7
370
    25
100
AcDbSpline
210
0.0
220
0.0
230
1.0
 70
    24
 71
     3
 72
     9
 73
     5
 74
     0
 42
0.00000001
 43
0.00000001
 40
0.0
 40
0.0
 40
0.0
 40
0.0
 40
0.4375846900636872
 40
1.0
 40
1.0
 40
1.0
 40
1.0
 10
538.524635913224
 20
589.8581224817535
 30
0.0
 10
537.2840298369264
 20
589.8581224817535
 30
0.0
 10
534.44890762066
 20
589.8581224817535
 30
0.0
 10
531.7037496346659
 20
589.8581224817535
 30
0.0
 10
530.1598307551488
 20
589.8581224817535
 30
0.0
  0
ARC
  5
2BC
330
1F
100
AcDbEntity
  8
0
  6
Continuous
 62
     7
370
    25
100
AcDbCircle
 10
540.2098307551
 20
572.4510118657
 30
0.0
 40
25.8
100
AcDbArc
 50
191.8279638195
 51
270.0
  0
ARC
  5
2BD
330
1F
100
AcDbEntity
  8
0
  6
Continuous
 62
     7
370
    25
100
AcDbCircle
 10
540.2098307551
 20
572.4510118657
 30
0.0
 40
25.80000000000013
100
AcDbArc
 50
27.7177476896
 51
168.1302419674
  0
ARC
  5
2BE
330
1F
100
AcDbEntity
  8
0
  6
Continuous
 62
     7
370
    25
100
AcDbCircle
 10
540.2098307551
 20
572.4510118657
 30
0.0
 40
25.80000000000008
100
AcDbArc
 50
270.0
 51
332.2822523104
  0
ARC
  5
2BF
330
1F
100
AcDbEntity
  8
0
  6
Continuous
 62
     7
370
    25
100
AcDbCircle
 10
641.8098307551
 20
572.4510118657
 30
0.0
 40
25.80000000000007
100
AcDbArc
 50
12.3559596424
 51
90.0
  0
ARC
  5
2C0
330
1F
100
AcDbEntity
  8
0
  6
Continuous
 62
     7
370
    25
100
AcDbCircle
 10
641.8098307551
 20
572.4510118657
 30
0.0
 40
25.79999999999998
100
AcDbArc
 50
207.7177476896
 51
348.6539790979
  0
ARC
  5
2C1
330
1F
100
AcDbEntity
  8
0
  6
Continuous
 62
     7
370
    25
100
AcDbCircle
 10
641.8098307551
 20
572.4510118657
 30
0.0
 40
25.80000000000007
100
AcDbArc
 50
90.0
 51
152.2822523104
  0
ARC
  5
2C2
330
1F
100
AcDbEntity
  8
0
  6
Continuous
 62
     8
370
    25
100
AcDbCircle
 10
591.018473488
 20
429.7238197478
 30
0.0
 40
7.891353696789151
100
AcDbArc
 50
269.9372487616
 51
0.0114436468
  0
ARC
  5
2C3
330
1F
100
AcDbEntity
  8
0
  6
Continuous
 62
     8
370
    25
100
AcDbCircle
 10
591.0018692865
 20
429.7245070039
 30
0.0
 40
7.892040235815237
100
AcDbArc
 50
180.0390046213
 51
270.0577998355
  0
ARC
  5
2C4
330
1F
100
AcDbEntity
  8
0
  6
Continuous
 62
     8
370
    25
100
AcDbCircle
 10
591.0267209259
 20
427.8773894874
 30
0.0
 40
9.813976713129637
100
AcDbArc
 50
269.9013920651
 51
35.6783495227
  0
ARC
  5
2C5
330
1F
100
AcDbEntity
  8
0
  6
Continuous
 62
     8
370
    25
100
AcDbCircle
 10
590.9936975766
 20
427.8777923551
 30
0.0
 40
9.814378306740586
100
AcDbArc
 50
144.4923066817
 51
270.0941846168
  0
SPLINE
  5
2C6
330
1F
100
AcDbEntity
  8
0
  6
Continuous
 62
     8
370
    25
100
AcDbSpline
210
0.0
220
0.0
230
1.0
 70
     8
 71
     3
 72
    16
 73
    12
 74
     0
 42
0.00000001
 43
0.00000001
 40
0.0
 40
0.0
 40
0.0
 40
0.0
 40
0.0797251568382979
 40
0.1573886899567563
 40
0.2352512196651481
 40
0.2436960790113589
 40
0.3556743183461196
 40
0.4679558110718032
 40
0.6238310229257971
 40
0.7799332425928541
 40
1.0
 40
1.0
 40
1.0
 40
1.0
 10
569.2294987842837
 20
572.4510118656863
 30
0.0
 10
569.263922868946
 20
572.981578600303
 30
0.0
 10
569.3318808611637
 20
574.0289920718791
 30
0.0
 10
569.8447685352384
 20
575.4938585895828
 30
0.0
 10
570.3441659816206
 20
576.4178195547227
 30
0.0
 10
571.0335271134909
 20
577.460755430058
 30
0.0
 10
571.9662733072371
 20
578.5743868546862
 30
0.0
 10
573.7137400917079
 20
580.0785766504506
 30
0.0
 10
575.8512355707035
 20
581.4153622097261
 30
0.0
 10
578.6808329830216
 20
582.7227214098091
 30
0.0
 10
580.7810654617097
 20
583.2549775188859
 30
0.0
 10
582.0097456016323
 20
583.5663585289461
 30
0.0
  0
SPLINE
  5
2C7
330
1F
100
AcDbEntity
  8
0
  6
Continuous
 62
     8
370
    25
100
AcDbSpline
210
0.0
220
0.0
230
1.0
 70
     8
 71
     3
 72
    22
 73
    18
 74
     0
 42
0.00000001
 43
0.00000001
 40
0.0
 40
0.0
 40
0.0
 40
0.0
 40
0.0625927811513519
 40
0.1630700210568517
 40
0.229687746339552
 40
0.2961247255675385
 40
0.3392791897587513
 40
0.3823342035362113
 40
0.4436296015429181
 40
0.4669865511048643
 40
0.5378729786867635
 40
0.5535954156597995
 40
0.610296407549117
 40
0.6671621743714722
 40
0.7920050306833365
 40
0.9174202181354684
 40
1.0
 40
1.0
 40
1.0
 40
1.0
 10
603.3989278975179
 20
582.5484387162074
 30
0.0
 10
604.0096813556556
 20
582.3240736557825
 30
0.0
 10
605.6008485389488
 20
581.7395459442009
 30
0.0
 10
607.7083604127064
 20
580.4989050776825
 30
0.0
 10
609.6869361237862
 20
578.9378639624643
 30
0.0
 10
611.0027757881253
 20
577.486881483674
 30
0.0
 10
611.9269357361969
 20
576.0152853869865
 30
0.0
 10
612.5925339181617
 20
574.4306114268949
 30
0.0
 10
612.8331801013771
 20
572.901393641792
 30
0.0
 10
612.724984848022
 20
571.0526071434223
 30
0.0
 10
612.3402047065517
 20
569.7832032871587
 30
0.0
 10
611.5949969638127
 20
568.3171504369681
 30
0.0
 10
610.7581478827724
 20
567.1111691356241
 30
0.0
 10
608.9208033261443
 20
565.2362408369771
 30
0.0
 10
606.1710692090684
 20
563.4139294412279
 30
0.0
 10
602.9645314964246
 20
562.0294090448132
 30
0.0
 10
600.8756808413866
 20
561.5531955754112
 30
0.0
 10
600.0463490935692
 20
561.3641255966836
 30
0.0
  0
SPLINE
  5
2C8
330
1F
100
AcDbEntity
  8
0
  6
Continuous
 62
     8
370
    25
100
AcDbSpline
210
0.0
220
0.0
230
1.0
 70
     8
 71
     3
 72
    14
 73
    10
 74
     0
 42
0.00000001
 43
0.00000001
 40
0.0
 40
0.0
 40
0.0
 40
0.0
 40
0.1904668066258326
 40
0.434982612775436
 40
0.5742633843840381
 40
0.7131406345704092
 40
0.80831037914871
 40
0.903253862652269
 40
1.0
 40
1.0
 40
1.0
 40
1.0
 10
578.6270676593716
 20
562.345476571949
 30
0.0
 10
577.8056353914448
 20
562.662592256477
 30
0.0
 10
575.9296720125723
 20
563.3868119326067
 30
0.0
 10
573.6298938216814
 20
564.8641175526392
 30
0.0
 10
571.7486854693501
 20
566.5521954164324
 30
0.0
 10
570.5894177362019
 20
568.0111985659385
 30
0.0
 10
569.8079016866562
 20
569.4967373643361
 30
0.0
 10
569.3251327280357
 20
570.9241259093617
 30
0.0
 10
569.26157599522
 20
571.9388689907278
 30
0.0
 10
569.2294987842837
 20
572.4510118656863
 30
0.0
  0
SPLINE
  5
2C9
330
1F
100
AcDbEntity
  8
0
  6
Continuous
 62
     8
370
    25
100
AcDbSpline
210
0.0
220
0.0
230
1.0
 70
     8
 71
     3
 72
    14
 73
    10
 74
     0
 42
0.00000001
 43
0.00000001
 40
0.0
 40
0.0
 40
0.0
 40
0.0
 40
0.0341758708567219
 40
0.123010957862618
 40
0.2395612421416591
 40
0.3607316250346259
 40
0.5547146233737327
 40
0.7533394926976562
 40
1.0
 40
1.0
 40
1.0
 40
1.0
 10
556.2421700695802
 20
584.4257524620451
 30
0.0
 10
556.2254178000364
 20
584.4338438685792
 30
0.0
 10
556.1651205004708
 20
584.4629676814701
 30
0.0
 10
556.418384230978
 20
584.3413178668792
 30
0.0
 10
556.9189378410783
 20
584.0918450549258
 30
0.0
 10
557.8799987531567
 20
583.5790980924247
 30
0.0
 10
559.2186664387283
 20
582.7663476623135
 30
0.0
 10
560.998019840085
 20
581.503659109241
 30
0.0
 10
562.1725076974566
 20
580.3114318776638
 30
0.0
 10
562.823101195304
 20
579.6510118656963
 30
0.0
  0
SPLINE
  5
2CA
330
1F
100
AcDbEntity
  8
0
  6
Continuous
 62
     8
370
    25
100
AcDbSpline
210
0.0
220
0.0
230
1.0
 70
     8
 71
     3
 72
    14
 73
    10
 74
     0
 42
0.00000001
 43
0.00000001
 40
0.0
 40
0.0
 40
0.0
 40
0.0
 40
0.0031852552385194
 40
0.0660750190615048
 40
0.2407424611081356
 40
0.2840853925492393
 40
0.4898025057616166
 40
0.6963328567022852
 40
1.0
 40
1.0
 40
1.0
 40
1.0
 10
625.8229465993265
 20
560.4543738212285
 30
0.0
 10
625.8253215134713
 20
560.4532162613025
 30
0.0
 10
625.874586795412
 20
560.4292038075263
 30
0.0
 10
625.6965048625884
 20
560.5153129084895
 30
0.0
 10
625.3434589334918
 20
560.6862646177476
 30
0.0
 10
624.4823193175907
 20
561.1373036370767
 30
0.0
 10
623.3559397186245
 20
561.7838504095189
 30
0.0
 10
621.3628522030245
 20
563.1009153417012
 30
0.0
 10
620.004841740237
 20
564.4487732142694
 30
0.0
 10
619.1965603149847
 20
565.2510118656863
 30
0.0
  0
SPLINE
  5
2CB
330
1F
100
AcDbEntity
  8
0
  6
Continuous
 62
     8
370
    25
100
AcDbSpline
210
0.0
220
0.0
230
1.0
 70
     8
 71
     3
 72
    14
 73
    10
 74
     0
 42
0.00000001
 43
0.00000001
 40
0.0
 40
0.0
 40
0.0
 40
0.0
 40
0.3072009379225578
 40
0.5118202344325469
 40
0.7156452625572901
 40
0.8813654279282003
 40
0.9338689743658305
 40
0.996736001929969
 40
0.9999999999999999
 40
0.9999999999999999
 40
0.9999999999999999
 40
0.9999999999999999
 10
562.8231011953131
 20
565.2510118656862
 30
0.0
 10
562.0047920953424
 20
564.4399419368258
 30
0.0
 10
560.6414266114425
 20
563.0886374651081
 30
0.0
 10
558.6488188502005
 20
561.7748916534553
 30
0.0
 10
557.2343400867337
 20
560.9644729975661
 30
0.0
 10
556.4581557197671
 20
560.580685098558
 30
0.0
 10
556.2424081513778
 20
560.4762720102568
 30
0.0
 10
556.1449942140861
 20
560.4291649865289
 30
0.0
 10
556.1944471350988
 20
560.4532685117947
 30
0.0
 10
556.1968879597677
 20
560.4544581782061
 30
0.0
  0
SPLINE
  5
2CC
330
1F
100
AcDbEntity
  8
0
  6
Continuous
 62
     8
370
    25
100
AcDbSpline
210
0.0
220
0.0
230
1.0
 70
     8
 71
     3
 72
    13
 73
     9
 74
     0
 42
0.00000001
 43
0.00000001
 40
0.0
 40
0.0
 40
0.0
 40
0.0
 40
0.2467691067484779
 40
0.4411944107463611
 40
0.6395462081537898
 40
0.7566521133026712
 40
0.8773631356520936
 40
1.0
 40
1.0
 40
1.0
 40
1.0
 10
619.1965603149847
 20
579.6510118656863
 30
0.0
 10
619.8473914655945
 20
580.3116276164413
 30
0.0
 10
621.0110017317745
 20
581.492731607636
 30
0.0
 10
622.7867603646913
 20
582.7575194202328
 30
0.0
 10
624.1259600658586
 20
583.5706363938668
 30
0.0
 10
625.0782774051783
 20
584.0809018305954
 30
0.0
 10
625.7032487771835
 20
584.3911195315867
 30
0.0
 10
625.7691339457912
 20
584.4220884074911
 30
0.0
 10
625.8023372359232
 20
584.4376953884467
 30
0.0
  0
ARC
  5
2CD
330
1F
100
AcDbEntity
  8
0
  6
Continuous
 62
     8
370
    25
100
AcDbCircle
 10
591.0098307551
 20
572.4510118657
 30
0.0
 40
11.05993649053901
100
AcDbArc
 50
67.9957718913
 51
223.8789651087
  0
ARC
  5
2CE
330
1F
100
AcDbEntity
  8
0
  6
Continuous
 62
     8
370
    25
100
AcDbCircle
 10
591.0098307551
 20
572.4510118657
 30
0.0
 40
11.05993649053901
100
AcDbArc
 50
315.8505917197
 51
67.9957718913
  0
ARC
  5
2CF
330
1F
100
AcDbEntity
  8
0
  6
Continuous
 62
     8
370
    25
100
AcDbCircle
 10
591.0098307551
 20
572.4510118657
 30
0.0
 40
11.30993649053896
100
AcDbArc
 50
314.4598180426
 51
67.9957718913
  0
ARC
  5
2D0
330
1F
100
AcDbEntity
  8
0
  6
Continuous
 62
     8
370
    25
100
AcDbCircle
 10
591.0098307551
 20
572.4510118657
 30
0.0
 40
11.30993649053891
100
AcDbArc
 50
67.9957718913
 51
225.2823535406
  0
LINE
  5
2D1
330
1F
100
AcDbEntity
  8
0
  6
Continuous
 62
     8
370
    25
100
AcDbLine
 10
582.5462082423
 20
560.7173988824
 30
0.0
 11
583.1098307551
 21
560.4162187771
 31
0.0
  0
SPLINE
  5
2D2
330
1F
100
AcDbEntity
  8
0
  6
Continuous
 62
     8
370
    25
100
AcDbSpline
210
0.0
220
0.0
230
1.0
 70
     8
 71
     3
 72
    10
 73
     6
 74
     0
 42
0.00000001
 43
0.00000001
 40
0.0
 40
0.0
 40
0.0
 40
0.0
 40
0.0742526680891366
 40
0.386477030879155
 40
1.0
 40
1.0
 40
1.0
 40
1.0
 10
598.9098307551483
 20
560.560705706272
 30
0.0
 10
599.0026822206452
 20
560.624551858867
 30
0.0
 10
599.4859639615105
 20
560.956864112729
 30
0.0
 10
600.6771296476996
 20
561.9011091602476
 30
0.0
 10
601.7003601888039
 20
562.864608944317
 30
0.0
 10
602.3784884620744
 20
563.503151695555
 30
0.0
  0
ARC
  5
2D3
330
1F
100
AcDbEntity
  8
0
  6
Continuous
 62
     8
370
    25
100
AcDbCircle
 10
591.0098307551
 20
572.4510118657
 30
0.0
 40
9.37500000000001
100
AcDbArc
 50
328.4501776621
 51
211.0859666693
  0
ELLIPSE
  5
2D4
330
1F
100
AcDbEntity
  8
0
  6
Continuous
 62
     8
370
    25
100
AcDbEllipse
 10
484.7487453077
 20
569.1117760877
 30
0.0
 11
1.499999304622804
 21
-0.0828726334386829
 31
0.0
210
0.0
220
0.0
230
1.0
 40
0.0174284859
 41
3.125102257569404
 42
3.623660891432
  0
ELLIPSE
  5
2D5
330
1F
100
AcDbEntity
  8
0
  6
Continuous
 62
     8
370
    25
100
AcDbEllipse
 10
697.2709162026
 20
576.0356689325
 30
0.0
 11
1.499999304622861
 21
-0.0828726334386829
 31
0.0
210
0.0
220
0.0
230
1.0
 40
0.0174284859
 41
6.266694911160005
 42
6.765253545021343
  0
ARC
  5
2D6
330
1F
100
AcDbEntity
  8
0
  6
Continuous
 62
     8
370
    25
100
AcDbCircle
 10
540.2098307551
 20
572.4510118657
 30
0.0
 40
24.79999999999996
100
AcDbArc
 50
270.0
 51
331.0614722598
  0
ARC
  5
2D7
330
1F
100
AcDbEntity
  8
0
  6
Continuous
 62
     8
370
    25
100
AcDbCircle
 10
540.2098307551
 20
572.4510118657
 30
0.0
 40
24.80000000000001
100
AcDbArc
 50
28.9385277402
 51
167.199639345
  0
ARC
  5
2D8
330
1F
100
AcDbEntity
  8
0
  6
Continuous
 62
     8
370
    25
100
AcDbCircle
 10
540.2098307551
 20
572.4510118657
 30
0.0
 40
24.79999999999995
100
AcDbArc
 50
192.8192131133
 51
270.0
  0
ARC
  5
2D9
330
1F
100
AcDbEntity
  8
0
  6
Continuous
 62
     8
370
    25
100
AcDbCircle
 10
641.8098307551
 20
572.4510118657
 30
0.0
 40
24.80000000000007
100
AcDbArc
 50
90.0
 51
151.0614722598
  0
ARC
  5
2DA
330
1F
100
AcDbEntity
  8
0
  6
Continuous
 62
     8
370
    25
100
AcDbCircle
 10
641.8098307551
 20
572.4510118657
 30
0.0
 40
24.79999999999997
100
AcDbArc
 50
208.9385277402
 51
347.805874043
  0
ARC
  5
2DB
330
1F
100
AcDbEntity
  8
0
  6
Continuous
 62
     8
370
    25
100
AcDbCircle
 10
641.8098307551
 20
572.4510118657
 30
0.0
 40
24.80000000000007
100
AcDbArc
 50
13.4447769045
 51
90.0
  0
ENDSEC
  0
SECTION
  2
OBJECTS
  0
DICTIONARY
  5
C
330
0
100
AcDbDictionary
281
     1
  3
ACAD_GROUP
350
D
  3
ACAD_LAYOUT
350
1A
  3
ACAD_MLINESTYLE
350
17
  3
ACAD_PLOTSETTINGS
350
19
  3
ACAD_PLOTSTYLENAME
350
E
  3
ACAD_SCALELIST
350
47
  3
DWGPROPS
350
2DC
  0
DICTIONARY
  5
D
102
{ACAD_REACTORS
330
C
102
}
330
C
100
AcDbDictionary
281
     1
  0
DICTIONARY
  5
1A
102
{ACAD_REACTORS
330
C
102
}
330
C
100
AcDbDictionary
281
     1
  3
Layout1
350
1E
  3
Layout2
350
26
  3
Model
350
22
  0
DICTIONARY
  5
17
102
{ACAD_REACTORS
330
C
102
}
330
C
100
AcDbDictionary
281
     1
  3
Standard
350
18
  0
DICTIONARY
  5
19
102
{ACAD_REACTORS
330
C
102
}
330
C
100
AcDbDictionary
281
     1
  0
ACDBDICTIONARYWDFLT
  5
E
102
{ACAD_REACTORS
330
C
102
}
330
C
100
AcDbDictionary
281
     1
  3
Normal
350
F
100
AcDbDictionaryWithDefault
340
F
  0
DICTIONARY
  5
47
102
{ACAD_REACTORS
330
C
102
}
330
C
100
AcDbDictionary
281
     1
  3
A0
350
48
  3
A1
350
49
  3
A2
350
4A
  3
A3
350
4B
  3
A4
350
4C
  3
A5
350
4D
  3
A6
350
4E
  3
A7
350
4F
  3
A8
350
50
  3
A9
350
51
  3
B0
350
52
  3
B1
350
53
  3
B2
350
54
  3
B3
350
55
  3
B4
350
56
  3
B5
350
57
  3
B6
350
58
  3
B7
350
59
  3
B8
350
5A
  3
B9
350
5B
  3
C0
350
5C
  3
C1
350
5D
  3
C2
350
5E
  3
C3
350
5F
  3
C4
350
60
  3
C5
350
61
  3
C6
350
62
  3
C7
350
63
  3
C8
350
64
  3
C9
350
65
  3
D0
350
66
  3
D1
350
67
  3
D2
350
68
  0
XRECORD
  5
2DC
102
{ACAD_REACTORS
330
C
102
}
330
C
100
AcDbXrecord
280
     1
  1
DWGPROPS COOKIE
  2

  3

  4

  6

  7

  8
designer5
  9

300
=
301
=
302
=
303
=
304
=
305
=
306
=
307
=
308
=
309
=
 40
0.0
 41
2460383.242252489
 42
2460383.242253217
  1

 90
        0
  0
LAYOUT
  5
1E
102
{ACAD_REACTORS
330
1A
102
}
330
1A
100
AcDbPlotSettings
  1

  2
none_device
  4

  6

 40
0.0
 41
0.0
 42
0.0
 43
0.0
 44
0.0
 45
0.0
 46
0.0
 47
0.0
 48
0.0
 49
0.0
140
0.0
141
0.0
142
1.0
143
1.0
 70
   688
 72
     1
 73
     0
 74
     5
  7

 75
    16
147
1.0
148
0.0
149
0.0
100
AcDbLayout
  1
Layout1
 70
     1
 71
     1
 10
0.0
 20
0.0
 11
420.0
 21
297.0
 12
0.0
 22
0.0
 32
0.0
 14
1.0000000000E+20
 24
1.0000000000E+20
 34
1.0000000000E+20
 15
-1.0000000000E+20
 25
-1.0000000000E+20
 35
-1.0000000000E+20
146
0.0
 13
0.0
 23
0.0
 33
0.0
 16
1.0
 26
0.0
 36
0.0
 17
0.0
 27
1.0
 37
0.0
 76
     0
330
1B
  0
LAYOUT
  5
26
102
{ACAD_REACTORS
330
1A
102
}
330
1A
100
AcDbPlotSettings
  1

  2
none_device
  4

  6

 40
0.0
 41
0.0
 42
0.0
 43
0.0
 44
0.0
 45
0.0
 46
0.0
 47
0.0
 48
0.0
 49
0.0
140
0.0
141
0.0
142
1.0
143
1.0
 70
   688
 72
     1
 73
     0
 74
     5
  7

 75
    16
147
1.0
148
0.0
149
0.0
100
AcDbLayout
  1
Layout2
 70
     1
 71
     2
 10
0.0
 20
0.0
 11
0.0
 21
0.0
 12
0.0
 22
0.0
 32
0.0
 14
0.0
 24
0.0
 34
0.0
 15
0.0
 25
0.0
 35
0.0
146
0.0
 13
0.0
 23
0.0
 33
0.0
 16
1.0
 26
0.0
 36
0.0
 17
0.0
 27
1.0
 37
0.0
 76
     0
330
23
  0
LAYOUT
  5
22
102
{ACAD_REACTORS
330
1A
102
}
330
1A
100
AcDbPlotSettings
  1

  2
none_device
  4
Letter_(8.50_x_11.00_Inches)
  6

 40
6.35
 41
6.35
 42
6.35000508
 43
6.35000508
 44
215.9
 45
279.4
 46
0.0
 47
0.0
 48
0.0
 49
0.0
140
0.0
141
0.0
142
1.0
143
1.0
 70
  1712
 72
     1
 73
     0
 74
     0
  7

 75
     0
147
1.0
148
0.0
149
0.0
100
AcDbLayout
  1
Model
 70
     1
 71
     0
 10
0.0
 20
0.0
 11
1189.0
 21
841.0
 12
0.0
 22
0.0
 32
0.0
 14
0.0
 24
0.0
 34
0.0
 15
1189.0
 25
841.0
 35
0.0
146
0.0
 13
0.0
 23
0.0
 33
0.0
 16
1.0
 26
0.0
 36
0.0
 17
0.0
 27
1.0
 37
0.0
 76
     0
330
1F
331
29
  0
MLINESTYLE
  5
18
102
{ACAD_REACTORS
330
17
102
}
330
17
100
AcDbMlineStyle
  2
Standard
 70
     0
  3

 62
   256
 51
90.0
 52
90.0
 71
     2
 49
0.5
 62
   256
  6
BYLAYER
 49
-0.5
 62
   256
  6
BYLAYER
  0
ACDBPLACEHOLDER
  5
F
102
{ACAD_REACTORS
330
E
102
}
330
E
  0
SCALE
  5
48
102
{ACAD_REACTORS
330
47
102
}
330
47
100
AcDbScale
 70
     0
300
1:1
140
1.0
141
1.0
290
     1
  0
SCALE
  5
49
102
{ACAD_REACTORS
330
47
102
}
330
47
100
AcDbScale
 70
     0
300
1:2
140
1.0
141
2.0
290
     0
  0
SCALE
  5
4A
102
{ACAD_REACTORS
330
47
102
}
330
47
100
AcDbScale
 70
     0
300
1:4
140
1.0
141
4.0
290
     0
  0
SCALE
  5
4B
102
{ACAD_REACTORS
330
47
102
}
330
47
100
AcDbScale
 70
     0
300
1:5
140
1.0
141
5.0
290
     0
  0
SCALE
  5
4C
102
{ACAD_REACTORS
330
47
102
}
330
47
100
AcDbScale
 70
     0
300
1:8
140
1.0
141
8.0
290
     0
  0
SCALE
  5
4D
102
{ACAD_REACTORS
330
47
102
}
330
47
100
AcDbScale
 70
     0
300
1:10
140
1.0
141
10.0
290
     0
  0
SCALE
  5
4E
102
{ACAD_REACTORS
330
47
102
}
330
47
100
AcDbScale
 70
     0
300
1:16
140
1.0
141
16.0
290
     0
  0
SCALE
  5
4F
102
{ACAD_REACTORS
330
47
102
}
330
47
100
AcDbScale
 70
     0
300
1:20
140
1.0
141
20.0
290
     0
  0
SCALE
  5
50
102
{ACAD_REACTORS
330
47
102
}
330
47
100
AcDbScale
 70
     0
300
1:30
140
1.0
141
30.0
290
     0
  0
SCALE
  5
51
102
{ACAD_REACTORS
330
47
102
}
330
47
100
AcDbScale
 70
     0
300
1:40
140
1.0
141
40.0
290
     0
  0
SCALE
  5
52
102
{ACAD_REACTORS
330
47
102
}
330
47
100
AcDbScale
 70
     0
300
1:50
140
1.0
141
50.0
290
     0
  0
SCALE
  5
53
102
{ACAD_REACTORS
330
47
102
}
330
47
100
AcDbScale
 70
     0
300
1:100
140
1.0
141
100.0
290
     0
  0
SCALE
  5
54
102
{ACAD_REACTORS
330
47
102
}
330
47
100
AcDbScale
 70
     0
300
2:1
140
2.0
141
1.0
290
     0
  0
SCALE
  5
55
102
{ACAD_REACTORS
330
47
102
}
330
47
100
AcDbScale
 70
     0
300
4:1
140
4.0
141
1.0
290
     0
  0
SCALE
  5
56
102
{ACAD_REACTORS
330
47
102
}
330
47
100
AcDbScale
 70
     0
300
8:1
140
8.0
141
1.0
290
     0
  0
SCALE
  5
57
102
{ACAD_REACTORS
330
47
102
}
330
47
100
AcDbScale
 70
     0
300
10:1
140
10.0
141
1.0
290
     0
  0
SCALE
  5
58
102
{ACAD_REACTORS
330
47
102
}
330
47
100
AcDbScale
 70
     0
300
100:1
140
100.0
141
1.0
290
     0
  0
SCALE
  5
59
102
{ACAD_REACTORS
330
47
102
}
330
47
100
AcDbScale
 70
     0
300
1/128" = 1'-0"
140
0.0078125
141
12.0
290
     0
  0
SCALE
  5
5A
102
{ACAD_REACTORS
330
47
102
}
330
47
100
AcDbScale
 70
     0
300
1/64" = 1'-0"
140
0.015625
141
12.0
290
     0
  0
SCALE
  5
5B
102
{ACAD_REACTORS
330
47
102
}
330
47
100
AcDbScale
 70
     0
300
1/32" = 1'-0"
140
0.03125
141
12.0
290
     0
  0
SCALE
  5
5C
102
{ACAD_REACTORS
330
47
102
}
330
47
100
AcDbScale
 70
     0
300
1/16" = 1'-0"
140
0.0625
141
12.0
290
     0
  0
SCALE
  5
5D
102
{ACAD_REACTORS
330
47
102
}
330
47
100
AcDbScale
 70
     0
300
3/32" = 1'-0"
140
0.09375
141
12.0
290
     0
  0
SCALE
  5
5E
102
{ACAD_REACTORS
330
47
102
}
330
47
100
AcDbScale
 70
     0
300
1/8" = 1'-0"
140
0.125
141
12.0
290
     0
  0
SCALE
  5
5F
102
{ACAD_REACTORS
330
47
102
}
330
47
100
AcDbScale
 70
     0
300
3/16" = 1'-0"
140
0.1875
141
12.0
290
     0
  0
SCALE
  5
60
102
{ACAD_REACTORS
330
47
102
}
330
47
100
AcDbScale
 70
     0
300
1/4" = 1'-0"
140
0.25
141
12.0
290
     0
  0
SCALE
  5
61
102
{ACAD_REACTORS
330
47
102
}
330
47
100
AcDbScale
 70
     0
300
3/8" = 1'-0"
140
0.375
141
12.0
290
     0
  0
SCALE
  5
62
102
{ACAD_REACTORS
330
47
102
}
330
47
100
AcDbScale
 70
     0
300
1/2" = 1'-0"
140
0.5
141
12.0
290
     0
  0
SCALE
  5
63
102
{ACAD_REACTORS
330
47
102
}
330
47
100
AcDbScale
 70
     0
300
3/4" = 1'-0"
140
0.75
141
12.0
290
     0
  0
SCALE
  5
64
102
{ACAD_REACTORS
330
47
102
}
330
47
100
AcDbScale
 70
     0
300
1" = 1'-0"
140
1.0
141
12.0
290
     0
  0
SCALE
  5
65
102
{ACAD_REACTORS
330
47
102
}
330
47
100
AcDbScale
 70
     0
300
1-1/2" = 1'-0"
140
1.5
141
12.0
290
     0
  0
SCALE
  5
66
102
{ACAD_REACTORS
330
47
102
}
330
47
100
AcDbScale
 70
     0
300
3" = 1'-0"
140
3.0
141
12.0
290
     0
  0
SCALE
  5
67
102
{ACAD_REACTORS
330
47
102
}
330
47
100
AcDbScale
 70
     0
300
6" = 1'-0"
140
6.0
141
12.0
290
     0
  0
SCALE
  5
68
102
{ACAD_REACTORS
330
47
102
}
330
47
100
AcDbScale
 70
     0
300
1'-0" = 1'-0"
140
12.0
141
12.0
290
     0
  0
ENDSEC
  0
EOF
