  0
SECTION
  2
HEADER
  9
$ACADVER
  1
AC1015
  9
$ACADMAINTVER
 70
     6
  9
$DWGCODEPAGE
  3
ANSI_1252
  9
$INSBASE
 10
0.0
 20
0.0
 30
0.0
  9
$EXTMIN
 10
0.0
 20
0.0
 30
0.0
  9
$EXTMAX
 10
1189.0
 20
841.0
 30
0.0
  9
$LIMMIN
 10
0.0
 20
0.0
  9
$LIMMAX
 10
1189.0
 20
841.0
  9
$ORTHOMODE
 70
     0
  9
$REGENMODE
 70
     1
  9
$FILLMODE
 70
     1
  9
$QTEXTMODE
 70
     0
  9
$MIRRTEXT
 70
     1
  9
$LTSCALE
 40
1.0
  9
$ATTMODE
 70
     1
  9
$TEXTSIZE
 40
3.5
  9
$TRACEWID
 40
1.0
  9
$TEXTSTYLE
  7
Standard
  9
$CLAYER
  8
0
  9
$CELTYPE
  6
ByLayer
  9
$CECOLOR
 62
   256
  9
$CELTSCALE
 40
1.0
  9
$DISPSILH
 70
     0
  9
$DIMSCALE
 40
1.0
  9
$DIMASZ
 40
3.302
  9
$DIMEXO
 40
1.0
  9
$DIMDLI
 40
3.75
  9
$DIMRND
 40
0.0
  9
$DIMDLE
 40
0.0
  9
$DIMEXE
 40
1.0
  9
$DIMTP
 40
0.0
  9
$DIMTM
 40
0.0
  9
$DIMTXT
 40
3.5
  9
$DIMCEN
 40
2.5
  9
$DIMTSZ
 40
0.0
  9
$DIMTOL
 70
     0
  9
$DIMLIM
 70
     0
  9
$DIMTIH
 70
     1
  9
$DIMTOH
 70
     1
  9
$DIMSE1
 70
     0
  9
$DIMSE2
 70
     0
  9
$DIMTAD
 70
     1
  9
$DIMZIN
 70
     1
  9
$DIMBLK
  1

  9
$DIMASO
 70
     1
  9
$DIMSHO
 70
     1
  9
$DIMPOST
  1

  9
$DIMAPOST
  1

  9
$DIMALT
 70
     0
  9
$DIMALTD
 70
     3
  9
$DIMALTF
 40
0.0393700787
  9
$DIMLFAC
 40
1.0
  9
$DIMTOFL
 70
     1
  9
$DIMTVP
 40
0.0
  9
$DIMTIX
 70
     0
  9
$DIMSOXD
 70
     0
  9
$DIMSAH
 70
     0
  9
$DIMBLK1
  1

  9
$DIMBLK2
  1

  9
$DIMSTYLE
  2
ISO-25
  9
$DIMCLRD
 70
     0
  9
$DIMCLRE
 70
     0
  9
$DIMCLRT
 70
     0
  9
$DIMTFAC
 40
1.0
  9
$DIMGAP
 40
1.524
  9
$DIMJUST
 70
     0
  9
$DIMSD1
 70
     0
  9
$DIMSD2
 70
     0
  9
$DIMTOLJ
 70
     0
  9
$DIMTZIN
 70
     1
  9
$DIMALTZ
 70
     0
  9
$DIMALTTZ
 70
     0
  9
$DIMUPT
 70
     0
  9
$DIMDEC
 70
     2
  9
$DIMTDEC
 70
     2
  9
$DIMALTU
 70
     2
  9
$DIMALTTD
 70
     3
  9
$DIMTXSTY
  7
Standard
  9
$DIMAUNIT
 70
     0
  9
$DIMADEC
 70
     2
  9
$DIMALTRND
 40
0.0
  9
$DIMAZIN
 70
     0
  9
$DIMDSEP
 70
    44
  9
$DIMATFIT
 70
     3
  9
$DIMFRAC
 70
     0
  9
$DIMLDRBLK
  1

  9
$DIMLUNIT
 70
     2
  9
$DIMLWD
 70
    -2
  9
$DIMLWE
 70
    -2
  9
$DIMTMOVE
 70
     0
  9
$LUNITS
 70
     2
  9
$LUPREC
 70
     2
  9
$SKETCHINC
 40
1.0
  9
$FILLETRAD
 40
10.0
  9
$AUNITS
 70
     0
  9
$AUPREC
 70
     2
  9
$MENU
  1
.
  9
$ELEVATION
 40
0.0
  9
$PELEVATION
 40
0.0
  9
$THICKNESS
 40
0.0
  9
$LIMCHECK
 70
     0
  9
$CHAMFERA
 40
0.0
  9
$CHAMFERB
 40
0.0
  9
$CHAMFERC
 40
0.0
  9
$CHAMFERD
 40
0.0
  9
$SKPOLY
 70
     0
  9
$TDCREATE
 40
2460383.470319074
  9
$TDUCREATE
 40
2460383.241152408
  9
$TDUPDATE
 40
2460383.470319792
  9
$TDUUPDATE
 40
2460383.241153125
  9
$TDINDWG
 40
0.0000000116
  9
$TDUSRTIMER
 40
0.0000000116
  9
$USRTIMER
 70
     1
  9
$ANGBASE
 50
0.0
  9
$ANGDIR
 70
     0
  9
$PDMODE
 70
     0
  9
$PDSIZE
 40
-1.0
  9
$PLINEWID
 40
0.0
  9
$SPLFRAME
 70
     0
  9
$SPLINETYPE
 70
     6
  9
$SPLINESEGS
 70
     8
  9
$HANDSEED
  5
2EF
  9
$SURFTAB1
 70
     6
  9
$SURFTAB2
 70
     6
  9
$SURFTYPE
 70
     6
  9
$SURFU
 70
     6
  9
$SURFV
 70
     6
  9
$UCSBASE
  2

  9
$UCSNAME
  2

  9
$UCSORG
 10
0.0
 20
0.0
 30
0.0
  9
$UCSXDIR
 10
1.0
 20
0.0
 30
0.0
  9
$UCSYDIR
 10
0.0
 20
1.0
 30
0.0
  9
$UCSORTHOREF
  2

  9
$UCSORTHOVIEW
 70
     0
  9
$UCSORGTOP
 10
0.0
 20
0.0
 30
0.0
  9
$UCSORGBOTTOM
 10
0.0
 20
0.0
 30
0.0
  9
$UCSORGLEFT
 10
0.0
 20
0.0
 30
0.0
  9
$UCSORGRIGHT
 10
0.0
 20
0.0
 30
0.0
  9
$UCSORGFRONT
 10
0.0
 20
0.0
 30
0.0
  9
$UCSORGBACK
 10
0.0
 20
0.0
 30
0.0
  9
$PUCSBASE
  2

  9
$PUCSNAME
  2

  9
$PUCSORG
 10
0.0
 20
0.0
 30
0.0
  9
$PUCSXDIR
 10
1.0
 20
0.0
 30
0.0
  9
$PUCSYDIR
 10
0.0
 20
1.0
 30
0.0
  9
$PUCSORTHOREF
  2

  9
$PUCSORTHOVIEW
 70
     0
  9
$PUCSORGTOP
 10
0.0
 20
0.0
 30
0.0
  9
$PUCSORGBOTTOM
 10
0.0
 20
0.0
 30
0.0
  9
$PUCSORGLEFT
 10
0.0
 20
0.0
 30
0.0
  9
$PUCSORGRIGHT
 10
0.0
 20
0.0
 30
0.0
  9
$PUCSORGFRONT
 10
0.0
 20
0.0
 30
0.0
  9
$PUCSORGBACK
 10
0.0
 20
0.0
 30
0.0
  9
$USERI1
 70
     0
  9
$USERI2
 70
     0
  9
$USERI3
 70
     0
  9
$USERI4
 70
     0
  9
$USERI5
 70
     0
  9
$USERR1
 40
0.0
  9
$USERR2
 40
0.0
  9
$USERR3
 40
0.0
  9
$USERR4
 40
0.0
  9
$USERR5
 40
0.0
  9
$WORLDVIEW
 70
     1
  9
$SHADEDGE
 70
     3
  9
$SHADEDIF
 70
    70
  9
$TILEMODE
 70
     1
  9
$MAXACTVP
 70
    64
  9
$PINSBASE
 10
0.0
 20
0.0
 30
0.0
  9
$PLIMCHECK
 70
     0
  9
$PEXTMIN
 10
1.0000000000E+20
 20
1.0000000000E+20
 30
1.0000000000E+20
  9
$PEXTMAX
 10
-1.0000000000E+20
 20
-1.0000000000E+20
 30
-1.0000000000E+20
  9
$PLIMMIN
 10
0.0
 20
0.0
  9
$PLIMMAX
 10
420.0
 20
297.0
  9
$UNITMODE
 70
     0
  9
$VISRETAIN
 70
     1
  9
$PLINEGEN
 70
     0
  9
$PSLTSCALE
 70
     1
  9
$TREEDEPTH
 70
  3020
  9
$CMLSTYLE
  2
Standard
  9
$CMLJUST
 70
     0
  9
$CMLSCALE
 40
20.0
  9
$PROXYGRAPHICS
 70
     1
  9
$MEASUREMENT
 70
     1
  9
$CELWEIGHT
370
    -1
  9
$ENDCAPS
280
     0
  9
$JOINSTYLE
280
     0
  9
$LWDISPLAY
290
     1
  9
$INSUNITS
 70
     4
  9
$HYPERLINKBASE
  1

  9
$STYLESHEET
  1

  9
$XEDIT
290
     1
  9
$CEPSNTYPE
380
     0
  9
$PSTYLEMODE
290
     1
  9
$FINGERPRINTGUID
  2
{1afc7800-f61e-4f49-8835-c61125f34c5f}
  9
$VERSIONGUID
  2
{FAEB1C32-E019-11D5-929B-00C0DF256EC4}
  9
$EXTNAMES
290
     1
  9
$PSVPSCALE
 40
0.0
  9
$OLESTARTUP
290
     0
  0
ENDSEC
  0
SECTION
  2
CLASSES
  0
CLASS
  1
ACDBDICTIONARYWDFLT
  2
AcDbDictionaryWithDefault
  3
ObjectDBX Classes
 90
        0
280
     0
281
     0
  0
CLASS
  1
VISUALSTYLE
  2
AcDbVisualStyle
  3
ObjectDBX Classes
 90
     4095
280
     0
281
     0
  0
CLASS
  1
MATERIAL
  2
AcDbMaterial
  3
ObjectDBX Classes
 90
     1153
280
     0
281
     0
  0
CLASS
  1
SCALE
  2
AcDbScale
  3
ObjectDBX Classes
 90
     1153
280
     0
281
     0
  0
CLASS
  1
TABLESTYLE
  2
AcDbTableStyle
  3
ObjectDBX Classes
 90
     4095
280
     0
281
     0
  0
CLASS
  1
MLEADERSTYLE
  2
AcDbMLeaderStyle
  3
ACDB_MLEADERSTYLE_CLASS
 90
     4095
280
     0
281
     0
  0
CLASS
  1
SUN
  2
AcDbSun
  3
SCENEOE
 90
     1153
280
     0
281
     0
  0
CLASS
  1
ACDBPLACEHOLDER
  2
AcDbPlaceHolder
  3
ObjectDBX Classes
 90
        0
280
     0
281
     0
  0
CLASS
  1
LAYOUT
  2
AcDbLayout
  3
ObjectDBX Classes
 90
        0
280
     0
281
     0
  0
ENDSEC
  0
SECTION
  2
TABLES
  0
TABLE
  2
VPORT
  5
8
330
0
100
AcDbSymbolTable
 70
     1
  0
VPORT
  5
29
330
8
100
AcDbSymbolTableRecord
100
AcDbViewportTableRecord
  2
*Active
 70
     0
 10
0.0
 20
0.0
 11
1.0
 21
1.0
 12
594.5
 22
420.5
 13
0.0
 23
0.0
 14
10.0
 24
10.0
 15
10.0
 25
10.0
 16
0.0
 26
0.0
 36
1.0
 17
0.0
 27
0.0
 37
0.0
 40
841.0
 41
1.4137931034
 42
50.0
 43
0.0
 44
0.0
 50
0.0
 51
0.0
 71
     0
 72
  2000
 73
     1
 74
     3
 75
     0
 76
     0
 77
     0
 78
     0
281
     0
 65
     1
110
0.0
120
0.0
130
0.0
111
1.0
121
0.0
131
0.0
112
0.0
122
1.0
132
0.0
 79
     0
146
0.0
  0
ENDTAB
  0
TABLE
  2
LTYPE
  5
5
330
0
100
AcDbSymbolTable
 70
     6
  0
LTYPE
  5
14
330
5
100
AcDbSymbolTableRecord
100
AcDbLinetypeTableRecord
  2
ByBlock
 70
     0
  3

 72
    65
 73
     0
 40
0.0
  0
LTYPE
  5
15
330
5
100
AcDbSymbolTableRecord
100
AcDbLinetypeTableRecord
  2
ByLayer
 70
     0
  3

 72
    65
 73
     0
 40
0.0
  0
LTYPE
  5
16
330
5
100
AcDbSymbolTableRecord
100
AcDbLinetypeTableRecord
  2
Continuous
 70
     0
  3
Solid line
 72
    65
 73
     0
 40
0.0
  0
LTYPE
  5
6E
330
5
100
AcDbSymbolTableRecord
100
AcDbLinetypeTableRecord
  2
HIDDEN
 70
     0
  3
Hidden __ __ __ __ __ __ __ __ __ __ __ __ __ __
 72
    65
 73
     2
 40
1.905
 49
1.27
 74
     0
 49
-0.635
 74
     0
  0
LTYPE
  5
6F
330
5
100
AcDbSymbolTableRecord
100
AcDbLinetypeTableRecord
  2
PHANTOM
 70
     0
  3
Phantom ______  __  __  ______  __  __  ______
 72
    65
 73
     6
 40
12.7
 49
6.35
 74
     0
 49
-1.27
 74
     0
 49
1.27
 74
     0
 49
-1.27
 74
     0
 49
1.27
 74
     0
 49
-1.27
 74
     0
  0
LTYPE
  5
70
330
5
100
AcDbSymbolTableRecord
100
AcDbLinetypeTableRecord
  2
CENTER
 70
     0
  3
Center ____ _ ____ _ ____ _ ____ _ ____ _ ____
 72
    65
 73
     4
 40
10.16
 49
6.35
 74
     0
 49
-1.27
 74
     0
 49
1.27
 74
     0
 49
-1.27
 74
     0
  0
LTYPE
  5
71
330
5
100
AcDbSymbolTableRecord
100
AcDbLinetypeTableRecord
  2
CENTERX2
 70
     0
  3
Center (2x) ________  __  ________  __  _____
 72
    65
 73
     4
 40
20.32
 49
12.7
 74
     0
 49
-2.54
 74
     0
 49
2.54
 74
     0
 49
-2.54
 74
     0
  0
LTYPE
  5
72
330
5
100
AcDbSymbolTableRecord
100
AcDbLinetypeTableRecord
  2
DOT2
 70
     0
  3
Dot (.5x) ........................................
 72
    65
 73
     2
 40
0.635
 49
0.0
 74
     0
 49
-0.635
 74
     0
  0
ENDTAB
  0
TABLE
  2
LAYER
  5
2
330
0
100
AcDbSymbolTable
 70
     1
  0
LAYER
  5
10
330
2
100
AcDbSymbolTableRecord
100
AcDbLayerTableRecord
  2
0
 70
     0
 62
     7
  6
Continuous
370
    -3
390
F
  0
ENDTAB
  0
TABLE
  2
STYLE
  5
3
330
0
100
AcDbSymbolTable
 70
     1
  0
STYLE
  5
11
330
3
100
AcDbSymbolTableRecord
100
AcDbTextStyleTableRecord
  2
Standard
 70
     0
 40
0.0
 41
1.0
 50
0.0
 71
     0
 42
3.5
  3
txt
  4

  0
ENDTAB
  0
TABLE
  2
VIEW
  5
6
330
0
100
AcDbSymbolTable
 70
     0
  0
ENDTAB
  0
TABLE
  2
UCS
  5
7
330
0
100
AcDbSymbolTable
 70
     0
  0
ENDTAB
  0
TABLE
  2
APPID
  5
9
330
0
100
AcDbSymbolTable
 70
     1
  0
APPID
  5
12
330
9
100
AcDbSymbolTableRecord
100
AcDbRegAppTableRecord
  2
ACAD
 70
     0
  0
ENDTAB
  0
TABLE
  2
DIMSTYLE
  5
A
330
0
100
AcDbSymbolTable
 70
     1
100
AcDbDimStyleTable
  0
DIMSTYLE
105
27
330
A
100
AcDbSymbolTableRecord
100
AcDbDimStyleTableRecord
  2
ISO-25
 70
     0
 41
2.5
 42
0.625
 43
3.75
 44
1.25
 73
     0
 74
     0
 77
     1
 78
     8
140
2.5
141
2.5
143
0.0393700787
147
0.625
171
     3
172
     1
178
     0
271
     2
272
     2
274
     3
278
    44
283
     0
284
     8
340
11
  0
ENDTAB
  0
TABLE
  2
BLOCK_RECORD
  5
1
330
0
100
AcDbSymbolTable
 70
     1
  0
BLOCK_RECORD
  5
1F
330
1
100
AcDbSymbolTableRecord
100
AcDbBlockTableRecord
  2
*Model_Space
340
22
  0
BLOCK_RECORD
  5
1B
330
1
100
AcDbSymbolTableRecord
100
AcDbBlockTableRecord
  2
*Paper_Space
340
1E
  0
BLOCK_RECORD
  5
23
330
1
100
AcDbSymbolTableRecord
100
AcDbBlockTableRecord
  2
*Paper_Space0
340
26
  0
ENDTAB
  0
ENDSEC
  0
SECTION
  2
BLOCKS
  0
BLOCK
  5
20
330
1F
100
AcDbEntity
  8
0
100
AcDbBlockBegin
  2
*Model_Space
 70
     0
 10
0.0
 20
0.0
 30
0.0
  3
*Model_Space
  1

  0
ENDBLK
  5
21
330
1F
100
AcDbEntity
  8
0
100
AcDbBlockEnd
  0
BLOCK
  5
1C
330
1B
100
AcDbEntity
 67
     1
  8
0
100
AcDbBlockBegin
  2
*Paper_Space
 70
     0
 10
0.0
 20
0.0
 30
0.0
  3
*Paper_Space
  1

  0
ENDBLK
  5
1D
330
1B
100
AcDbEntity
 67
     1
  8
0
100
AcDbBlockEnd
  0
BLOCK
  5
24
330
23
100
AcDbEntity
  8
0
100
AcDbBlockBegin
  2
*Paper_Space0
 70
     0
 10
0.0
 20
0.0
 30
0.0
  3
*Paper_Space0
  1

  0
ENDBLK
  5
25
330
23
100
AcDbEntity
  8
0
100
AcDbBlockEnd
  0
ENDSEC
  0
SECTION
  2
ENTITIES
  0
LINE
  5
73
330
1F
100
AcDbEntity
  8
0
  6
Continuous
 62
     7
370
    25
100
AcDbLine
 10
598.9098307551
 20
359.6295786826
 30
0.0
 11
598.9098307551
 21
572.4510118657
 31
0.0
  0
LINE
  5
74
330
1F
100
AcDbEntity
  8
0
  6
Continuous
 62
     7
370
    25
100
AcDbLine
 10
583.1098307551
 20
572.4510118657
 30
0.0
 11
583.1098307551
 21
359.6295786826
 31
0.0
  0
LINE
  5
75
330
1F
100
AcDbEntity
  8
0
  6
Continuous
 62
     7
370
    25
100
AcDbLine
 10
583.1098307551
 20
359.6295786826
 30
0.0
 11
583.1098307551
 21
359.4827220009
 31
0.0
  0
LINE
  5
76
330
1F
100
AcDbEntity
  8
0
  6
Continuous
 62
     7
370
    25
100
AcDbLine
 10
598.9098307551
 20
359.4827220009
 30
0.0
 11
598.9098307551
 21
359.6295786826
 31
0.0
  0
SPLINE
  5
77
330
1F
100
AcDbEntity
  8
0
  6
Continuous
 62
     7
370
    25
100
AcDbSpline
210
0.0
220
0.0
230
1.0
 70
     8
 71
     3
 72
    12
 73
     8
 74
     0
 42
0.00000001
 43
0.00000001
 40
0.0
 40
0.0
 40
0.0
 40
0.0
 40
0.0697698399663257
 40
0.2636037974166494
 40
0.5555244868336906
 40
0.7939774113771587
 40
1.0
 40
1.0
 40
1.0
 40
1.0
 10
551.4826216072431
 20
558.9176236011999
 30
0.0
 10
551.5760198478127
 20
558.9843122470128
 30
0.0
 10
551.9288962611466
 20
559.2362747037035
 30
0.0
 10
552.7461937891148
 20
559.7067250398283
 30
0.0
 10
553.8821711085129
 20
560.1459470810263
 30
0.0
 10
555.0977150698417
 20
560.4168057389927
 30
0.0
 10
555.8454969996095
 20
560.427348146731
 30
0.0
 10
556.1921076999351
 20
560.4322347469334
 30
0.0
  0
SPLINE
  5
78
330
1F
100
AcDbEntity
  8
0
  6
Continuous
 62
     7
370
    25
100
AcDbSpline
210
0.0
220
0.0
230
1.0
 70
     8
 71
     3
 72
    14
 73
    10
 74
     0
 42
0.00000001
 43
0.00000001
 40
0.0
 40
0.0
 40
0.0
 40
0.0
 40
0.1735488219606192
 40
0.3853977547475571
 40
0.5768688704322033
 40
0.744852890116567
 40
0.8852507054841772
 40
0.9933356568192592
 40
0.9999999999999999
 40
0.9999999999999999
 40
0.9999999999999999
 40
0.9999999999999999
 10
556.2429907976398
 20
584.4638679362674
 30
0.0
 10
555.9573448673718
 20
584.4649050675512
 30
0.0
 10
555.3230144297789
 20
584.4672082123586
 30
0.0
 10
554.3853209120622
 20
584.6373653485388
 30
0.0
 10
553.4838498147788
 20
584.9041454520316
 30
0.0
 10
552.7255961012377
 20
585.2258327128695
 30
0.0
 10
552.1250323414766
 20
585.5542201326542
 30
0.0
 10
551.7684812366164
 20
585.777833968349
 30
0.0
 10
551.6166415690988
 20
585.888453293496
 30
0.0
 10
551.6078231126799
 20
585.8948777787036
 30
0.0
  0
SPLINE
  5
79
330
1F
100
AcDbEntity
  8
0
  6
Continuous
 62
     7
370
    25
100
AcDbSpline
210
0.0
220
0.0
230
1.0
 70
     8
 71
     3
 72
    15
 73
    11
 74
     0
 42
0.00000001
 43
0.00000001
 40
0.0
 40
0.0
 40
0.0
 40
0.0
 40
0.0682450876373696
 40
0.2825036886301458
 40
0.4777276962712936
 40
0.6512515247530587
 40
0.7994004155915818
 40
0.9174371768885404
 40
0.9977464986524305
 40
1.0
 40
1.0
 40
1.0
 40
1.0
 10
625.8289574978984
 20
560.4344865365763
 30
0.0
 10
625.9435710370028
 20
560.4396371951545
 30
0.0
 10
626.4180190696
 20
560.4609585839548
 30
0.0
 10
627.218385671668
 20
560.3464793295012
 30
0.0
 10
628.1723311844879
 20
560.1211097489429
 30
0.0
 10
628.9868232109696
 20
559.8166556351972
 30
0.0
 10
629.6534355165345
 20
559.488726155839
 30
0.0
 10
630.144774869198
 20
559.1930493953363
 30
0.0
 10
630.4352232215153
 20
558.9944602842089
 30
0.0
 10
630.5353861806069
 20
558.9201146912961
 30
0.0
 10
630.5381200668136
 20
558.91808547418
 30
0.0
  0
SPLINE
  5
7A
330
1F
100
AcDbEntity
  8
0
  6
Continuous
 62
     7
370
    25
100
AcDbSpline
210
0.0
220
0.0
230
1.0
 70
     8
 71
     3
 72
    12
 73
     8
 74
     0
 42
0.00000001
 43
0.00000001
 40
0.0
 40
0.0
 40
0.0
 40
0.0
 40
0.145404985795583
 40
0.3243379739457193
 40
0.5139966876466713
 40
0.8541127914075146
 40
0.9999999999999999
 40
0.9999999999999999
 40
0.9999999999999999
 40
0.9999999999999999
 10
630.4073883460044
 20
585.9011615784183
 30
0.0
 10
630.2110436651363
 20
585.7671926151678
 30
0.0
 10
629.7730804437286
 20
585.468363645346
 30
0.0
 10
629.0164965575304
 20
585.0952353476935
 30
0.0
 10
627.9296413201897
 20
584.6977561247862
 30
0.0
 10
626.8359028622368
 20
584.4506167889263
 30
0.0
 10
626.0408158452959
 20
584.4754166947299
 30
0.0
 10
625.8021486952142
 20
584.4828610658672
 30
0.0
  0
LINE
  5
7B
330
1F
100
AcDbEntity
  8
0
  6
Continuous
 62
     7
370
    25
100
AcDbLine
 10
583.2309266057
 20
584.4510118657
 30
0.0
 11
556.2414185507
 21
584.4510118657
 31
0.0
  0
LINE
  5
7C
330
1F
100
AcDbEntity
  8
0
  6
Continuous
 62
     7
370
    25
100
AcDbLine
 10
625.8009808052
 20
584.4510118657
 30
0.0
 11
598.9199754165
 21
584.4510118657
 31
0.0
  0
LINE
  5
7D
330
1F
100
AcDbEntity
  8
0
  6
Continuous
 62
     7
370
    25
100
AcDbLine
 10
598.9098307551
 20
560.4510118657
 30
0.0
 11
625.8298432708
 21
560.4510118657
 31
0.0
  0
LINE
  5
7E
330
1F
100
AcDbEntity
  8
0
  6
Continuous
 62
     7
370
    25
100
AcDbLine
 10
556.1898182395
 20
560.4510118657
 30
0.0
 11
583.0996860938
 21
560.4510118657
 31
0.0
  0
LINE
  5
7F
330
1F
100
AcDbEntity
  8
0
  6
Continuous
 62
     7
370
    25
100
AcDbLine
 10
602.5598307551
 20
357.1276479737
 30
0.0
 11
602.5598307551
 21
359.0450890895
 31
0.0
  0
LINE
  5
80
330
1F
100
AcDbEntity
  8
0
  6
Continuous
 62
     7
370
    25
100
AcDbLine
 10
579.4598307551
 20
359.0450890895
 30
0.0
 11
579.4598307551
 21
357.1276479737
 31
0.0
  0
LINE
  5
81
330
1F
100
AcDbEntity
  8
0
  6
Continuous
 62
     7
370
    25
100
AcDbLine
 10
587.286574263
 20
346.3127619983
 30
0.0
 11
587.4638721912
 21
346.253039796
 31
0.0
  0
LINE
  5
82
330
1F
100
AcDbEntity
  8
0
  6
Continuous
 62
     7
370
    25
100
AcDbLine
 10
594.5557893191
 20
346.253039796
 30
0.0
 11
594.7330872473
 21
346.3127619983
 31
0.0
  0
SPLINE
  5
83
330
1F
100
AcDbEntity
  8
0
  6
Continuous
 62
     7
370
    25
100
AcDbSpline
210
0.0
220
0.0
230
1.0
 70
     8
 71
     3
 72
    10
 73
     6
 74
     0
 42
0.00000001
 43
0.00000001
 40
0.0
 40
0.0
 40
0.0
 40
0.0
 40
0.2692373214821565
 40
0.6867871858097989
 40
1.0
 40
1.0
 40
1.0
 40
1.0
 10
699.231768627132
 20
575.4990057906491
 30
0.0
 10
699.230631419688
 20
575.5315137349902
 30
0.0
 10
699.2277305607145
 20
575.6144370068741
 30
0.0
 10
699.1709991855255
 20
575.7257777845114
 30
0.0
 10
699.1112228628594
 20
575.7893193210417
 30
0.0
 10
699.0856020822769
 20
575.8165539131462
 30
0.0
  0
SPLINE
  5
84
330
1F
100
AcDbEntity
  8
0
  6
Continuous
 62
     7
370
    25
100
AcDbSpline
210
0.0
220
0.0
230
1.0
 70
     8
 71
     3
 72
    17
 73
    13
 74
     0
 42
0.00000001
 43
0.00000001
 40
0.0
 40
0.0
 40
0.0
 40
0.0
 40
0.1727939157605246
 40
0.4670908646424637
 40
0.5836036464445725
 40
0.6237329378319846
 40
0.6617158152047142
 40
0.7176264960717965
 40
0.7837734229449137
 40
0.8640117675634507
 40
0.9541263261861291
 40
1.0
 40
1.0
 40
1.0
 40
1.0
 10
698.227372473822
 20
569.3896961041689
 30
0.0
 10
698.3111660766918
 20
569.3956732742279
 30
0.0
 10
698.5376742048496
 20
569.411830564944
 30
0.0
 10
698.7162785748777
 20
569.4286047078485
 30
0.0
 10
698.7982465578314
 20
569.4385219981168
 30
0.0
 10
698.8600774866866
 20
569.4510543880754
 30
0.0
 10
698.9287050727766
 20
569.4716755488367
 30
0.0
 10
699.0218247278746
 20
569.517771990508
 30
0.0
 10
699.1240649688949
 20
569.6038856306807
 30
0.0
 10
699.208763597324
 20
569.735522477194
 30
0.0
 10
699.2519556360743
 20
569.8773109432175
 30
0.0
 10
699.2368979968364
 20
569.9660487924862
 30
0.0
 10
699.2318185188666
 20
569.9959832293073
 30
0.0
  0
LINE
  5
85
330
1F
100
AcDbEntity
  8
0
  6
Continuous
 62
     7
370
    25
100
AcDbLine
 10
698.2273724738
 20
576.0031702049
 30
0.0
 11
694.7440517829
 21
576.2453377332
 31
0.0
  0
LINE
  5
86
330
1F
100
AcDbEntity
  8
0
  6
Continuous
 62
     7
370
    25
100
AcDbLine
 10
694.7440517829
 20
569.1475285758
 30
0.0
 11
698.2273724738
 21
569.3896961042
 31
0.0
  0
ARC
  5
87
330
1F
100
AcDbEntity
  8
0
  6
Continuous
 62
     7
370
    25
100
AcDbCircle
 10
649.9188459604
 20
569.7245386787
 30
0.0
 40
8.999995138923012
100
AcDbArc
 50
257.1419190681
 51
270.0
  0
ARC
  5
88
330
1F
100
AcDbEntity
  8
0
  6
Continuous
 62
     7
370
    25
100
AcDbCircle
 10
649.9188459604
 20
569.7245386787
 30
0.0
 40
8.999995138922966
100
AcDbArc
 50
270.0
 51
305.1719294169
  0
SPLINE
  5
89
330
1F
100
AcDbEntity
  8
0
  6
Continuous
 62
     7
370
    25
100
AcDbSpline
210
0.0
220
0.0
230
1.0
 70
     8
 71
     3
 72
    10
 73
     6
 74
     0
 42
0.00000001
 43
0.00000001
 40
0.0
 40
0.0
 40
0.0
 40
0.0
 40
0.2692373214821812
 40
0.68678718580985
 40
1.0
 40
1.0
 40
1.0
 40
1.0
 10
482.7878928831657
 20
569.6484392295519
 30
0.0
 10
482.7890300906096
 20
569.6159312852108
 30
0.0
 10
482.7919309495834
 20
569.5330080133269
 30
0.0
 10
482.8486623247724
 20
569.4216672356896
 30
0.0
 10
482.9084386474384
 20
569.3581256991592
 30
0.0
 10
482.9340594280208
 20
569.3308911070548
 30
0.0
  0
SPLINE
  5
8A
330
1F
100
AcDbEntity
  8
0
  6
Continuous
 62
     7
370
    25
100
AcDbSpline
210
0.0
220
0.0
230
1.0
 70
     8
 71
     3
 72
    17
 73
    13
 74
     0
 42
0.00000001
 43
0.00000001
 40
0.0
 40
0.0
 40
0.0
 40
0.0
 40
0.1727939157605219
 40
0.4670908646424589
 40
0.5836036464445757
 40
0.6237329378319884
 40
0.6617158152047141
 40
0.7176264960717994
 40
0.7837734229449174
 40
0.8640117675634513
 40
0.9541263261861305
 40
1.0
 40
1.0
 40
1.0
 40
1.0
 10
483.7922890364757
 20
575.757748916032
 30
0.0
 10
483.7084954336059
 20
575.7517717459731
 30
0.0
 10
483.4819873054483
 20
575.735614455257
 30
0.0
 10
483.3033829354201
 20
575.7188403123525
 30
0.0
 10
483.2214149524665
 20
575.7089230220842
 30
0.0
 10
483.1595840236112
 20
575.6963906321255
 30
0.0
 10
483.0909564375212
 20
575.6757694713642
 30
0.0
 10
482.9978367824233
 20
575.6296730296929
 30
0.0
 10
482.8955965414028
 20
575.5435593895203
 30
0.0
 10
482.8108979129737
 20
575.411922543007
 30
0.0
 10
482.7677058742236
 20
575.2701340769835
 30
0.0
 10
482.7827635134614
 20
575.1813962277148
 30
0.0
 10
482.7878429914312
 20
575.1514617908936
 30
0.0
  0
LINE
  5
8B
330
1F
100
AcDbEntity
  8
0
  6
Continuous
 62
     7
370
    25
100
AcDbLine
 10
483.7922890365
 20
569.1442748153
 30
0.0
 11
487.2756097273
 21
568.902107287
 31
0.0
  0
LINE
  5
8C
330
1F
100
AcDbEntity
  8
0
  6
Continuous
 62
     7
370
    25
100
AcDbLine
 10
487.2756097273
 20
575.9999164444
 30
0.0
 11
483.7922890365
 21
575.757748916
 31
0.0
  0
ARC
  5
8D
330
1F
100
AcDbEntity
  8
0
  6
Continuous
 62
     7
370
    25
100
AcDbCircle
 10
532.1008155499
 20
575.4229063415
 30
0.0
 40
8.999995138923122
100
AcDbArc
 50
77.1419190681
 51
90.0
  0
ARC
  5
8E
330
1F
100
AcDbEntity
  8
0
  6
Continuous
 62
     7
370
    25
100
AcDbCircle
 10
532.1008155499
 20
575.4229063415
 30
0.0
 40
8.999995138923058
100
AcDbArc
 50
90.0
 51
125.1719294169
  0
ARC
  5
8F
330
1F
100
AcDbEntity
  8
0
  6
Continuous
 62
     7
370
    25
100
AcDbCircle
 10
591.0098307551
 20
572.4510118657
 30
0.0
 40
7.900000000000091
100
AcDbArc
 50
0.0
 51
90.0
  0
ARC
  5
90
330
1F
100
AcDbEntity
  8
0
  6
Continuous
 62
     7
370
    25
100
AcDbCircle
 10
591.0098307551
 20
572.4510118657
 30
0.0
 40
7.899999999999977
100
AcDbArc
 50
90.0
 51
180.0
  0
ARC
  5
91
330
1F
100
AcDbEntity
  8
0
  6
Continuous
 62
     7
370
    25
100
AcDbCircle
 10
591.0570129488
 20
359.5211455999
 30
0.0
 40
7.852911808525961
100
AcDbArc
 50
269.6557510264
 51
359.7196557283
  0
ARC
  5
92
330
1F
100
AcDbEntity
  8
0
  6
Continuous
 62
     7
370
    25
100
AcDbCircle
 10
590.9626485615
 20
359.5211455999
 30
0.0
 40
7.852911808525961
100
AcDbArc
 50
180.2803442717
 51
270.3442489736
  0
SPLINE
  5
93
330
1F
100
AcDbEntity
  8
0
  6
Continuous
 62
     7
370
    25
100
AcDbSpline
210
0.0
220
0.0
230
1.0
 70
     8
 71
     3
 72
     9
 73
     5
 74
     0
 42
0.00000001
 43
0.00000001
 40
0.0
 40
0.0
 40
0.0
 40
0.0
 40
0.3733283679056137
 40
1.0
 40
1.0
 40
1.0
 40
1.0
 10
601.7346486971595
 20
359.9352180805569
 30
0.0
 10
601.7260980701267
 20
359.900716125959
 30
0.0
 10
601.7031943002343
 20
359.8082989469713
 30
0.0
 10
601.6757580155146
 20
359.6900047331616
 30
0.0
 10
601.6585644741907
 20
359.6158731051261
 30
0.0
  0
SPLINE
  5
94
330
1F
100
AcDbEntity
  8
0
  6
Continuous
 62
     7
370
    25
100
AcDbSpline
210
0.0
220
0.0
230
1.0
 70
     8
 71
     3
 72
     9
 73
     5
 74
     0
 42
0.00000001
 43
0.00000001
 40
0.0
 40
0.0
 40
0.0
 40
0.0
 40
0.8169784353419379
 40
1.0
 40
1.0
 40
1.0
 40
1.0
 10
601.658564474187
 20
359.6158731051266
 30
0.0
 10
601.610718479946
 20
358.8905321730199
 30
0.0
 10
601.5521539056912
 20
358.0026985402961
 30
0.0
 10
601.3685371220963
 20
357.1200925970601
 30
0.0
 10
601.3349312910652
 20
356.9585566763526
 30
0.0
  0
SPLINE
  5
95
330
1F
100
AcDbEntity
  8
0
  6
Continuous
 62
     7
370
    25
100
AcDbSpline
210
0.0
220
0.0
230
1.0
 70
     8
 71
     3
 72
    19
 73
    15
 74
     0
 42
0.00000001
 43
0.00000001
 40
0.0
 40
0.0
 40
0.0
 40
0.0
 40
0.0310843828558379
 40
0.1224161153581141
 40
0.2137441883083797
 40
0.3054070581590085
 40
0.3972523582185112
 40
0.4892308134472154
 40
0.5815186406135316
 40
0.6738017200681279
 40
0.7664441099658726
 40
0.8590895752066011
 40
0.9519261057206743
 40
1.0
 40
1.0
 40
1.0
 40
1.0
 10
601.3349328593171
 20
356.9585639331993
 30
0.0
 10
601.240250820706
 20
356.5711088699032
 30
0.0
 10
600.8673752383045
 20
355.0452383404956
 30
0.0
 10
599.5241278430303
 20
352.5747706954563
 30
0.0
 10
596.8827907784147
 20
350.1364634977907
 30
0.0
 10
593.5601406558471
 20
348.6942085187468
 30
0.0
 10
589.9384469549083
 20
348.4199320178858
 30
0.0
 10
586.4213193492379
 20
349.3434324907065
 30
0.0
 10
583.4066899868624
 20
351.3692923780009
 30
0.0
 10
581.2380905431957
 20
354.2697395881973
 30
0.0
 10
580.1481299890697
 20
357.7314330756453
 30
0.0
 10
580.3235778530612
 20
361.3191270455212
 30
0.0
 10
581.3339717733045
 20
364.2481514047423
 30
0.0
 10
582.5990129924747
 20
365.5590569493985
 30
0.0
 10
583.0306024786221
 20
366.0062937997336
 30
0.0
  0
LINE
  5
96
330
1F
100
AcDbEntity
  8
0
  6
Continuous
 62
     7
370
    25
100
AcDbLine
 10
598.9098307551
 20
366.1164463161
 30
0.0
 11
600.0265556545
 21
364.9225776508
 31
0.0
  0
ARC
  5
97
330
1F
100
AcDbEntity
  8
0
  6
Continuous
 62
     7
370
    25
100
AcDbCircle
 10
591.2202496947
 20
359.0422140446
 30
0.0
 40
10.58913125798413
100
AcDbArc
 50
348.3951793204
 51
33.7328054928
  0
SPLINE
  5
98
330
1F
100
AcDbEntity
  8
0
  6
Continuous
 62
     7
370
    25
100
AcDbSpline
210
0.0
220
0.0
230
1.0
 70
     8
 71
     3
 72
     9
 73
     5
 74
     0
 42
0.00000001
 43
0.00000001
 40
0.0
 40
0.0
 40
0.0
 40
0.0
 40
0.6275173949570049
 40
1.0
 40
1.0
 40
1.0
 40
1.0
 10
601.5929214056954
 20
356.9121008142746
 30
0.0
 10
601.6954765485705
 20
357.5408901256637
 30
0.0
 10
601.8589065087584
 20
358.5429170279336
 30
0.0
 10
601.7683714366622
 20
359.5573568813123
 30
0.0
 10
601.7346486971601
 20
359.9352180805583
 30
0.0
  0
SPLINE
  5
99
330
1F
100
AcDbEntity
  8
0
  6
Continuous
 62
     7
370
    25
100
AcDbSpline
210
0.0
220
0.0
230
1.0
 70
     8
 71
     3
 72
    22
 73
    18
 74
     0
 42
0.00000001
 43
0.00000001
 40
0.0
 40
0.0
 40
0.0
 40
0.0
 40
0.0174044823411517
 40
0.0917645055690104
 40
0.1875995387234099
 40
0.3191440067490428
 40
0.3774409565981381
 40
0.4293812162779328
 40
0.474963710130649
 40
0.514187494440411
 40
0.5470517576245568
 40
0.6324474546595558
 40
0.6983647470780023
 40
0.7447907933469865
 40
0.760692557076934
 40
0.7717177580990777
 40
1.0
 40
1.0
 40
1.0
 40
1.0
 10
590.225857559107
 20
348.3656360705322
 30
0.0
 10
590.3150981749017
 20
348.3569214310561
 30
0.0
 10
590.7856161038209
 20
348.3109738086523
 30
0.0
 10
591.7556585964123
 20
348.3370992894914
 30
0.0
 10
593.3013773255099
 20
348.5264505352475
 30
0.0
 10
594.7215779407632
 20
348.9520486899228
 30
0.0
 10
595.8567340842575
 20
349.4640880941423
 30
0.0
 10
596.5600045541776
 20
349.8503837773324
 30
0.0
 10
597.151684480734
 20
350.2309657781524
 30
0.0
 10
597.6398254614559
 20
350.5883690193069
 30
0.0
 10
598.2672114543135
 20
351.0991720530092
 30
0.0
 10
598.9492221422489
 20
351.75750872661
 30
0.0
 10
599.5990083463811
 20
352.5374019622741
 30
0.0
 10
599.978058260457
 20
353.0746899587117
 30
0.0
 10
600.1804437992191
 20
353.3911061807472
 30
0.0
 10
600.8656029072949
 20
354.5044488887214
 30
0.0
 10
601.2271139605489
 20
355.6856926884514
 30
0.0
 10
601.5719697356168
 20
356.8125150703221
 30
0.0
  0
LINE
  5
9A
330
1F
100
AcDbEntity
  8
0
  6
Continuous
 62
     7
370
    25
100
AcDbLine
 10
601.5929214057
 20
356.9121008142
 30
0.0
 11
601.5719329695
 21
356.8124688508
 31
0.0
  0
SPLINE
  5
9B
330
1F
100
AcDbEntity
  8
0
  6
Continuous
 62
     7
370
    25
100
AcDbSpline
210
0.0
220
0.0
230
1.0
 70
     8
 71
     3
 72
    29
 73
    25
 74
     0
 42
0.00000001
 43
0.00000001
 40
0.0
 40
0.0
 40
0.0
 40
0.0
 40
0.0331740441088574
 40
0.0743777181603761
 40
0.1155813512693507
 40
0.1567849436731626
 40
0.1679470843276314
 40
0.2113527679666856
 40
0.2797073623485832
 40
0.3325247994413812
 40
0.3653479009159332
 40
0.4398059853510552
 40
0.467118947833118
 40
0.4979069562511307
 40
0.5321697805203056
 40
0.5699071645717785
 40
0.6563869474849275
 40
0.776923988569014
 40
0.8293837913750739
 40
0.8763389802937442
 40
0.9177886743308783
 40
0.9537320960611213
 40
0.9841685718004642
 40
1.0
 40
1.0
 40
1.0
 40
1.0
 10
590.5200685887818
 20
348.3273324204666
 30
0.0
 10
590.7078717998362
 20
348.3206519746226
 30
0.0
 10
591.1289351545354
 20
348.3056741107077
 30
0.0
 10
591.7836376893478
 20
348.3360434397368
 30
0.0
 10
592.4803468383533
 20
348.4083088062644
 30
0.0
 10
593.0031649916101
 20
348.4977388796173
 30
0.0
 10
593.5336439986686
 20
348.6106797956278
 30
0.0
 10
594.2081728900394
 20
348.7846020280598
 30
0.0
 10
595.0884171895564
 20
349.095416232062
 30
0.0
 10
595.8797760349755
 20
349.4622132157109
 30
0.0
 10
596.6741015411872
 20
349.8970379549728
 30
0.0
 10
597.310114645064
 20
350.3180356342716
 30
0.0
 10
597.8994891692081
 20
350.7796810407184
 30
0.0
 10
598.2950217891815
 20
351.1196393361026
 30
0.0
 10
598.7151362333541
 20
351.5197751405119
 30
0.0
 10
599.3266390840947
 20
352.1719942112284
 30
0.0
 10
600.1696906813619
 20
353.2683069963828
 30
0.0
 10
600.8635407243397
 20
354.5639356101712
 30
0.0
 10
601.2936408821907
 20
355.7240679697427
 30
0.0
 10
601.5087915405414
 20
356.486146602339
 30
0.0
 10
601.6542206844201
 20
357.1701152266123
 30
0.0
 10
601.7340123473872
 20
357.7695836779902
 30
0.0
 10
601.7960823204038
 20
358.2290960094527
 30
0.0
 10
601.780964854872
 20
358.4887479901816
 30
0.0
 10
601.7757921314555
 20
358.5775927689554
 30
0.0
  0
LINE
  5
9C
330
1F
100
AcDbEntity
  8
0
  6
Continuous
 62
     7
370
    25
100
AcDbLine
 10
601.7346486972
 20
359.9352180806
 30
0.0
 11
601.6518163511
 21
359.5512905941
 31
0.0
  0
LINE
  5
9D
330
1F
100
AcDbEntity
  8
0
  6
Continuous
 62
     7
370
    25
100
AcDbLine
 10
583.9737436946
 20
575.9201262646
 30
0.0
 11
583.5462632405
 21
575.040444227
 31
0.0
  0
ARC
  5
9E
330
1F
100
AcDbEntity
  8
0
  6
Continuous
 62
     7
370
    25
100
AcDbCircle
 10
641.8098307551
 20
572.4510118657
 30
0.0
 40
17.60000000000009
100
AcDbArc
 50
152.0468131166
 51
172.4677591184
  0
ARC
  5
9F
330
1F
100
AcDbEntity
  8
0
  6
Continuous
 62
     7
370
    25
100
AcDbCircle
 10
641.8098307551
 20
572.4510118657
 30
0.0
 40
17.6000000000001
100
AcDbArc
 50
187.7212983517
 51
207.9531868834
  0
ARC
  5
A0
330
1F
100
AcDbEntity
  8
0
  6
Continuous
 62
     7
370
    25
100
AcDbCircle
 10
641.8098307551
 20
572.4510118657
 30
0.0
 40
17.60000000000004
100
AcDbArc
 50
207.9531868834
 51
231.9505079119
  0
ARC
  5
A1
330
1F
100
AcDbEntity
  8
0
  6
Continuous
 62
     7
370
    25
100
AcDbCircle
 10
641.8098307551
 20
572.4510118657
 30
0.0
 40
17.59999999999999
100
AcDbArc
 50
248.357309795
 51
292.5670156631
  0
ARC
  5
A2
330
1F
100
AcDbEntity
  8
0
  6
Continuous
 62
     7
370
    25
100
AcDbCircle
 10
641.8098307551
 20
572.4510118657
 30
0.0
 40
17.59999999999997
100
AcDbArc
 50
307.5293462791
 51
329.914091969
  0
ARC
  5
A3
330
1F
100
AcDbEntity
  8
0
  6
Continuous
 62
     7
370
    25
100
AcDbCircle
 10
641.8098307551
 20
572.4510118657
 30
0.0
 40
17.60000000000015
100
AcDbArc
 50
32.7695421645
 51
52.1443883138
  0
ARC
  5
A4
330
1F
100
AcDbEntity
  8
0
  6
Continuous
 62
     7
370
    25
100
AcDbCircle
 10
641.8098307551
 20
572.4510118657
 30
0.0
 40
17.6000000000002
100
AcDbArc
 50
68.1756652339
 51
112.1215027948
  0
ARC
  5
A5
330
1F
100
AcDbEntity
  8
0
  6
Continuous
 62
     7
370
    25
100
AcDbCircle
 10
641.8098307551
 20
572.4510118657
 30
0.0
 40
17.60000000000009
100
AcDbArc
 50
128.2273670833
 51
152.0468131166
  0
ARC
  5
A6
330
1F
100
AcDbEntity
  8
0
  6
Continuous
 62
     7
370
    25
100
AcDbCircle
 10
540.2098307551
 20
572.4510118657
 30
0.0
 40
17.60000000000015
100
AcDbArc
 50
1.0917286577
 51
27.9531868834
  0
LWPOLYLINE
  5
A7
330
1F
100
AcDbEntity
  8
0
  6
Continuous
 62
     7
370
    25
100
AcDbPolyline
 90
        3
 70
   128
 43
0.0
 10
557.2192094265
 20
567.9298353359
 10
556.6447081631
 20
566.1538057721
 10
555.7564541828
 20
564.2010118657
  0
ARC
  5
A8
330
1F
100
AcDbEntity
  8
0
  6
Continuous
 62
     7
370
    25
100
AcDbCircle
 10
540.2098307551
 20
572.4510118657
 30
0.0
 40
17.60000000000014
100
AcDbArc
 50
299.0712218616
 51
332.0468131166
  0
ARC
  5
A9
330
1F
100
AcDbEntity
  8
0
  6
Continuous
 62
     7
370
    25
100
AcDbCircle
 10
540.2098307551
 20
572.4510118657
 30
0.0
 40
17.6
100
AcDbArc
 50
241.1673162665
 51
286.0035434403
  0
LWPOLYLINE
  5
AA
330
1F
100
AcDbEntity
  8
0
  6
Continuous
 62
     7
370
    25
100
AcDbPolyline
 90
        3
 70
   128
 43
0.0
 10
527.7753397521
 20
559.9953531719
 10
526.1509550146
 20
561.8629047208
 10
525.2102333248
 20
563.2438365699
  0
ARC
  5
AB
330
1F
100
AcDbEntity
  8
0
  6
Continuous
 62
     7
370
    25
100
AcDbCircle
 10
540.2098307551
 20
572.4510118657
 30
0.0
 40
17.60000000000003
100
AcDbArc
 50
120.1963954869
 51
148.4572256731
  0
ARC
  5
AC
330
1F
100
AcDbEntity
  8
0
  6
Continuous
 62
     7
370
    25
100
AcDbCircle
 10
540.2098307551
 20
572.4510118657
 30
0.0
 40
17.60000000000015
100
AcDbArc
 50
60.4832655617
 51
106.7198304591
  0
ARC
  5
AD
330
1F
100
AcDbEntity
  8
0
  6
Continuous
 62
     7
370
    25
100
AcDbCircle
 10
540.2098307551
 20
572.4510118657
 30
0.0
 40
17.60000000000019
100
AcDbArc
 50
27.9531868834
 51
45.4902520201
  0
LWPOLYLINE
  5
AE
330
1F
100
AcDbEntity
  8
0
  6
Continuous
 62
     7
370
    25
100
AcDbPolyline
 90
        9
 70
   128
 43
0.0
 10
555.7564541828
 20
564.2010118657
 10
556.1789382489
 20
564.7772281585
 10
556.7726620497
 20
565.2419450593
 10
557.5223235663
 20
565.5831854385
 10
558.4086018038
 20
565.7921545223
 10
559.40865475
 20
565.863466559
 10
560.496708082
 20
565.7952836266
 10
561.6447194468
 20
565.5893630009
 10
562.8231011953
 20
565.2510118657
  0
LWPOLYLINE
  5
AF
330
1F
100
AcDbEntity
  8
0
  6
Continuous
 62
     7
370
    25
100
AcDbPolyline
 90
        9
 70
   128
 43
0.0
 10
562.8231011953
 20
579.6510118657
 10
561.6447194468
 20
579.3126607304
 10
560.496708082
 20
579.1067401048
 10
559.40865475
 20
579.0385571724
 10
558.4086018037
 20
579.1098692091
 10
557.5223235663
 20
579.3188382929
 10
556.7726620497
 20
579.6600786721
 10
556.1789382489
 20
580.1247955728
 10
555.7564541828
 20
580.7010118657
  0
LWPOLYLINE
  5
B0
330
1F
100
AcDbEntity
  8
0
  6
Continuous
 62
     7
370
    25
100
AcDbPolyline
 90
        9
 70
   128
 43
0.0
 10
626.2632073275
 20
564.2010118657
 10
625.8407232614
 20
564.7772281585
 10
625.2469994606
 20
565.2419450593
 10
624.497337944
 20
565.5831854385
 10
623.6110597065
 20
565.7921545223
 10
622.6110067603
 20
565.863466559
 10
621.5229534283
 20
565.7952836266
 10
620.3749420635
 20
565.5893630009
 10
619.196560315
 20
565.2510118657
  0
SPLINE
  5
B1
330
1F
100
AcDbEntity
  8
0
  6
Continuous
 62
     7
370
    25
100
AcDbSpline
210
0.0
220
0.0
230
1.0
 70
     8
 71
     3
 72
    30
 73
    26
 74
     0
 42
0.00000001
 43
0.00000001
 40
0.0
 40
0.0
 40
0.0
 40
0.0
 40
0.1249999999999998
 40
0.1249999999999998
 40
0.1874999999999996
 40
0.1874999999999996
 40
0.2499999999999994
 40
0.2499999999999994
 40
0.3749999999999993
 40
0.3749999999999993
 40
0.4999999999999992
 40
0.4999999999999992
 40
0.5624999999999991
 40
0.5624999999999991
 40
0.624999999999999
 40
0.624999999999999
 40
0.7499999999999991
 40
0.7499999999999991
 40
0.8124999999999994
 40
0.8124999999999994
 40
0.8749999999999997
 40
0.8749999999999997
 40
0.9374999999999999
 40
0.9374999999999999
 40
1.0
 40
1.0
 40
1.0
 40
1.0
 10
619.1965603149847
 20
565.2510118656863
 30
0.0
 10
618.8034476869036
 20
565.6954899742984
 30
0.0
 10
618.4782921278222
 20
566.1900985059436
 30
0.0
 10
618.0856854071927
 20
567.016663712568
 30
0.0
 10
617.9720045497393
 20
567.3038735171559
 30
0.0
 10
617.7776472925917
 20
567.8916273015125
 30
0.0
 10
617.69628876057
 20
568.1935656122407
 30
0.0
 10
617.491297719132
 20
569.1225154963298
 30
0.0
 10
617.4062458463201
 20
569.7772745232311
 30
0.0
 10
617.3019619272023
 20
571.1118993890316
 30
0.0
 10
617.2815992168345
 20
571.7824868981637
 30
0.0
 10
617.2816417194905
 20
572.7871937023821
 30
0.0
 10
617.2870932423143
 20
573.1222264001079
 30
0.0
 10
617.3103984889545
 20
573.7925609976097
 30
0.0
 10
617.3284102485762
 20
574.129577017295
 30
0.0
 10
617.4065510901412
 20
575.1267013912018
 30
0.0
 10
617.489835327498
 20
575.7713255773621
 30
0.0
 10
617.6952462789134
 20
576.7045017214836
 30
0.0
 10
617.7779094089929
 20
577.0117054176645
 30
0.0
 10
617.9744269562201
 20
577.604952358262
 30
0.0
 10
618.0875123189201
 20
577.8892879264168
 30
0.0
 10
618.3462818986169
 20
578.4339187549157
 30
0.0
 10
618.491958641667
 20
578.6942153826952
 30
0.0
 10
618.8184535809739
 20
579.191347468655
 30
0.0
 10
618.9999173743138
 20
579.4286748658102
 30
0.0
 10
619.1965603149841
 20
579.6510118656865
 30
0.0
  0
LWPOLYLINE
  5
B2
330
1F
100
AcDbEntity
  8
0
  6
Continuous
 62
     7
370
    25
100
AcDbPolyline
 90
        9
 70
   128
 43
0.0
 10
619.196560315
 20
579.6510118657
 10
620.3749420635
 20
579.3126607304
 10
621.5229534283
 20
579.1067401048
 10
622.6110067603
 20
579.0385571723
 10
623.6110597065
 20
579.1098692091
 10
624.497337944
 20
579.3188382928
 10
625.2469994606
 20
579.6600786721
 10
625.8407232614
 20
580.1247955728
 10
626.2632073275
 20
580.7010118657
  0
SPLINE
  5
B3
330
1F
100
AcDbEntity
  8
0
  6
Continuous
 62
     7
370
    25
100
AcDbSpline
210
0.0
220
0.0
230
1.0
 70
     8
 71
     3
 72
    26
 73
    22
 74
     0
 42
0.00000001
 43
0.00000001
 40
0.0
 40
0.0
 40
0.0
 40
0.0
 40
0.1249999999999996
 40
0.1249999999999996
 40
0.1874999999999994
 40
0.1874999999999994
 40
0.2499999999999992
 40
0.2499999999999992
 40
0.3749999999999991
 40
0.3749999999999991
 40
0.4374999999999992
 40
0.4374999999999992
 40
0.4999999999999992
 40
0.4999999999999992
 40
0.6249999999999993
 40
0.6249999999999993
 40
0.7499999999999994
 40
0.7499999999999994
 40
0.8749999999999998
 40
0.8749999999999998
 40
1.0
 40
1.0
 40
1.0
 40
1.0
 10
562.823101195304
 20
579.6510118656963
 30
0.0
 10
563.2158763529055
 20
579.2069153226474
 30
0.0
 10
563.5398131105032
 20
578.7138946363249
 30
0.0
 10
563.9306858029981
 20
577.8929305395691
 30
0.0
 10
564.0453619499758
 20
577.6047003058346
 30
0.0
 10
564.2423097109926
 20
577.0098891143521
 30
0.0
 10
564.3246506932034
 20
576.7035407486646
 30
0.0
 10
564.5298528038975
 20
575.7709867954802
 30
0.0
 10
564.6130822553944
 20
575.1268098402384
 30
0.0
 10
564.691196789907
 20
574.1303974206216
 30
0.0
 10
564.7092101271651
 20
573.7936159869481
 30
0.0
 10
564.7325315433109
 20
573.1237473499805
 30
0.0
 10
564.7379976732163
 20
572.7889474563672
 30
0.0
 10
564.738106080881
 20
571.7849385244406
 30
0.0
 10
564.7177657019658
 20
571.1142274087363
 30
0.0
 10
564.6138839413456
 20
569.7817932992938
 30
0.0
 10
564.5307264018649
 20
569.1364762811759
 30
0.0
 10
564.2576029993513
 20
567.8923231976654
 30
0.0
 10
564.0638854016843
 20
567.2897712227782
 30
0.0
 10
563.540692139239
 20
566.1890678595882
 30
0.0
 10
563.2158041862587
 20
565.6950268125319
 30
0.0
 10
562.8231011953131
 20
565.2510118656862
 30
0.0
  0
ARC
  5
B4
330
1F
100
AcDbEntity
  8
0
  6
Continuous
 62
     7
370
    25
100
AcDbCircle
 10
591.0476559053
 20
359.0423569721
 30
0.0
 40
11.5115606827099
100
AcDbArc
 50
133.5946937535
 51
356.3477284925
  0
ARC
  5
B5
330
1F
100
AcDbEntity
  8
0
  6
Continuous
 62
     7
370
    25
100
AcDbCircle
 10
591.1891254112
 20
359.0330224066
 30
0.0
 40
11.36978388018798
100
AcDbArc
 50
356.3492597239
 51
47.2301808293
  0
LINE
  5
B6
330
1F
100
AcDbEntity
  8
0
  6
Continuous
 62
     7
370
    25
100
AcDbLine
 10
602.5358369385
 20
356.3916178953
 30
0.0
 11
602.5598307551
 21
357.1276479737
 31
0.0
  0
ARC
  5
B7
330
1F
100
AcDbEntity
  8
0
  6
Continuous
 62
     7
370
    25
100
AcDbCircle
 10
591.0127452392
 20
357.227134728
 30
0.0
 40
11.55334283614275
100
AcDbArc
 50
180.4933846131
 51
355.852852733
  0
ARC
  5
B8
330
1F
100
AcDbEntity
  8
0
  6
Continuous
 62
     7
370
    25
100
AcDbCircle
 10
591.0098307551
 20
356.7832312013
 30
0.0
 40
11.11119944790051
100
AcDbArc
 50
251.3894551427
 51
288.6105448573
  0
ARC
  5
B9
330
1F
100
AcDbEntity
  8
0
  6
Continuous
 62
     7
370
    25
100
AcDbCircle
 10
591.0098307551
 20
572.4510118657
 30
0.0
 40
9.72499999999994
100
AcDbArc
 50
182.3675813795
 51
215.6748758017
  0
ARC
  5
BA
330
1F
100
AcDbEntity
  8
0
  6
Continuous
 62
     7
370
    25
100
AcDbCircle
 10
591.0098307551
 20
572.4510118657
 30
0.0
 40
9.725000000000072
100
AcDbArc
 50
324.3251241983
 51
182.3675813795
  0
ARC
  5
BB
330
1F
100
AcDbEntity
  8
0
  6
Continuous
 62
     7
370
    25
100
AcDbCircle
 10
591.0098307551
 20
572.4510118657
 30
0.0
 40
9.925000000000068
100
AcDbArc
 50
322.7469493593
 51
182.3675813795
  0
ARC
  5
BC
330
1F
100
AcDbEntity
  8
0
  6
Continuous
 62
     7
370
    25
100
AcDbCircle
 10
591.0098307551
 20
572.4510118657
 30
0.0
 40
9.92499999999992
100
AcDbArc
 50
182.3675813795
 51
217.2530506407
  0
ARC
  5
BD
330
1F
100
AcDbEntity
  8
0
  6
Continuous
 62
     7
370
    25
100
AcDbCircle
 10
591.0098307551
 20
572.4510118657
 30
0.0
 40
14.22500000000011
100
AcDbArc
 50
303.7355336397
 51
182.3675813795
  0
ARC
  5
BE
330
1F
100
AcDbEntity
  8
0
  6
Continuous
 62
     7
370
    25
100
AcDbCircle
 10
591.0098307551
 20
572.4510118657
 30
0.0
 40
14.225
100
AcDbArc
 50
182.3675813795
 51
236.2644663603
  0
LINE
  5
BF
330
1F
100
AcDbEntity
  8
0
  6
Continuous
 62
     7
370
    25
100
AcDbLine
 10
581.5967785062
 20
561.7858783757
 30
0.0
 11
581.4362636784
 21
561.6040125982
 31
0.0
  0
LINE
  5
C0
330
1F
100
AcDbEntity
  8
0
  6
Continuous
 62
     7
370
    25
100
AcDbLine
 10
594.4689702041
 20
586.4989631026
 30
0.0
 11
594.4109726815
 21
586.2634286925
 31
0.0
  0
SPLINE
  5
C1
330
1F
100
AcDbEntity
  8
0
  6
Continuous
 62
     7
370
    25
100
AcDbSpline
210
0.0
220
0.0
230
1.0
 70
     8
 71
     3
 72
    11
 73
     7
 74
     0
 42
0.00000001
 43
0.00000001
 40
0.0
 40
0.0
 40
0.0
 40
0.0
 40
0.1446702591042558
 40
0.3907520209323659
 40
0.5962314811354595
 40
1.0
 40
1.0
 40
1.0
 40
1.0
 10
600.5833978319023
 20
583.2980111331497
 30
0.0
 10
600.3075673784639
 20
583.4854161925005
 30
0.0
 10
599.5625538021899
 20
583.9915942150445
 30
0.0
 10
598.3778983877644
 20
584.6916000457031
 30
0.0
 10
596.6349333735641
 20
585.6178767779652
 30
0.0
 10
595.3322806661228
 20
586.1477793646926
 30
0.0
 10
594.4689702041276
 20
586.4989631025737
 30
0.0
  0
LINE
  5
C2
330
1F
100
AcDbEntity
  8
0
  6
Continuous
 62
     7
370
    25
100
AcDbLine
 10
600.5833978319
 20
583.2980111331
 30
0.0
 11
600.4228830041
 21
583.1161453557
 31
0.0
  0
LINE
  5
C3
330
1F
100
AcDbEntity
  8
0
  6
Continuous
 62
     7
370
    25
100
AcDbLine
 10
604.9052831219
 20
576.4792848461
 30
0.0
 11
604.672305578
 21
576.411744969
 31
0.0
  0
SPLINE
  5
C4
330
1F
100
AcDbEntity
  8
0
  6
Continuous
 62
     7
370
    25
100
AcDbSpline
210
0.0
220
0.0
230
1.0
 70
     8
 71
     3
 72
    11
 73
     7
 74
     0
 42
0.00000001
 43
0.00000001
 40
0.0
 40
0.0
 40
0.0
 40
0.0
 40
0.1446702591042558
 40
0.3907520209323692
 40
0.596231481135486
 40
1.0
 40
1.0
 40
1.0
 40
1.0
 10
605.1903912139803
 20
569.5835592061147
 30
0.0
 10
605.2147735294567
 20
569.9161379156053
 30
0.0
 10
605.2806297676802
 20
570.814427610095
 30
0.0
 10
605.2945248926151
 20
572.1903722090476
 30
0.0
 10
605.2252215665883
 20
574.1629625553835
 30
0.0
 10
605.0328043145047
 20
575.5560441857001
 30
0.0
 10
604.9052831219082
 20
576.4792848460812
 30
0.0
  0
LINE
  5
C5
330
1F
100
AcDbEntity
  8
0
  6
Continuous
 62
     7
370
    25
100
AcDbLine
 10
604.9526334167
 20
569.6316362359
 30
0.0
 11
605.190391214
 21
569.5835592061
 31
0.0
  0
LINE
  5
C6
330
1F
100
AcDbEntity
  8
0
  6
Continuous
 62
     7
370
    25
100
AcDbLine
 10
580.5735178374
 20
582.4706901222
 30
0.0
 11
580.7484978587
 21
582.3026955892
 31
0.0
  0
SPLINE
  5
C7
330
1F
100
AcDbEntity
  8
0
  6
Continuous
 62
     7
370
    25
100
AcDbSpline
210
0.0
220
0.0
230
1.0
 70
     8
 71
     3
 72
    11
 73
     7
 74
     0
 42
0.00000001
 43
0.00000001
 40
0.0
 40
0.0
 40
0.0
 40
0.0
 40
0.1446702591042557
 40
0.3907520209323619
 40
0.5962314811354644
 40
1.0
 40
1.0
 40
1.0
 40
1.0
 10
586.4028373730707
 20
586.1654637927207
 30
0.0
 10
586.1026246041558
 20
586.0202901425811
 30
0.0
 10
585.2917547896583
 20
585.6281784706355
 30
0.0
 10
584.093204250298
 20
584.9522397023414
 30
0.0
 10
582.4195425621244
 20
583.9059260882675
 30
0.0
 10
581.3093071067667
 20
583.0427470446785
 30
0.0
 10
580.5735178373682
 20
582.4706901221784
 30
0.0
  0
LINE
  5
C8
330
1F
100
AcDbEntity
  8
0
  6
Continuous
 62
     7
370
    25
100
AcDbLine
 10
586.4028373731
 20
586.1654637927
 30
0.0
 11
586.4800803425
 21
585.9355209854
 31
0.0
  0
LINE
  5
C9
330
1F
100
AcDbEntity
  8
0
  6
Continuous
 62
     7
370
    25
100
AcDbLine
 10
577.3473559323
 20
568.4902787624
 30
0.0
 11
577.1143783884
 21
568.4227388853
 31
0.0
  0
SPLINE
  5
CA
330
1F
100
AcDbEntity
  8
0
  6
Continuous
 62
     7
370
    25
100
AcDbSpline
210
0.0
220
0.0
230
1.0
 70
     8
 71
     3
 72
    11
 73
     7
 74
     0
 42
0.00000001
 43
0.00000001
 40
0.0
 40
0.0
 40
0.0
 40
0.0
 40
0.144670259104254
 40
0.3907520209323652
 40
0.5962314811354787
 40
1.0
 40
1.0
 40
1.0
 40
1.0
 10
576.8292702963172
 20
575.3184645252569
 30
0.0
 10
576.8048879808406
 20
574.9858858157663
 30
0.0
 10
576.7390317426172
 20
574.0875961212766
 30
0.0
 10
576.7251366176824
 20
572.711651522324
 30
0.0
 10
576.7944399437091
 20
570.7390611759881
 30
0.0
 10
576.9868571957927
 20
569.3459795456715
 30
0.0
 10
577.1143783883894
 20
568.4227388852904
 30
0.0
  0
LINE
  5
CB
330
1F
100
AcDbEntity
  8
0
  6
Continuous
 62
     7
370
    25
100
AcDbLine
 10
576.8292702963
 20
575.3184645253
 30
0.0
 11
577.0670280936
 21
575.2703874954
 31
0.0
  0
LINE
  5
CC
330
1F
100
AcDbEntity
  8
0
  6
Continuous
 62
     7
370
    25
100
AcDbLine
 10
601.2711636516
 20
562.5993281422
 30
0.0
 11
601.4461436729
 21
562.4313336092
 31
0.0
  0
SPLINE
  5
CD
330
1F
100
AcDbEntity
  8
0
  6
Continuous
 62
     7
370
    25
100
AcDbSpline
210
0.0
220
0.0
230
1.0
 70
     8
 71
     3
 72
     9
 73
     5
 74
     0
 42
0.00000001
 43
0.00000001
 40
0.0
 40
0.0
 40
0.0
 40
0.0
 40
0.586228306203272
 40
1.0
 40
1.0
 40
1.0
 40
1.0
 10
604.9052831219082
 20
576.4792848460812
 30
0.0
 10
604.8488629574849
 20
576.8072451802186
 30
0.0
 10
604.7526203096527
 20
577.3666864945787
 30
0.0
 10
604.6346604824736
 20
577.923153327473
 30
0.0
 10
604.5858520449818
 20
578.1534035514611
 30
0.0
  0
SPLINE
  5
CE
330
1F
100
AcDbEntity
  8
0
  6
Continuous
 62
     7
370
    25
100
AcDbSpline
210
0.0
220
0.0
230
1.0
 70
     8
 71
     3
 72
     9
 73
     5
 74
     0
 42
0.00000001
 43
0.00000001
 40
0.0
 40
0.0
 40
0.0
 40
0.0
 40
0.5863847898283632
 40
1.0
 40
1.0
 40
1.0
 40
1.0
 10
601.9610440055466
 20
582.2946165582925
 30
0.0
 10
601.6950541025798
 20
582.4958919332441
 30
0.0
 10
601.2414442757548
 20
582.8391398797171
 30
0.0
 10
600.7759382178704
 20
583.1637481961321
 30
0.0
 10
600.5833978319023
 20
583.2980111331497
 30
0.0
  0
ARC
  5
CF
330
1F
100
AcDbEntity
  8
0
  6
Continuous
 62
     7
370
    25
100
AcDbCircle
 10
591.0098307551
 20
572.4510118657
 30
0.0
 40
14.72500000000011
100
AcDbArc
 50
22.7840658168
 51
41.9510969422
  0
SPLINE
  5
D0
330
1F
100
AcDbEntity
  8
0
  6
Continuous
 62
     7
370
    25
100
AcDbSpline
210
0.0
220
0.0
230
1.0
 70
     8
 71
     3
 72
     9
 73
     5
 74
     0
 42
0.00000001
 43
0.00000001
 40
0.0
 40
0.0
 40
0.0
 40
0.0
 40
0.5862283062032695
 40
1.0
 40
1.0
 40
1.0
 40
1.0
 10
594.4689702041276
 20
586.4989631025737
 30
0.0
 10
594.1567381411194
 20
586.6140819739663
 30
0.0
 10
593.6241264270408
 20
586.8104540531962
 30
0.0
 10
593.0832320998015
 20
586.98653126268
 30
0.0
 10
592.8594253378546
 20
587.0593870278873
 30
0.0
  0
SPLINE
  5
D1
330
1F
100
AcDbEntity
  8
0
  6
Continuous
 62
     7
370
    25
100
AcDbSpline
210
0.0
220
0.0
230
1.0
 70
     8
 71
     3
 72
     9
 73
     5
 74
     0
 42
0.00000001
 43
0.00000001
 40
0.0
 40
0.0
 40
0.0
 40
0.0
 40
0.586384789828365
 40
1.0
 40
1.0
 40
1.0
 40
1.0
 10
587.9606256517386
 20
586.8568430890946
 30
0.0
 10
587.6533211123908
 20
586.7271267634509
 30
0.0
 10
587.1292547575358
 20
586.5059131032506
 30
0.0
 10
586.6153826802986
 20
586.2650771897147
 30
0.0
 10
586.4028373730707
 20
586.1654637927207
 30
0.0
  0
ARC
  5
D2
330
1F
100
AcDbEntity
  8
0
  6
Continuous
 62
     7
370
    25
100
AcDbCircle
 10
591.0098307551
 20
572.4510118657
 30
0.0
 40
14.72500000000002
100
AcDbArc
 50
82.7840658168
 51
101.9510969422
  0
SPLINE
  5
D3
330
1F
100
AcDbEntity
  8
0
  6
Continuous
 62
     7
370
    25
100
AcDbSpline
210
0.0
220
0.0
230
1.0
 70
     8
 71
     3
 72
     9
 73
     5
 74
     0
 42
0.00000001
 43
0.00000001
 40
0.0
 40
0.0
 40
0.0
 40
0.0
 40
0.5862283062032879
 40
1.0
 40
1.0
 40
1.0
 40
1.0
 10
601.4461436729293
 20
562.4313336091933
 30
0.0
 10
601.7019555715144
 20
562.6441750719382
 30
0.0
 10
602.1383246377608
 20
563.0072443070684
 30
0.0
 10
602.5612591378209
 20
563.3876339304785
 30
0.0
 10
602.7362574622758
 20
563.5450283892596
 30
0.0
  0
SPLINE
  5
D4
330
1F
100
AcDbEntity
  8
0
  6
Continuous
 62
     7
370
    25
100
AcDbSpline
210
0.0
220
0.0
230
1.0
 70
     8
 71
     3
 72
     9
 73
     5
 74
     0
 42
0.00000001
 43
0.00000001
 40
0.0
 40
0.0
 40
0.0
 40
0.0
 40
0.5863847898283618
 40
0.9999999999999999
 40
0.9999999999999999
 40
0.9999999999999999
 40
0.9999999999999999
 10
605.0102491089568
 20
567.8887853348839
 30
0.0
 10
605.0515637453376
 20
568.2197770354791
 30
0.0
 10
605.1220202733676
 20
568.7842386421523
 30
0.0
 10
605.1703862927204
 20
569.3496828721034
 30
0.0
 10
605.1903912139803
 20
569.5835592061147
 30
0.0
  0
ARC
  5
D5
330
1F
100
AcDbEntity
  8
0
  6
Continuous
 62
     7
370
    25
100
AcDbCircle
 10
591.0098307551
 20
572.4510118657
 30
0.0
 40
14.72500000000007
100
AcDbArc
 50
322.7840658168
 51
341.9510969422
  0
SPLINE
  5
D6
330
1F
100
AcDbEntity
  8
0
  6
Continuous
 62
     7
370
    25
100
AcDbSpline
210
0.0
220
0.0
230
1.0
 70
     8
 71
     3
 72
     9
 73
     5
 74
     0
 42
0.00000001
 43
0.00000001
 40
0.0
 40
0.0
 40
0.0
 40
0.0
 40
0.5862283062032672
 40
1.0
 40
1.0
 40
1.0
 40
1.0
 10
580.5735178373682
 20
582.4706901221784
 30
0.0
 10
580.3177059387831
 20
582.2578486594335
 30
0.0
 10
579.8813368725367
 20
581.8947794243032
 30
0.0
 10
579.4584023724766
 20
581.5143898008931
 30
0.0
 10
579.2834040480216
 20
581.3569953421121
 30
0.0
  0
SPLINE
  5
D7
330
1F
100
AcDbEntity
  8
0
  6
Continuous
 62
     7
370
    25
100
AcDbSpline
210
0.0
220
0.0
230
1.0
 70
     8
 71
     3
 72
     9
 73
     5
 74
     0
 42
0.00000001
 43
0.00000001
 40
0.0
 40
0.0
 40
0.0
 40
0.0
 40
0.5863847898283641
 40
1.0
 40
1.0
 40
1.0
 40
1.0
 10
577.0094124013407
 20
577.0132383964878
 30
0.0
 10
576.9680977649597
 20
576.6822466958926
 30
0.0
 10
576.8976412369298
 20
576.1177850892193
 30
0.0
 10
576.8492752175769
 20
575.5523408592684
 30
0.0
 10
576.8292702963172
 20
575.3184645252569
 30
0.0
  0
ARC
  5
D8
330
1F
100
AcDbEntity
  8
0
  6
Continuous
 62
     7
370
    25
100
AcDbCircle
 10
591.0098307551
 20
572.4510118657
 30
0.0
 40
14.72500000000004
100
AcDbArc
 50
142.7840658168
 51
161.9510969422
  0
SPLINE
  5
D9
330
1F
100
AcDbEntity
  8
0
  6
Continuous
 62
     7
370
    25
100
AcDbSpline
210
0.0
220
0.0
230
1.0
 70
     8
 71
     3
 72
     9
 73
     5
 74
     0
 42
0.00000001
 43
0.00000001
 40
0.0
 40
0.0
 40
0.0
 40
0.0
 40
0.5863847898283627
 40
0.9999999999999999
 40
0.9999999999999999
 40
0.9999999999999999
 40
0.9999999999999999
 10
580.0586175047507
 20
562.6074071730791
 30
0.0
 10
580.3246074077176
 20
562.4061317981275
 30
0.0
 10
580.7782172345427
 20
562.0628838516545
 30
0.0
 10
581.2437232924271
 20
561.7382755352395
 30
0.0
 10
581.4362636783951
 20
561.604012598222
 30
0.0
  0
ARC
  5
DA
330
1F
100
AcDbEntity
  8
0
  6
Continuous
 62
     7
370
    25
100
AcDbCircle
 10
591.0098307551
 20
572.4510118657
 30
0.0
 40
14.72500000000001
100
AcDbArc
 50
202.7840658168
 51
221.9510969422
  0
SPLINE
  5
DB
330
1F
100
AcDbEntity
  8
0
  6
Continuous
 62
     7
370
    25
100
AcDbSpline
210
0.0
220
0.0
230
1.0
 70
     8
 71
     3
 72
     9
 73
     5
 74
     0
 42
0.00000001
 43
0.00000001
 40
0.0
 40
0.0
 40
0.0
 40
0.0
 40
0.5862283062032903
 40
0.9999999999999999
 40
0.9999999999999999
 40
0.9999999999999999
 40
0.9999999999999999
 10
577.1143783883894
 20
568.4227388852904
 30
0.0
 10
577.1707985528125
 20
568.094778551153
 30
0.0
 10
577.2670412006447
 20
567.5353372367929
 30
0.0
 10
577.3850010278237
 20
566.9788704038988
 30
0.0
 10
577.4338094653157
 20
566.7486201799105
 30
0.0
  0
LINE
  5
DC
330
1F
100
AcDbEntity
  8
0
  6
Continuous
 62
     7
370
    25
100
AcDbLine
 10
583.0996860938
 20
560.4510118657
 30
0.0
 11
581.3747131544
 21
561.3540490531
 31
0.0
  0
ARC
  5
DD
330
1F
100
AcDbEntity
  8
0
  6
Continuous
 62
     7
370
    25
100
AcDbCircle
 10
581.7621147277
 20
561.3912158752
 30
0.0
 40
0.38918035879622
100
AcDbArc
 50
146.8534925694
 51
185.4801130186
  0
SPLINE
  5
DE
330
1F
100
AcDbEntity
  8
0
  6
Continuous
 62
     7
370
    25
100
AcDbSpline
210
0.0
220
0.0
230
1.0
 70
    24
 71
     3
 72
    10
 73
     6
 74
     0
 42
0.00000001
 43
0.00000001
 40
0.0
 40
0.0
 40
0.0
 40
0.0
 40
0.6588579034621721
 40
0.8981530991963121
 40
1.0
 40
1.0
 40
1.0
 40
1.0
 10
601.5281186441407
 20
562.1873042154738
 30
0.0
 10
600.9544926594579
 20
561.8237252124762
 30
0.0
 10
600.1725274538876
 20
561.3280954163866
 30
0.0
 10
599.2977546869598
 20
560.7736417846794
 30
0.0
 10
598.999017733696
 20
560.5842945679799
 30
0.0
 10
598.9098307551487
 20
560.5277655515014
 30
0.0
  0
ARC
  5
DF
330
1F
100
AcDbEntity
  8
0
  6
Continuous
 62
     7
370
    25
100
AcDbCircle
 10
601.1389711799
 20
562.1923641316
 30
0.0
 40
0.3891803587990131
100
AcDbArc
 50
359.2550497404
 51
37.8816701894
  0
ARC
  5
E0
330
1F
100
AcDbEntity
  8
0
  6
Continuous
 62
     7
370
    25
100
AcDbCircle
 10
577.0610109966
 20
568.8082428064
 30
0.0
 40
0.3891803588378231
100
AcDbArc
 50
239.2550497425
 51
277.8816701874
  0
SPLINE
  5
E1
330
1F
100
AcDbEntity
  8
0
  6
Continuous
 62
     7
370
    25
100
AcDbSpline
210
0.0
220
0.0
230
1.0
 70
    24
 71
     3
 72
    12
 73
     8
 74
     0
 42
0.00000001
 43
0.00000001
 40
0.0
 40
0.0
 40
0.0
 40
0.0
 40
0.3013828945620948
 40
0.4108442493795588
 40
0.6247185195336508
 40
0.6986171054378638
 40
1.0
 40
1.0
 40
1.0
 40
1.0
 10
576.8620552485523
 20
568.4737611746066
 30
0.0
 10
576.8339999511812
 20
569.1523165674522
 30
0.0
 10
576.7957550547469
 20
570.0773212245387
 30
0.0
 10
576.7373215731272
 20
571.4906141777764
 30
0.0
 10
576.7000962636839
 20
572.3909587415482
 30
0.0
 10
576.6450085050832
 20
573.7233308488072
 30
0.0
 10
576.6100749029691
 20
574.5682473646568
 30
0.0
 10
576.5820202542038
 20
575.2467870700898
 30
0.0
  0
ARC
  5
E2
330
1F
100
AcDbEntity
  8
0
  6
Continuous
 62
     7
370
    25
100
AcDbCircle
 10
576.807908453
 20
574.9298708772
 30
0.0
 40
0.3891803587970877
100
AcDbArc
 50
86.8534925694
 51
125.4801130186
  0
ARC
  5
E3
330
1F
100
AcDbEntity
  8
0
  6
Continuous
 62
     7
370
    25
100
AcDbCircle
 10
580.8806903304
 20
582.7096595997
 30
0.0
 40
0.3891803588375107
100
AcDbArc
 50
179.2550497425
 51
217.8816701874
  0
SPLINE
  5
E4
330
1F
100
AcDbEntity
  8
0
  6
Continuous
 62
     7
370
    25
100
AcDbSpline
210
0.0
220
0.0
230
1.0
 70
    24
 71
     3
 72
    12
 73
     8
 74
     0
 42
0.00000001
 43
0.00000001
 40
0.0
 40
0.0
 40
0.0
 40
0.0
 40
0.3013828945621506
 40
0.4108442493795785
 40
0.6247185195336594
 40
0.6986171054378614
 40
1.0
 40
1.0
 40
1.0
 40
1.0
 10
580.4915428661568
 20
582.714719515898
 30
0.0
 10
581.0651614255505
 20
583.0782938125551
 30
0.0
 10
581.8471165089892
 20
583.5739171929755
 30
0.0
 10
583.0418473686727
 20
584.3311685491084
 30
0.0
 10
583.8029559783365
 20
584.8135788946361
 30
0.0
 10
584.9292801912163
 20
585.5274723466513
 30
0.0
 10
585.643532556962
 20
585.9801839914525
 30
0.0
 10
586.2171378549608
 20
586.343749882694
 30
0.0
  0
ARC
  5
E5
330
1F
100
AcDbEntity
  8
0
  6
Continuous
 62
     7
370
    25
100
AcDbCircle
 10
586.0556244804
 20
585.9896668677
 30
0.0
 40
0.3891803587986587
100
AcDbArc
 50
26.8534925695
 51
65.4801130185
  0
ARC
  5
E6
330
1F
100
AcDbEntity
  8
0
  6
Continuous
 62
     7
370
    25
100
AcDbCircle
 10
594.829510089
 20
586.352428659
 30
0.0
 40
0.3891803588386796
100
AcDbArc
 50
119.2550497425
 51
157.8816701874
  0
SPLINE
  5
E7
330
1F
100
AcDbEntity
  8
0
  6
Continuous
 62
     7
370
    25
100
AcDbSpline
210
0.0
220
0.0
230
1.0
 70
    24
 71
     3
 72
    12
 73
     8
 74
     0
 42
0.00000001
 43
0.00000001
 40
0.0
 40
0.0
 40
0.0
 40
0.0
 40
0.3013828945621497
 40
0.4108442493795585
 40
0.6247185195336376
 40
0.6986171054378633
 40
0.9999999999999999
 40
0.9999999999999999
 40
0.9999999999999999
 40
0.9999999999999999
 10
594.6393183727531
 20
586.6919702069771
 30
0.0
 10
595.240992229518
 20
586.3769891107884
 30
0.0
 10
596.061192209391
 20
585.9476078341223
 30
0.0
 10
597.3143565506941
 20
585.2915662370177
 30
0.0
 10
598.1126904698012
 20
584.8736320187736
 30
0.0
 10
599.2941024412818
 20
584.2551533635299
 30
0.0
 10
600.0432884091416
 20
583.8629484924816
 30
0.0
 10
600.6449483559056
 20
583.54797467829
 30
0.0
  0
ARC
  5
E8
330
1F
100
AcDbEntity
  8
0
  6
Continuous
 62
     7
370
    25
100
AcDbCircle
 10
600.2575467826
 20
583.5108078562
 30
0.0
 40
0.389180358795234
100
AcDbArc
 50
326.8534925693
 51
5.4801130186
  0
SPLINE
  5
E9
330
1F
100
AcDbEntity
  8
0
  6
Continuous
 62
     7
370
    25
100
AcDbSpline
210
0.0
220
0.0
230
1.0
 70
    24
 71
     3
 72
    12
 73
     8
 74
     0
 42
0.00000001
 43
0.00000001
 40
0.0
 40
0.0
 40
0.0
 40
0.0
 40
0.3013828945621527
 40
0.4108442493795542
 40
0.624718519533646
 40
0.6986171054378584
 40
1.0
 40
1.0
 40
1.0
 40
1.0
 10
605.157606261745
 20
576.428262556765
 30
0.0
 10
605.1856615591163
 20
575.7497071639193
 30
0.0
 10
605.2239064555506
 20
574.8247025068329
 30
0.0
 10
605.2823399371701
 20
573.4114095535951
 30
0.0
 10
605.3195652466136
 20
572.5110649898235
 30
0.0
 10
605.3746530052142
 20
571.1786928825644
 30
0.0
 10
605.4095866073283
 20
570.3337763667149
 30
0.0
 10
605.4376412560937
 20
569.655236661282
 30
0.0
  0
ARC
  5
EA
330
1F
100
AcDbEntity
  8
0
  6
Continuous
 62
     7
370
    25
100
AcDbCircle
 10
605.2117530573
 20
569.9721528542
 30
0.0
 40
0.3891803587968341
100
AcDbArc
 50
266.8534925694
 51
305.4801130186
  0
ARC
  5
EB
330
1F
100
AcDbEntity
  8
0
  6
Continuous
 62
     7
370
    25
100
AcDbCircle
 10
604.9586505137
 20
576.093780925
 30
0.0
 40
0.389180358798479
100
AcDbArc
 50
59.2550497404
 51
97.8816701894
  0
LINE
  5
EC
330
1F
100
AcDbEntity
  8
0
  6
Continuous
 62
     7
370
    25
100
AcDbLine
 10
600.6449483559
 20
583.5479746783
 30
0.0
 11
602.1929426982
 21
582.7375872078
 31
0.0
  0
LINE
  5
ED
330
1F
100
AcDbEntity
  8
0
  6
Continuous
 62
     7
370
    25
100
AcDbLine
 10
602.1929426982
 20
582.7375872078
 30
0.0
 11
601.9610440055
 21
582.2946165583
 31
0.0
  0
LINE
  5
EE
330
1F
100
AcDbEntity
  8
0
  6
Continuous
 62
     7
370
    25
100
AcDbLine
 10
586.217137855
 20
586.3437498827
 30
0.0
 11
587.6929511624
 21
587.2791585728
 31
0.0
  0
LINE
  5
EF
330
1F
100
AcDbEntity
  8
0
  6
Continuous
 62
     7
370
    25
100
AcDbLine
 10
587.6929511624
 20
587.2791585728
 30
0.0
 11
587.9606256517
 21
586.8568430891
 31
0.0
  0
LINE
  5
F0
330
1F
100
AcDbEntity
  8
0
  6
Continuous
 62
     7
370
    25
100
AcDbLine
 10
605.4376412561
 20
569.6552366613
 30
0.0
 11
605.5098222909
 21
567.9094405007
 31
0.0
  0
LINE
  5
F1
330
1F
100
AcDbEntity
  8
0
  6
Continuous
 62
     7
370
    25
100
AcDbLine
 10
605.5098222909
 20
567.9094405007
 30
0.0
 11
605.010249109
 21
567.8887853349
 31
0.0
  0
LINE
  5
F2
330
1F
100
AcDbEntity
  8
0
  6
Continuous
 62
     7
370
    25
100
AcDbLine
 10
576.5820202542
 20
575.2467870701
 30
0.0
 11
576.5098392194
 21
576.9925832306
 31
0.0
  0
LINE
  5
F3
330
1F
100
AcDbEntity
  8
0
  6
Continuous
 62
     7
370
    25
100
AcDbLine
 10
577.0094124013
 20
577.0132383965
 30
0.0
 11
576.5098392194
 21
576.9925832306
 31
0.0
  0
LINE
  5
F4
330
1F
100
AcDbEntity
  8
0
  6
Continuous
 62
     7
370
    25
100
AcDbLine
 10
581.3747131544
 20
561.3540490531
 30
0.0
 11
579.8267188121
 21
562.1644365235
 31
0.0
  0
LINE
  5
F5
330
1F
100
AcDbEntity
  8
0
  6
Continuous
 62
     7
370
    25
100
AcDbLine
 10
579.8267188121
 20
562.1644365235
 30
0.0
 11
580.0586175048
 21
562.6074071731
 31
0.0
  0
LINE
  5
F6
330
1F
100
AcDbEntity
  8
0
  6
Continuous
 62
     7
370
    25
100
AcDbLine
 10
592.8594253379
 20
587.0593870279
 30
0.0
 11
593.0913240305
 21
587.5023576774
 31
0.0
  0
LINE
  5
F7
330
1F
100
AcDbEntity
  8
0
  6
Continuous
 62
     7
370
    25
100
AcDbLine
 10
593.0913240305
 20
587.5023576774
 30
0.0
 11
594.6393183728
 21
586.691970207
 31
0.0
  0
LINE
  5
F8
330
1F
100
AcDbEntity
  8
0
  6
Continuous
 62
     7
370
    25
100
AcDbLine
 10
605.0854252269
 20
578.1740587173
 30
0.0
 11
605.1576062617
 21
576.4282625568
 31
0.0
  0
LINE
  5
F9
330
1F
100
AcDbEntity
  8
0
  6
Continuous
 62
     7
370
    25
100
AcDbLine
 10
604.585852045
 20
578.1534035515
 30
0.0
 11
605.0854252269
 21
578.1740587173
 31
0.0
  0
LINE
  5
FA
330
1F
100
AcDbEntity
  8
0
  6
Continuous
 62
     7
370
    25
100
AcDbLine
 10
579.283404048
 20
581.3569953421
 30
0.0
 11
579.0157295587
 21
581.7793108258
 31
0.0
  0
LINE
  5
FB
330
1F
100
AcDbEntity
  8
0
  6
Continuous
 62
     7
370
    25
100
AcDbLine
 10
579.0157295587
 20
581.7793108258
 30
0.0
 11
580.4915428662
 21
582.7147195159
 31
0.0
  0
LINE
  5
FC
330
1F
100
AcDbEntity
  8
0
  6
Continuous
 62
     7
370
    25
100
AcDbLine
 10
603.0039319516
 20
563.1227129056
 30
0.0
 11
601.5281186441
 21
562.1873042155
 31
0.0
  0
LINE
  5
FD
330
1F
100
AcDbEntity
  8
0
  6
Continuous
 62
     7
370
    25
100
AcDbLine
 10
602.7362574623
 20
563.5450283893
 30
0.0
 11
603.0039319516
 21
563.1227129056
 31
0.0
  0
LINE
  5
FE
330
1F
100
AcDbEntity
  8
0
  6
Continuous
 62
     7
370
    25
100
AcDbLine
 10
577.4338094653
 20
566.7486201799
 30
0.0
 11
576.9342362834
 21
566.7279650141
 31
0.0
  0
LINE
  5
FF
330
1F
100
AcDbEntity
  8
0
  6
Continuous
 62
     7
370
    25
100
AcDbLine
 10
576.9342362834
 20
566.7279650141
 30
0.0
 11
576.8620552486
 21
568.4737611746
 31
0.0
  0
ARC
  5
100
330
1F
100
AcDbEntity
  8
0
  6
Continuous
 62
     7
370
    25
100
AcDbCircle
 10
591.0098307551
 20
572.4510118657
 30
0.0
 40
15.50000000000001
100
AcDbArc
 50
89.453771138
 51
95.2813916209
  0
LINE
  5
101
330
1F
100
AcDbEntity
  8
0
  6
Continuous
 62
     7
370
    25
100
AcDbLine
 10
589.5830992541
 20
587.8852088718
 30
0.0
 11
589.5370756573
 21
588.3830861946
 31
0.0
  0
ARC
  5
102
330
1F
100
AcDbEntity
  8
0
  6
Continuous
 62
     7
370
    25
100
AcDbCircle
 10
591.0098307551
 20
572.4510118657
 30
0.0
 40
16.00000000000005
100
AcDbArc
 50
89.453771138
 51
95.2813916209
  0
LINE
  5
103
330
1F
100
AcDbEntity
  8
0
  6
Continuous
 62
     7
370
    25
100
AcDbLine
 10
591.1575976445
 20
587.9503074931
 30
0.0
 11
591.1623643183
 21
588.4502847714
 31
0.0
  0
ARC
  5
104
330
1F
100
AcDbEntity
  8
0
  6
Continuous
 62
     7
370
    25
100
AcDbCircle
 10
603.6628716989
 20
581.4036960931
 30
0.0
 40
0.5000000000000553
100
AcDbArc
 50
35.2813916209
 51
62.3675813795
  0
LINE
  5
105
330
1F
100
AcDbEntity
  8
0
  6
Continuous
 62
     7
370
    25
100
AcDbLine
 10
603.6628716989
 20
581.4036960931
 30
0.0
 11
604.07103431
 21
581.6924923585
 31
0.0
  0
LINE
  5
106
330
1F
100
AcDbEntity
  8
0
  6
Continuous
 62
     7
370
    25
100
AcDbLine
 10
603.8947703916
 20
581.8466667426
 30
0.0
 11
603.6628716989
 21
581.4036960931
 31
0.0
  0
LINE
  5
107
330
1F
100
AcDbEntity
  8
0
  6
Continuous
 62
     7
370
    25
100
AcDbLine
 10
592.8594253379
 20
587.0593870279
 30
0.0
 11
591.1575976445
 21
587.9503074931
 31
0.0
  0
LINE
  5
108
330
1F
100
AcDbEntity
  8
0
  6
Continuous
 62
     7
370
    25
100
AcDbLine
 10
591.1575976445
 20
587.9503074931
 30
0.0
 11
591.3894963371
 21
588.3932781427
 31
0.0
  0
LINE
  5
109
330
1F
100
AcDbEntity
  8
0
  6
Continuous
 62
     7
370
    25
100
AcDbLine
 10
591.3894963371
 20
588.3932781427
 30
0.0
 11
593.0913240305
 21
587.5023576774
 31
0.0
  0
LINE
  5
10A
330
1F
100
AcDbEntity
  8
0
  6
Continuous
 62
     7
370
    25
100
AcDbLine
 10
589.5830992541
 20
587.8852088718
 30
0.0
 11
587.9606256517
 21
586.8568430891
 31
0.0
  0
ARC
  5
10B
330
1F
100
AcDbEntity
  8
0
  6
Continuous
 62
     7
370
    25
100
AcDbCircle
 10
591.1575976445
 20
587.9503074931
 30
0.0
 40
0.5000000000000672
100
AcDbArc
 50
62.3675813795
 51
89.453771138
  0
ARC
  5
10C
330
1F
100
AcDbEntity
  8
0
  6
Continuous
 62
     7
370
    25
100
AcDbCircle
 10
591.0098307551
 20
572.4510118657
 30
0.0
 40
16.00000000000012
100
AcDbArc
 50
29.453771138
 51
35.2813916209
  0
LINE
  5
10D
330
1F
100
AcDbEntity
  8
0
  6
Continuous
 62
     7
370
    25
100
AcDbLine
 10
604.9418743152
 20
580.3185503779
 30
0.0
 11
604.5064979539
 21
580.0726897994
 31
0.0
  0
ARC
  5
10E
330
1F
100
AcDbEntity
  8
0
  6
Continuous
 62
     7
370
    25
100
AcDbCircle
 10
591.0098307551
 20
572.4510118657
 30
0.0
 40
15.50000000000014
100
AcDbArc
 50
29.453771138
 51
35.2813916209
  0
LINE
  5
10F
330
1F
100
AcDbEntity
  8
0
  6
Continuous
 62
     7
370
    25
100
AcDbLine
 10
602.1929426982
 20
582.7375872078
 30
0.0
 11
603.8947703916
 21
581.8466667426
 31
0.0
  0
LINE
  5
110
330
1F
100
AcDbEntity
  8
0
  6
Continuous
 62
     7
370
    25
100
AcDbLine
 10
603.6628716989
 20
581.4036960931
 30
0.0
 11
601.9610440055
 21
582.2946165583
 31
0.0
  0
LINE
  5
111
330
1F
100
AcDbEntity
  8
0
  6
Continuous
 62
     7
370
    25
100
AcDbLine
 10
604.585852045
 20
578.1534035515
 30
0.0
 11
604.5064979539
 21
580.0726897994
 31
0.0
  0
ARC
  5
112
330
1F
100
AcDbEntity
  8
0
  6
Continuous
 62
     7
370
    25
100
AcDbCircle
 10
589.5830992541
 20
587.8852088718
 30
0.0
 40
0.5000000000000488
100
AcDbArc
 50
95.2813916209
 51
122.3675813795
  0
LINE
  5
113
330
1F
100
AcDbEntity
  8
0
  6
Continuous
 62
     7
370
    25
100
AcDbLine
 10
589.3154247647
 20
588.3075243555
 30
0.0
 11
589.5830992541
 21
587.8852088718
 31
0.0
  0
LINE
  5
114
330
1F
100
AcDbEntity
  8
0
  6
Continuous
 62
     7
370
    25
100
AcDbLine
 10
587.6929511624
 20
587.2791585728
 30
0.0
 11
589.3154247647
 21
588.3075243555
 31
0.0
  0
LINE
  5
115
330
1F
100
AcDbEntity
  8
0
  6
Continuous
 62
     7
370
    25
100
AcDbLine
 10
604.5064979539
 20
580.0726897994
 30
0.0
 11
605.0060711359
 21
580.0933449653
 31
0.0
  0
LINE
  5
116
330
1F
100
AcDbEntity
  8
0
  6
Continuous
 62
     7
370
    25
100
AcDbLine
 10
605.0060711359
 20
580.0933449653
 30
0.0
 11
605.0854252269
 21
578.1740587173
 31
0.0
  0
ARC
  5
117
330
1F
100
AcDbEntity
  8
0
  6
Continuous
 62
     7
370
    25
100
AcDbCircle
 10
604.5064979539
 20
580.0726897994
 30
0.0
 40
0.4999999999999102
100
AcDbArc
 50
2.3675813795
 51
29.453771138
  0
LINE
  5
118
330
1F
100
AcDbEntity
  8
0
  6
Continuous
 62
     7
370
    25
100
AcDbLine
 10
602.7362574623
 20
563.5450283893
 30
0.0
 11
604.3587310646
 21
564.573394172
 31
0.0
  0
LINE
  5
119
330
1F
100
AcDbEntity
  8
0
  6
Continuous
 62
     7
370
    25
100
AcDbLine
 10
605.0896032
 20
565.9694990869
 30
0.0
 11
605.010249109
 21
567.8887853349
 31
0.0
  0
ARC
  5
11A
330
1F
100
AcDbEntity
  8
0
  6
Continuous
 62
     7
370
    25
100
AcDbCircle
 10
591.0098307551
 20
572.4510118657
 30
0.0
 40
15.50000000000006
100
AcDbArc
 50
329.453771138
 51
335.2813916209
  0
ARC
  5
11B
330
1F
100
AcDbEntity
  8
0
  6
Continuous
 62
     7
370
    25
100
AcDbCircle
 10
591.0098307551
 20
572.4510118657
 30
0.0
 40
16.0000000000001
100
AcDbArc
 50
329.453771138
 51
335.2813916209
  0
LINE
  5
11C
330
1F
100
AcDbEntity
  8
0
  6
Continuous
 62
     7
370
    25
100
AcDbLine
 10
604.789340752
 20
564.3192774722
 30
0.0
 11
604.3587310646
 21
564.573394172
 31
0.0
  0
LINE
  5
11D
330
1F
100
AcDbEntity
  8
0
  6
Continuous
 62
     7
370
    25
100
AcDbLine
 10
605.5437894079
 20
565.7604180296
 30
0.0
 11
605.0896032
 21
565.9694990869
 31
0.0
  0
ARC
  5
11E
330
1F
100
AcDbEntity
  8
0
  6
Continuous
 62
     7
370
    25
100
AcDbCircle
 10
577.6609304457
 20
580.3286295594
 30
0.0
 40
0.4999999999999955
100
AcDbArc
 50
122.3675813795
 51
149.453771138
  0
LINE
  5
11F
330
1F
100
AcDbEntity
  8
0
  6
Continuous
 62
     7
370
    25
100
AcDbLine
 10
577.6609304457
 20
580.3286295594
 30
0.0
 11
577.3932559564
 21
580.7509450431
 31
0.0
  0
LINE
  5
120
330
1F
100
AcDbEntity
  8
0
  6
Continuous
 62
     7
370
    25
100
AcDbLine
 10
577.6609304457
 20
580.3286295594
 30
0.0
 11
577.2303207583
 21
580.5827462592
 31
0.0
  0
LINE
  5
121
330
1F
100
AcDbEntity
  8
0
  6
Continuous
 62
     7
370
    25
100
AcDbLine
 10
605.5098222909
 20
567.9094405007
 30
0.0
 11
605.589176382
 21
565.9901542528
 31
0.0
  0
LINE
  5
122
330
1F
100
AcDbEntity
  8
0
  6
Continuous
 62
     7
370
    25
100
AcDbLine
 10
605.589176382
 20
565.9901542528
 30
0.0
 11
605.0896032
 21
565.9694990869
 31
0.0
  0
LINE
  5
123
330
1F
100
AcDbEntity
  8
0
  6
Continuous
 62
     7
370
    25
100
AcDbLine
 10
579.283404048
 20
581.3569953421
 30
0.0
 11
577.6609304457
 21
580.3286295594
 31
0.0
  0
LINE
  5
124
330
1F
100
AcDbEntity
  8
0
  6
Continuous
 62
     7
370
    25
100
AcDbLine
 10
577.3932559564
 20
580.7509450431
 30
0.0
 11
579.0157295587
 21
581.7793108258
 31
0.0
  0
ARC
  5
125
330
1F
100
AcDbEntity
  8
0
  6
Continuous
 62
     7
370
    25
100
AcDbCircle
 10
605.0896032
 20
565.9694990869
 30
0.0
 40
0.500000000000074
100
AcDbArc
 50
335.2813916209
 51
2.3675813795
  0
LINE
  5
126
330
1F
100
AcDbEntity
  8
0
  6
Continuous
 62
     7
370
    25
100
AcDbLine
 10
576.9300583103
 20
578.9325246444
 30
0.0
 11
577.0094124013
 21
577.0132383965
 31
0.0
  0
ARC
  5
127
330
1F
100
AcDbEntity
  8
0
  6
Continuous
 62
     7
370
    25
100
AcDbCircle
 10
591.0098307551
 20
572.4510118657
 30
0.0
 40
15.49999999999997
100
AcDbArc
 50
149.453771138
 51
155.2813916209
  0
LINE
  5
128
330
1F
100
AcDbEntity
  8
0
  6
Continuous
 62
     7
370
    25
100
AcDbLine
 10
576.9300583103
 20
578.9325246444
 30
0.0
 11
576.4758721024
 21
579.1416057018
 31
0.0
  0
ARC
  5
129
330
1F
100
AcDbEntity
  8
0
  6
Continuous
 62
     7
370
    25
100
AcDbCircle
 10
591.0098307551
 20
572.4510118657
 30
0.0
 40
15.99999999999994
100
AcDbArc
 50
149.453771138
 51
155.2813916209
  0
LINE
  5
12A
330
1F
100
AcDbEntity
  8
0
  6
Continuous
 62
     7
370
    25
100
AcDbLine
 10
576.5098392194
 20
576.9925832306
 30
0.0
 11
576.4304851283
 21
578.9118694786
 31
0.0
  0
LINE
  5
12B
330
1F
100
AcDbEntity
  8
0
  6
Continuous
 62
     7
370
    25
100
AcDbLine
 10
576.9300583103
 20
578.9325246444
 30
0.0
 11
576.4304851283
 21
578.9118694786
 31
0.0
  0
ARC
  5
12C
330
1F
100
AcDbEntity
  8
0
  6
Continuous
 62
     7
370
    25
100
AcDbCircle
 10
604.3587310646
 20
564.573394172
 30
0.0
 40
0.5000000000000433
100
AcDbArc
 50
302.3675813795
 51
329.4537711381
  0
LINE
  5
12D
330
1F
100
AcDbEntity
  8
0
  6
Continuous
 62
     7
370
    25
100
AcDbLine
 10
604.3587310646
 20
564.573394172
 30
0.0
 11
604.6264055539
 21
564.1510786883
 31
0.0
  0
ARC
  5
12E
330
1F
100
AcDbEntity
  8
0
  6
Continuous
 62
     7
370
    25
100
AcDbCircle
 10
576.9300583103
 20
578.9325246444
 30
0.0
 40
0.5000000000000229
100
AcDbArc
 50
155.2813916209
 51
182.3675813795
  0
LINE
  5
12F
330
1F
100
AcDbEntity
  8
0
  6
Continuous
 62
     7
370
    25
100
AcDbLine
 10
604.6264055539
 20
564.1510786883
 30
0.0
 11
603.0039319516
 21
563.1227129056
 31
0.0
  0
LINE
  5
130
330
1F
100
AcDbEntity
  8
0
  6
Continuous
 62
     7
370
    25
100
AcDbLine
 10
578.3567898114
 20
563.4983276383
 30
0.0
 11
580.0586175048
 21
562.6074071731
 31
0.0
  0
ARC
  5
131
330
1F
100
AcDbEntity
  8
0
  6
Continuous
 62
     7
370
    25
100
AcDbCircle
 10
591.0098307551
 20
572.4510118657
 30
0.0
 40
15.49999999999994
100
AcDbArc
 50
209.453771138
 51
215.2813916209
  0
LINE
  5
132
330
1F
100
AcDbEntity
  8
0
  6
Continuous
 62
     7
370
    25
100
AcDbLine
 10
577.4338094653
 20
566.7486201799
 30
0.0
 11
577.5131635564
 21
564.829333932
 31
0.0
  0
LINE
  5
133
330
1F
100
AcDbEntity
  8
0
  6
Continuous
 62
     7
370
    25
100
AcDbLine
 10
579.8267188121
 20
562.1644365235
 30
0.0
 11
578.1248911187
 21
563.0553569888
 31
0.0
  0
LINE
  5
134
330
1F
100
AcDbEntity
  8
0
  6
Continuous
 62
     7
370
    25
100
AcDbLine
 10
578.1248911187
 20
563.0553569888
 30
0.0
 11
578.3567898114
 21
563.4983276383
 31
0.0
  0
LINE
  5
135
330
1F
100
AcDbEntity
  8
0
  6
Continuous
 62
     7
370
    25
100
AcDbLine
 10
577.9486272003
 20
563.2095313729
 30
0.0
 11
578.3567898114
 21
563.4983276383
 31
0.0
  0
ARC
  5
136
330
1F
100
AcDbEntity
  8
0
  6
Continuous
 62
     7
370
    25
100
AcDbCircle
 10
591.0098307551
 20
572.4510118657
 30
0.0
 40
15.99999999999987
100
AcDbArc
 50
209.453771138
 51
215.2813916209
  0
LINE
  5
137
330
1F
100
AcDbEntity
  8
0
  6
Continuous
 62
     7
370
    25
100
AcDbLine
 10
577.5131635564
 20
564.829333932
 30
0.0
 11
577.0777871951
 21
564.5834733535
 31
0.0
  0
ARC
  5
138
330
1F
100
AcDbEntity
  8
0
  6
Continuous
 62
     7
370
    25
100
AcDbCircle
 10
578.3567898114
 20
563.4983276383
 30
0.0
 40
0.5000000000000144
100
AcDbArc
 50
215.2813916209
 51
242.3675813795
  0
LINE
  5
139
330
1F
100
AcDbEntity
  8
0
  6
Continuous
 62
     7
370
    25
100
AcDbLine
 10
577.5131635564
 20
564.829333932
 30
0.0
 11
577.0135903744
 21
564.8086787661
 31
0.0
  0
LINE
  5
13A
330
1F
100
AcDbEntity
  8
0
  6
Continuous
 62
     7
370
    25
100
AcDbLine
 10
577.0135903744
 20
564.8086787661
 30
0.0
 11
576.9342362834
 21
566.7279650141
 31
0.0
  0
ARC
  5
13B
330
1F
100
AcDbEntity
  8
0
  6
Continuous
 62
     7
370
    25
100
AcDbCircle
 10
577.5131635564
 20
564.829333932
 30
0.0
 40
0.5000000000000182
100
AcDbArc
 50
182.3675813795
 51
209.453771138
  0
ARC
  5
13C
330
1F
100
AcDbEntity
  8
0
  6
Continuous
 62
     7
370
    25
100
AcDbCircle
 10
591.0098307551
 20
572.4510118657
 30
0.0
 40
8.050000000000058
100
AcDbArc
 50
29.4063269879
 51
191.0780164461
  0
ARC
  5
13D
330
1F
100
AcDbEntity
  8
0
  6
Continuous
 62
     7
370
    25
100
AcDbCircle
 10
591.0098307551
 20
572.4510118657
 30
0.0
 40
8.050000000000098
100
AcDbArc
 50
348.9219835539
 51
29.4063269879
  0
ARC
  5
13E
330
1F
100
AcDbEntity
  8
0
  6
Continuous
 62
     7
370
    25
100
AcDbCircle
 10
591.0098307551
 20
572.4510118657
 30
0.0
 40
8.250000000000059
100
AcDbArc
 50
343.2508741362
 51
119.4063269879
  0
ARC
  5
13F
330
1F
100
AcDbEntity
  8
0
  6
Continuous
 62
     7
370
    25
100
AcDbCircle
 10
591.0098307551
 20
572.4510118657
 30
0.0
 40
8.25
100
AcDbArc
 50
119.4063269879
 51
196.7491258638
  0
ARC
  5
140
330
1F
100
AcDbEntity
  8
0
  6
Continuous
 62
     7
370
    25
100
AcDbCircle
 10
591.0098307551
 20
572.4510118657
 30
0.0
 40
9.575000000000092
100
AcDbArc
 50
325.5951096848
 51
119.4063269879
  0
ARC
  5
141
330
1F
100
AcDbEntity
  8
0
  6
Continuous
 62
     7
370
    25
100
AcDbCircle
 10
591.0098307551
 20
572.4510118657
 30
0.0
 40
9.574999999999998
100
AcDbArc
 50
119.4063269879
 51
214.4048903152
  0
CIRCLE
  5
142
330
1F
100
AcDbEntity
  8
0
  6
Continuous
 62
     7
370
    25
100
AcDbCircle
 10
641.8098307551
 20
572.4510118657
 30
0.0
 40
5.328914336627577
  0
CIRCLE
  5
143
330
1F
100
AcDbEntity
  8
0
  6
Continuous
 62
     7
370
    25
100
AcDbCircle
 10
641.8098307551
 20
572.4510118657
 30
0.0
 40
5.925127771161442
  0
CIRCLE
  5
144
330
1F
100
AcDbEntity
  8
0
  6
Continuous
 62
     7
370
    25
100
AcDbCircle
 10
641.8098307551
 20
572.4510118657
 30
0.0
 40
5.074569253689106
  0
CIRCLE
  5
145
330
1F
100
AcDbEntity
  8
0
  6
Continuous
 62
     7
370
    25
100
AcDbCircle
 10
641.8098307551
 20
572.4510118657
 30
0.0
 40
7.150000000000091
  0
LINE
  5
146
330
1F
100
AcDbEntity
  8
0
  6
Continuous
 62
     7
370
    25
100
AcDbLine
 10
537.8497930319
 20
571.2059327739
 30
0.0
 11
537.542852076
 21
572.3660134822
 31
0.0
  0
LINE
  5
147
330
1F
100
AcDbEntity
  8
0
  6
Continuous
 62
     7
370
    25
100
AcDbLine
 10
539.0582104363
 20
571.5256629363
 30
0.0
 11
537.8497930319
 21
571.2059327739
 31
0.0
  0
SPLINE
  5
148
330
1F
100
AcDbEntity
  8
0
  6
Continuous
 62
     7
370
    25
100
AcDbSpline
210
0.0
220
0.0
230
1.0
 70
     8
 71
     3
 72
    12
 73
     8
 74
     0
 42
0.00000001
 43
0.00000001
 40
0.0
 40
0.0
 40
0.0
 40
0.0
 40
0.2133534395476129
 40
0.4267919313634445
 40
0.6383539739091494
 40
0.8490950351927571
 40
1.0
 40
1.0
 40
1.0
 40
1.0
 10
539.9750989763359
 20
570.9924505909997
 30
0.0
 10
539.9459105373859
 20
571.071094617911
 30
0.0
 10
539.8875220236624
 20
571.2284140227764
 30
0.0
 10
539.7071051429176
 20
571.4122174276418
 30
0.0
 10
539.4826955466883
 20
571.5277459147003
 30
0.0
 10
539.2550365027867
 20
571.563360694448
 30
0.0
 10
539.1161598523789
 20
571.5367618883113
 30
0.0
 10
539.0582104362916
 20
571.5256629362576
 30
0.0
  0
LINE
  5
149
330
1F
100
AcDbEntity
  8
0
  6
Continuous
 62
     7
370
    25
100
AcDbLine
 10
540.2948291387
 20
569.7840331866
 30
0.0
 11
539.9750989763
 21
570.992450591
 31
0.0
  0
LINE
  5
14A
330
1F
100
AcDbEntity
  8
0
  6
Continuous
 62
     7
370
    25
100
AcDbLine
 10
541.4549098469
 20
570.0909741424
 30
0.0
 11
540.2948291387
 21
569.7840331866
 31
0.0
  0
LINE
  5
14B
330
1F
100
AcDbEntity
  8
0
  6
Continuous
 62
     7
370
    25
100
AcDbLine
 10
541.1351796846
 20
571.2993915468
 30
0.0
 11
541.4549098469
 21
570.0909741424
 31
0.0
  0
SPLINE
  5
14C
330
1F
100
AcDbEntity
  8
0
  6
Continuous
 62
     7
370
    25
100
AcDbSpline
210
0.0
220
0.0
230
1.0
 70
     8
 71
     3
 72
    12
 73
     8
 74
     0
 42
0.00000001
 43
0.00000001
 40
0.0
 40
0.0
 40
0.0
 40
0.0
 40
0.2133534395476105
 40
0.4267919313634458
 40
0.6383539739091507
 40
0.8490950351927564
 40
1.0
 40
1.0
 40
1.0
 40
1.0
 10
541.6683920298354
 20
572.2162800868733
 30
0.0
 10
541.5897480029242
 20
572.1870916479232
 30
0.0
 10
541.4324285980589
 20
572.1287031341999
 30
0.0
 10
541.2486251931933
 20
571.9482862534551
 30
0.0
 10
541.1330967061351
 20
571.7238766572257
 30
0.0
 10
541.0974819263872
 20
571.4962176133241
 30
0.0
 10
541.1240807325239
 20
571.3573409629165
 30
0.0
 10
541.1351796845776
 20
571.2993915468289
 30
0.0
  0
LINE
  5
14D
330
1F
100
AcDbEntity
  8
0
  6
Continuous
 62
     7
370
    25
100
AcDbLine
 10
542.8768094343
 20
572.5360102492
 30
0.0
 11
541.6683920298
 21
572.2162800869
 31
0.0
  0
LINE
  5
14E
330
1F
100
AcDbEntity
  8
0
  6
Continuous
 62
     7
370
    25
100
AcDbLine
 10
542.5698684784
 20
573.6960909574
 30
0.0
 11
542.8768094343
 21
572.5360102492
 31
0.0
  0
LINE
  5
14F
330
1F
100
AcDbEntity
  8
0
  6
Continuous
 62
     7
370
    25
100
AcDbLine
 10
541.361451074
 20
573.3763607951
 30
0.0
 11
542.5698684784
 21
573.6960909574
 31
0.0
  0
SPLINE
  5
150
330
1F
100
AcDbEntity
  8
0
  6
Continuous
 62
     7
370
    25
100
AcDbSpline
210
0.0
220
0.0
230
1.0
 70
     8
 71
     3
 72
    12
 73
     8
 74
     0
 42
0.00000001
 43
0.00000001
 40
0.0
 40
0.0
 40
0.0
 40
0.0
 40
0.2133534395476133
 40
0.4267919313634492
 40
0.6383539739091546
 40
0.8490950351927566
 40
1.0
 40
1.0
 40
1.0
 40
1.0
 10
540.4445625339619
 20
573.9095731403728
 30
0.0
 10
540.473750972912
 20
573.8309291134617
 30
0.0
 10
540.5321394866353
 20
573.6736097085962
 30
0.0
 10
540.7125563673801
 20
573.4898063037308
 30
0.0
 10
540.9369659636095
 20
573.3742778166724
 30
0.0
 10
541.1646250075111
 20
573.3386630369246
 30
0.0
 10
541.3035016579188
 20
573.3652618430614
 30
0.0
 10
541.3614510740063
 20
573.376360795115
 30
0.0
  0
LINE
  5
151
330
1F
100
AcDbEntity
  8
0
  6
Continuous
 62
     7
370
    25
100
AcDbLine
 10
540.1248323716
 20
575.1179905448
 30
0.0
 11
540.444562534
 21
573.9095731404
 31
0.0
  0
LINE
  5
152
330
1F
100
AcDbEntity
  8
0
  6
Continuous
 62
     7
370
    25
100
AcDbLine
 10
538.9647516634
 20
574.811049589
 30
0.0
 11
540.1248323716
 21
575.1179905448
 31
0.0
  0
LINE
  5
153
330
1F
100
AcDbEntity
  8
0
  6
Continuous
 62
     7
370
    25
100
AcDbLine
 10
539.2844818257
 20
573.6026321845
 30
0.0
 11
538.9647516634
 21
574.811049589
 31
0.0
  0
LINE
  5
154
330
1F
100
AcDbEntity
  8
0
  6
Continuous
 62
     7
370
    25
100
AcDbLine
 10
537.542852076
 20
572.3660134822
 30
0.0
 11
538.7512694805
 21
572.6857436445
 31
0.0
  0
CIRCLE
  5
155
330
1F
100
AcDbEntity
  8
0
  6
Continuous
 62
     7
370
    25
100
AcDbCircle
 10
540.2098307551
 20
572.4510118657
 30
0.0
 40
4.197433366238822
  0
SPLINE
  5
156
330
1F
100
AcDbEntity
  8
0
  6
Continuous
 62
     7
370
    25
100
AcDbSpline
210
0.0
220
0.0
230
1.0
 70
     8
 71
     3
 72
    12
 73
     8
 74
     0
 42
0.00000001
 43
0.00000001
 40
0.0
 40
0.0
 40
0.0
 40
0.0
 40
0.2133534395476105
 40
0.4267919313634458
 40
0.6383539739091508
 40
0.8490950351927568
 40
1.0
 40
1.0
 40
1.0
 40
1.0
 10
538.7512694804624
 20
572.6857436444993
 30
0.0
 10
538.8299135073735
 20
572.7149320834494
 30
0.0
 10
538.9872329122389
 20
572.7733205971728
 30
0.0
 10
539.1710363171044
 20
572.9537374779176
 30
0.0
 10
539.2865648041628
 20
573.178147074147
 30
0.0
 10
539.3221795839105
 20
573.4058061180485
 30
0.0
 10
539.2955807777738
 20
573.5446827684563
 30
0.0
 10
539.2844818257201
 20
573.6026321845436
 30
0.0
  0
CIRCLE
  5
157
330
1F
100
AcDbEntity
  8
0
  6
Continuous
 62
     7
370
    25
100
AcDbCircle
 10
540.2098307551
 20
572.4510118657
 30
0.0
 40
4.499999999999949
  0
LINE
  5
158
330
1F
100
AcDbEntity
  8
0
  6
Continuous
 62
     7
370
    25
100
AcDbLine
 10
639.142852076
 20
572.5360102492
 30
0.0
 11
639.4497930319
 21
573.6960909574
 31
0.0
  0
LINE
  5
159
330
1F
100
AcDbEntity
  8
0
  6
Continuous
 62
     7
370
    25
100
AcDbLine
 10
640.3512694805
 20
572.2162800869
 30
0.0
 11
639.142852076
 21
572.5360102492
 31
0.0
  0
LINE
  5
15A
330
1F
100
AcDbEntity
  8
0
  6
Continuous
 62
     7
370
    25
100
AcDbLine
 10
640.5647516634
 20
570.0909741424
 30
0.0
 11
640.8844818257
 21
571.2993915468
 31
0.0
  0
LINE
  5
15B
330
1F
100
AcDbEntity
  8
0
  6
Continuous
 62
     7
370
    25
100
AcDbLine
 10
641.7248323716
 20
569.7840331866
 30
0.0
 11
640.5647516634
 21
570.0909741424
 31
0.0
  0
LINE
  5
15C
330
1F
100
AcDbEntity
  8
0
  6
Continuous
 62
     7
370
    25
100
AcDbLine
 10
642.044562534
 20
570.992450591
 30
0.0
 11
641.7248323716
 21
569.7840331866
 31
0.0
  0
SPLINE
  5
15D
330
1F
100
AcDbEntity
  8
0
  6
Continuous
 62
     7
370
    25
100
AcDbSpline
210
0.0
220
0.0
230
1.0
 70
     8
 71
     3
 72
    12
 73
     8
 74
     0
 42
0.00000001
 43
0.00000001
 40
0.0
 40
0.0
 40
0.0
 40
0.0
 40
0.2133534395476112
 40
0.4267919313634456
 40
0.6383539739091519
 40
0.8490950351927574
 40
1.0
 40
1.0
 40
1.0
 40
1.0
 10
642.9614510740063
 20
571.5256629362576
 30
0.0
 10
642.8786625460856
 20
571.5391872692121
 30
0.0
 10
642.7130524870169
 20
571.5662413265283
 30
0.0
 10
642.4640747103412
 20
571.5003322283743
 30
0.0
 10
642.2526813926848
 20
571.3624215201168
 30
0.0
 10
642.1091379748372
 20
571.182165202615
 30
0.0
 10
642.0635747977284
 20
571.0483062566752
 30
0.0
 10
642.0445625339619
 20
570.9924505909997
 30
0.0
  0
LINE
  5
15E
330
1F
100
AcDbEntity
  8
0
  6
Continuous
 62
     7
370
    25
100
AcDbLine
 10
644.1698684784
 20
571.2059327739
 30
0.0
 11
642.961451074
 21
571.5256629363
 31
0.0
  0
LINE
  5
15F
330
1F
100
AcDbEntity
  8
0
  6
Continuous
 62
     7
370
    25
100
AcDbLine
 10
644.4768094343
 20
572.3660134822
 30
0.0
 11
644.1698684784
 21
571.2059327739
 31
0.0
  0
LINE
  5
160
330
1F
100
AcDbEntity
  8
0
  6
Continuous
 62
     7
370
    25
100
AcDbLine
 10
643.2683920298
 20
572.6857436445
 30
0.0
 11
644.4768094343
 21
572.3660134822
 31
0.0
  0
SPLINE
  5
161
330
1F
100
AcDbEntity
  8
0
  6
Continuous
 62
     7
370
    25
100
AcDbSpline
210
0.0
220
0.0
230
1.0
 70
     8
 71
     3
 72
    12
 73
     8
 74
     0
 42
0.00000001
 43
0.00000001
 40
0.0
 40
0.0
 40
0.0
 40
0.0
 40
0.2133534395476122
 40
0.4267919313634442
 40
0.6383539739091508
 40
0.8490950351927531
 40
0.9999999999999999
 40
0.9999999999999999
 40
0.9999999999999999
 40
0.9999999999999999
 10
642.7351796845776
 20
573.6026321845436
 30
0.0
 10
642.7216553516231
 20
573.519843656623
 30
0.0
 10
642.694601294307
 20
573.3542335975542
 30
0.0
 10
642.760510392461
 20
573.1052558208786
 30
0.0
 10
642.8984211007185
 20
572.8938625032223
 30
0.0
 10
643.0786774182202
 20
572.7503190853746
 30
0.0
 10
643.21253636416
 20
572.7047559082657
 30
0.0
 10
643.2683920298355
 20
572.6857436444993
 30
0.0
  0
LINE
  5
162
330
1F
100
AcDbEntity
  8
0
  6
Continuous
 62
     7
370
    25
100
AcDbLine
 10
643.0549098469
 20
574.811049589
 30
0.0
 11
642.7351796846
 21
573.6026321845
 31
0.0
  0
LINE
  5
163
330
1F
100
AcDbEntity
  8
0
  6
Continuous
 62
     7
370
    25
100
AcDbLine
 10
641.8948291387
 20
575.1179905448
 30
0.0
 11
643.0549098469
 21
574.811049589
 31
0.0
  0
LINE
  5
164
330
1F
100
AcDbEntity
  8
0
  6
Continuous
 62
     7
370
    25
100
AcDbLine
 10
641.5750989763
 20
573.9095731404
 30
0.0
 11
641.8948291387
 21
575.1179905448
 31
0.0
  0
LINE
  5
165
330
1F
100
AcDbEntity
  8
0
  6
Continuous
 62
     7
370
    25
100
AcDbLine
 10
639.4497930319
 20
573.6960909574
 30
0.0
 11
640.6582104363
 21
573.3763607951
 31
0.0
  0
CIRCLE
  5
166
330
1F
100
AcDbEntity
  8
0
  6
Continuous
 62
     7
370
    25
100
AcDbCircle
 10
641.8098307551
 20
572.4510118657
 30
0.0
 40
4.197433366238792
  0
SPLINE
  5
167
330
1F
100
AcDbEntity
  8
0
  6
Continuous
 62
     7
370
    25
100
AcDbSpline
210
0.0
220
0.0
230
1.0
 70
     8
 71
     3
 72
    12
 73
     8
 74
     0
 42
0.00000001
 43
0.00000001
 40
0.0
 40
0.0
 40
0.0
 40
0.0
 40
0.2133534395476116
 40
0.4267919313634462
 40
0.6383539739091479
 40
0.8490950351927574
 40
1.0
 40
1.0
 40
1.0
 40
1.0
 10
640.6582104362916
 20
573.376360795115
 30
0.0
 10
640.7409989642122
 20
573.3628364621604
 30
0.0
 10
640.906609023281
 20
573.3357824048444
 30
0.0
 10
641.1555867999566
 20
573.4016915029983
 30
0.0
 10
641.3669801176129
 20
573.5396022112559
 30
0.0
 10
641.5105235354607
 20
573.7198585287576
 30
0.0
 10
641.5560867125695
 20
573.8537174746974
 30
0.0
 10
641.5750989763359
 20
573.9095731403728
 30
0.0
  0
SPLINE
  5
168
330
1F
100
AcDbEntity
  8
0
  6
Continuous
 62
     7
370
    25
100
AcDbSpline
210
0.0
220
0.0
230
1.0
 70
     8
 71
     3
 72
    12
 73
     8
 74
     0
 42
0.00000001
 43
0.00000001
 40
0.0
 40
0.0
 40
0.0
 40
0.0
 40
0.2133534395476124
 40
0.4267919313634466
 40
0.6383539739091505
 40
0.8490950351927581
 40
1.0
 40
1.0
 40
1.0
 40
1.0
 10
640.8844818257202
 20
571.2993915468289
 30
0.0
 10
640.8980061586749
 20
571.3821800747496
 30
0.0
 10
640.9250602159908
 20
571.5477901338184
 30
0.0
 10
640.8591511178369
 20
571.796767910494
 30
0.0
 10
640.7212404095793
 20
572.0081612281504
 30
0.0
 10
640.5409840920776
 20
572.151704645998
 30
0.0
 10
640.4071251461379
 20
572.1972678231068
 30
0.0
 10
640.3512694804624
 20
572.2162800868733
 30
0.0
  0
CIRCLE
  5
169
330
1F
100
AcDbEntity
  8
0
  6
Continuous
 62
     7
370
    25
100
AcDbCircle
 10
641.8098307551
 20
572.4510118657
 30
0.0
 40
4.499999999999949
  0
CIRCLE
  5
16A
330
1F
100
AcDbEntity
  8
0
  6
Continuous
 62
     7
370
    25
100
AcDbCircle
 10
540.2098307551
 20
572.4510118657
 30
0.0
 40
5.328914336627577
  0
CIRCLE
  5
16B
330
1F
100
AcDbEntity
  8
0
  6
Continuous
 62
     7
370
    25
100
AcDbCircle
 10
540.2098307551
 20
572.4510118657
 30
0.0
 40
5.074569253689219
  0
CIRCLE
  5
16C
330
1F
100
AcDbEntity
  8
0
  6
Continuous
 62
     7
370
    25
100
AcDbCircle
 10
540.2098307551
 20
572.4510118657
 30
0.0
 40
5.925127771161442
  0
CIRCLE
  5
16D
330
1F
100
AcDbEntity
  8
0
  6
Continuous
 62
     7
370
    25
100
AcDbCircle
 10
540.2098307551
 20
572.4510118657
 30
0.0
 40
7.149999999999977
  0
SPLINE
  5
16E
330
1F
100
AcDbEntity
  8
0
  6
Continuous
 62
     7
370
    25
100
AcDbSpline
210
0.0
220
0.0
230
1.0
 70
     8
 71
     3
 72
    11
 73
     7
 74
     0
 42
0.00000001
 43
0.00000001
 40
0.0
 40
0.0
 40
0.0
 40
0.0
 40
0.2200386424382247
 40
0.6637869905998173
 40
0.8890365590789576
 40
1.0
 40
1.0
 40
1.0
 40
1.0
 10
648.4874208997408
 20
578.4713301726373
 30
0.0
 10
648.6916423627422
 20
578.2063115613785
 30
0.0
 10
649.3077139256258
 20
577.4068342310737
 30
0.0
 10
649.831263276643
 20
576.143664960546
 30
0.0
 10
650.0828924764041
 20
574.9770951472217
 30
0.0
 10
650.0621852816818
 20
574.4658153485624
 30
0.0
 10
650.0553510976558
 20
574.29707302109
 30
0.0
  0
SPLINE
  5
16F
330
1F
100
AcDbEntity
  8
0
  6
Continuous
 62
     7
370
    25
100
AcDbSpline
210
0.0
220
0.0
230
1.0
 70
     8
 71
     3
 72
     9
 73
     5
 74
     0
 42
0.00000001
 43
0.00000001
 40
0.0
 40
0.0
 40
0.0
 40
0.0
 40
0.9209630919903095
 40
0.9999999999999999
 40
0.9999999999999999
 40
0.9999999999999999
 40
0.9999999999999999
 10
650.127463262988
 20
578.1510068970038
 30
0.0
 10
649.6130417251153
 20
578.2078339559223
 30
0.0
 10
649.0544726116004
 20
578.2695379041182
 30
0.0
 10
648.5289560999311
 20
578.4565493650064
 30
0.0
 10
648.4874208997408
 20
578.4713301726373
 30
0.0
  0
SPLINE
  5
170
330
1F
100
AcDbEntity
  8
0
  6
Continuous
 62
     7
370
    25
100
AcDbSpline
210
0.0
220
0.0
230
1.0
 70
     8
 71
     3
 72
    10
 73
     6
 74
     0
 42
0.00000001
 43
0.00000001
 40
0.0
 40
0.0
 40
0.0
 40
0.0
 40
0.2596150688488839
 40
0.629760644481066
 40
1.0
 40
1.0
 40
1.0
 40
1.0
 10
697.3026242169253
 20
575.5594493280147
 30
0.0
 10
693.2248039982023
 20
575.8592034651131
 30
0.0
 10
683.333041164837
 20
576.5863313602773
 30
0.0
 10
667.6034684821637
 20
577.4121782301673
 30
0.0
 10
655.9532902208992
 20
577.9047098794331
 30
0.0
 10
650.127463262988
 20
578.1510068970038
 30
0.0
  0
SPLINE
  5
171
330
1F
100
AcDbEntity
  8
0
  6
Continuous
 62
     7
370
    25
100
AcDbSpline
210
0.0
220
0.0
230
1.0
 70
     8
 71
     3
 72
    11
 73
     7
 74
     0
 42
0.00000001
 43
0.00000001
 40
0.0
 40
0.0
 40
0.0
 40
0.0
 40
0.061464119541392
 40
0.4999988937835378
 40
0.9375097801832794
 40
1.0
 40
1.0
 40
1.0
 40
1.0
 10
697.3026242169251
 20
569.8334169810128
 30
0.0
 10
697.3142934131274
 20
569.9498739534648
 30
0.0
 10
697.4092200993969
 20
570.8972292207961
 30
0.0
 10
697.492922926663
 20
572.6944734192443
 30
0.0
 10
697.409353003143
 20
574.4936714434851
 30
0.0
 10
697.3144812980977
 20
575.4410462679183
 30
0.0
 10
697.3026242169253
 20
575.5594493280147
 30
0.0
  0
SPLINE
  5
172
330
1F
100
AcDbEntity
  8
0
  6
Continuous
 62
     7
370
    25
100
AcDbSpline
210
0.0
220
0.0
230
1.0
 70
     8
 71
     3
 72
    10
 73
     6
 74
     0
 42
0.00000001
 43
0.00000001
 40
0.0
 40
0.0
 40
0.0
 40
0.0
 40
0.2594618540778875
 40
0.6296073956705976
 40
1.0
 40
1.0
 40
1.0
 40
1.0
 10
650.127463262988
 20
567.2418594120255
 30
0.0
 10
654.2103315010836
 20
567.4092437215512
 30
0.0
 10
664.1177764601482
 20
567.8154167197789
 30
0.0
 10
679.8490730216175
 20
568.6022000775093
 30
0.0
 10
691.483479971829
 20
569.4229200753508
 30
0.0
 10
697.3026242169251
 20
569.8334169810128
 30
0.0
  0
SPLINE
  5
173
330
1F
100
AcDbEntity
  8
0
  6
Continuous
 62
     7
370
    25
100
AcDbSpline
210
0.0
220
0.0
230
1.0
 70
     8
 71
     3
 72
     9
 73
     5
 74
     0
 42
0.00000001
 43
0.00000001
 40
0.0
 40
0.0
 40
0.0
 40
0.0
 40
0.0790369080192211
 40
1.0
 40
1.0
 40
1.0
 40
1.0
 10
648.4874208997416
 20
566.9215361363922
 30
0.0
 10
648.5289560999369
 20
566.936316944025
 30
0.0
 10
649.0544726116061
 20
567.1233284049129
 30
0.0
 10
649.6130417251206
 20
567.1850323531081
 30
0.0
 10
650.127463262988
 20
567.2418594120255
 30
0.0
  0
SPLINE
  5
174
330
1F
100
AcDbEntity
  8
0
  6
Continuous
 62
     7
370
    25
100
AcDbSpline
210
0.0
220
0.0
230
1.0
 70
     8
 71
     3
 72
    11
 73
     7
 74
     0
 42
0.00000001
 43
0.00000001
 40
0.0
 40
0.0
 40
0.0
 40
0.0
 40
0.0728838064943292
 40
0.4140719411596023
 40
0.9209668754550557
 40
1.0
 40
1.0
 40
1.0
 40
1.0
 10
650.055351097652
 20
571.0957932879542
 30
0.0
 10
650.0630662467896
 20
570.9853468537151
 30
0.0
 10
650.1068980241542
 20
570.357871813384
 30
0.0
 10
649.7624063127162
 20
568.9748797829191
 30
0.0
 10
649.1227169632298
 20
567.7049482651415
 30
0.0
 10
648.562928213797
 20
567.0146475989685
 30
0.0
 10
648.4874208997416
 20
566.9215361363922
 30
0.0
  0
SPLINE
  5
175
330
1F
100
AcDbEntity
  8
0
  6
Continuous
 62
     7
370
    25
100
AcDbSpline
210
0.0
220
0.0
230
1.0
 70
     8
 71
     3
 72
    10
 73
     6
 74
     0
 42
0.00000001
 43
0.00000001
 40
0.0
 40
0.0
 40
0.0
 40
0.0
 40
0.3880207377811387
 40
0.9790637766506859
 40
1.0
 40
1.0
 40
1.0
 40
1.0
 10
650.0553510976558
 20
574.29707302109
 30
0.0
 10
649.9820365668963
 20
573.8862331592343
 30
0.0
 10
649.797047481573
 20
572.849591589386
 30
0.0
 10
649.8927544074043
 20
571.7558222678148
 30
0.0
 10
650.0499725586519
 20
571.1176263990952
 30
0.0
 10
650.055351097652
 20
571.0957932879542
 30
0.0
  0
ARC
  5
176
330
1F
100
AcDbEntity
  8
0
  6
Continuous
 62
     7
370
    25
100
AcDbCircle
 10
641.8098307551
 20
572.6964331545
 30
0.0
 40
8.399443654264672
100
AcDbArc
 50
10.985757993
 51
349.0142420071
  0
SPLINE
  5
177
330
1F
100
AcDbEntity
  8
0
  6
Continuous
 62
     7
370
    25
100
AcDbSpline
210
0.0
220
0.0
230
1.0
 70
     8
 71
     3
 72
     9
 73
     5
 74
     0
 42
0.00000001
 43
0.00000001
 40
0.0
 40
0.0
 40
0.0
 40
0.0
 40
0.6817923421274255
 40
1.0
 40
1.0
 40
1.0
 40
1.0
 10
648.4874208997416
 20
566.9215361363922
 30
0.0
 10
648.3451573390985
 20
566.7316257812871
 30
0.0
 10
648.1364962089381
 20
566.4530800374135
 30
0.0
 10
647.9070703750576
 20
566.2201756644706
 30
0.0
 10
647.8340653178032
 20
566.1460637094481
 30
0.0
  0
ARC
  5
178
330
1F
100
AcDbEntity
  8
0
  6
Continuous
 62
     7
370
    25
100
AcDbCircle
 10
641.8098307551
 20
572.6964331545
 30
0.0
 40
8.899367501836373
100
AcDbArc
 50
47.3959191961
 51
312.6040808039
  0
LINE
  5
179
330
1F
100
AcDbEntity
  8
0
  6
Continuous
 62
     7
370
    25
100
AcDbLine
 10
647.8340653178
 20
579.2468025996
 30
0.0
 11
648.4874208997
 21
578.4713301726
 31
0.0
  0
SPLINE
  5
17A
330
1F
100
AcDbEntity
  8
0
  6
Continuous
 62
     7
370
    25
100
AcDbSpline
210
0.0
220
0.0
230
1.0
 70
     8
 71
     3
 72
    10
 73
     6
 74
     0
 42
0.00000001
 43
0.00000001
 40
0.0
 40
0.0
 40
0.0
 40
0.0
 40
0.3702896688583041
 40
0.7405318123903295
 40
1.0
 40
1.0
 40
1.0
 40
1.0
 10
697.3141436801036
 20
569.3905574001795
 30
0.0
 10
691.4940798338852
 20
569.0703663856532
 30
0.0
 10
679.8546991253816
 20
568.4300254519477
 30
0.0
 10
664.1358307186067
 20
567.5607911200844
 30
0.0
 10
654.238656902597
 20
567.0120501184753
 30
0.0
 10
650.1605885821328
 20
566.7859448346434
 30
0.0
  0
ARC
  5
17B
330
1F
100
AcDbEntity
  8
0
  6
Continuous
 62
     7
370
    25
100
AcDbCircle
 10
657.3756777895
 20
567.5393312013
 30
0.0
 40
7.254316183361849
100
AcDbArc
 50
182.3501399449
 51
185.9611177313
  0
ARC
  5
17C
330
1F
100
AcDbEntity
  8
0
  6
Continuous
 62
     7
370
    25
100
AcDbCircle
 10
693.0536211388
 20
569.5013142242
 30
0.0
 40
4.261961918959103
100
AcDbArc
 50
358.5108705387
 51
4.4691613064
  0
SPLINE
  5
17D
330
1F
100
AcDbEntity
  8
0
  6
Continuous
 62
     7
370
    25
100
AcDbSpline
210
0.0
220
0.0
230
1.0
 70
     8
 71
     3
 72
    10
 73
     6
 74
     0
 42
0.00000001
 43
0.00000001
 40
0.0
 40
0.0
 40
0.0
 40
0.0
 40
0.3702717503651154
 40
0.740512215137175
 40
1.0
 40
1.0
 40
1.0
 40
1.0
 10
650.1605885821328
 20
578.6069214743859
 30
0.0
 10
655.980260643802
 20
578.2843929887181
 30
0.0
 10
667.6191130420989
 20
577.6393632689749
 30
0.0
 10
683.3382526260535
 20
576.7705487814959
 30
0.0
 10
693.2357500497523
 20
576.2264938707291
 30
0.0
 10
697.3141436801002
 20
576.00230890885
 30
0.0
  0
ARC
  5
17E
330
1F
100
AcDbEntity
  8
0
  6
Continuous
 62
     7
370
    25
100
AcDbCircle
 10
693.053621136
 20
575.8915520849
 30
0.0
 40
4.261961921812059
100
AcDbArc
 50
355.530838696
 51
1.4891294598
  0
ARC
  5
17F
330
1F
100
AcDbEntity
  8
0
  6
Continuous
 62
     7
370
    25
100
AcDbCircle
 10
657.3756777896
 20
577.8535351077
 30
0.0
 40
7.254316183410489
100
AcDbArc
 50
174.0388822687
 51
177.6498600551
  0
SPLINE
  5
180
330
1F
100
AcDbEntity
  8
0
  6
Continuous
 62
     7
370
    25
100
AcDbSpline
210
0.0
220
0.0
230
1.0
 70
     8
 71
     3
 72
    12
 73
     8
 74
     0
 42
0.00000001
 43
0.00000001
 40
0.0
 40
0.0
 40
0.0
 40
0.0
 40
0.122429049415135
 40
0.3423522449770488
 40
0.5614228816909436
 40
0.7807229538533572
 40
1.0
 40
1.0
 40
1.0
 40
1.0
 10
699.2383516497728
 20
575.4487749583584
 30
0.0
 10
699.2293475739087
 20
575.4511336427993
 30
0.0
 10
699.2041691901777
 20
575.4577293071242
 30
0.0
 10
698.9881815065331
 20
575.4747372748634
 30
0.0
 10
698.5522833768039
 20
575.5002482490178
 30
0.0
 10
697.9683577633738
 20
575.5298004315771
 30
0.0
 10
697.5245276318057
 20
575.5495667084562
 30
0.0
 10
697.3026242169253
 20
575.5594493280147
 30
0.0
  0
SPLINE
  5
181
330
1F
100
AcDbEntity
  8
0
  6
Continuous
 62
     7
370
    25
100
AcDbSpline
210
0.0
220
0.0
230
1.0
 70
     8
 71
     3
 72
    11
 73
     7
 74
     0
 42
0.00000001
 43
0.00000001
 40
0.0
 40
0.0
 40
0.0
 40
0.0
 40
0.0800485240044433
 40
0.5000005853538798
 40
0.9209248322279645
 40
1.0
 40
1.0
 40
1.0
 40
1.0
 10
699.2383516497728
 20
575.4487749583584
 30
0.0
 10
699.2380654053587
 20
575.3025305332578
 30
0.0
 10
699.236277460154
 20
574.3890558744247
 30
0.0
 10
699.2350417633241
 20
572.6946462866662
 30
0.0
 10
699.236279461419
 20
571.0020194348116
 30
0.0
 10
699.238068683387
 20
570.0885560591677
 30
0.0
 10
699.2383516497729
 20
569.9440913506763
 30
0.0
  0
SPLINE
  5
182
330
1F
100
AcDbEntity
  8
0
  6
Continuous
 62
     7
370
    25
100
AcDbSpline
210
0.0
220
0.0
230
1.0
 70
     8
 71
     3
 72
    12
 73
     8
 74
     0
 42
0.00000001
 43
0.00000001
 40
0.0
 40
0.0
 40
0.0
 40
0.0
 40
0.1130367476169276
 40
0.3328594693547989
 40
0.5544127937945017
 40
0.7774207483513241
 40
1.0
 40
1.0
 40
1.0
 40
1.0
 10
697.3026242169251
 20
569.8334169810128
 30
0.0
 10
697.416695056912
 20
569.8384322267142
 30
0.0
 10
697.7525996195199
 20
569.85320062777
 30
0.0
 10
698.2866674759146
 20
569.8787928318793
 30
0.0
 10
698.8031931138019
 20
569.9066680947503
 30
0.0
 10
699.1600878309563
 20
569.9301099683408
 30
0.0
 10
699.2122804484748
 20
569.9394338801005
 30
0.0
 10
699.2383516497729
 20
569.9440913506763
 30
0.0
  0
SPLINE
  5
183
330
1F
100
AcDbEntity
  8
0
  6
Continuous
 62
     7
370
    25
100
AcDbSpline
210
0.0
220
0.0
230
1.0
 70
     8
 71
     3
 72
     9
 73
     5
 74
     0
 42
0.00000001
 43
0.00000001
 40
0.0
 40
0.0
 40
0.0
 40
0.0
 40
0.500010612381545
 40
1.0
 40
1.0
 40
1.0
 40
1.0
 10
647.3344574689602
 20
579.6786342888277
 30
0.0
 10
647.7641788357811
 20
579.3907937507344
 30
0.0
 10
648.6236033283417
 20
578.8151248929828
 30
0.0
 10
649.6482674136199
 20
578.676321631896
 30
0.0
 10
650.1605885821328
 20
578.6069214743859
 30
0.0
  0
SPLINE
  5
184
330
1F
100
AcDbEntity
  8
0
  6
Continuous
 62
     7
370
    25
100
AcDbSpline
210
0.0
220
0.0
230
1.0
 70
     8
 71
     3
 72
     9
 73
     5
 74
     0
 42
0.00000001
 43
0.00000001
 40
0.0
 40
0.0
 40
0.0
 40
0.0
 40
0.9838702326459388
 40
1.0
 40
1.0
 40
1.0
 40
1.0
 10
647.8340653178032
 20
579.2468025995813
 30
0.0
 10
647.6727245028687
 20
579.3916350126002
 30
0.0
 10
647.5087386340205
 20
579.538841837457
 30
0.0
 10
647.3372239607381
 20
579.6764152615036
 30
0.0
 10
647.3344574689602
 20
579.6786342888277
 30
0.0
  0
SPLINE
  5
185
330
1F
100
AcDbEntity
  8
0
  6
Continuous
 62
     7
370
    25
100
AcDbSpline
210
0.0
220
0.0
230
1.0
 70
     8
 71
     3
 72
     9
 73
     5
 74
     0
 42
0.00000001
 43
0.00000001
 40
0.0
 40
0.0
 40
0.0
 40
0.0
 40
0.5055561057107295
 40
1.0
 40
1.0
 40
1.0
 40
1.0
 10
650.1605885821328
 20
566.7859448346434
 30
0.0
 10
649.6425290647998
 20
566.7152888003735
 30
0.0
 10
648.6177970687245
 20
566.575529763796
 30
0.0
 10
647.7590564999629
 20
565.9991964890002
 30
0.0
 10
647.3344574689602
 20
565.7142320202017
 30
0.0
  0
SPLINE
  5
186
330
1F
100
AcDbEntity
  8
0
  6
Continuous
 62
     7
370
    25
100
AcDbSpline
210
0.0
220
0.0
230
1.0
 70
     8
 71
     3
 72
     9
 73
     5
 74
     0
 42
0.00000001
 43
0.00000001
 40
0.0
 40
0.0
 40
0.0
 40
0.0
 40
0.016129767353325
 40
1.0
 40
1.0
 40
1.0
 40
1.0
 10
647.3344574689602
 20
565.7142320202017
 30
0.0
 10
647.337223960738
 20
565.7164510475257
 30
0.0
 10
647.5087386340248
 20
565.8540244715751
 30
0.0
 10
647.6727245028708
 20
566.0012312964304
 30
0.0
 10
647.8340653178032
 20
566.1460637094481
 30
0.0
  0
SPLINE
  5
187
330
1F
100
AcDbEntity
  8
0
  6
Continuous
 62
     7
370
    25
100
AcDbSpline
210
0.0
220
0.0
230
1.0
 70
     8
 71
     3
 72
    12
 73
     8
 74
     0
 42
0.00000001
 43
0.00000001
 40
0.0
 40
0.0
 40
0.0
 40
0.0
 40
0.2230315344150424
 40
0.446133755834037
 40
0.6675099896776974
 40
0.8870667292264951
 40
1.0
 40
1.0
 40
1.0
 40
1.0
 10
698.7659973846884
 20
569.4449282796279
 30
0.0
 10
698.7464635985624
 20
569.4468185269227
 30
0.0
 10
698.7073898353259
 20
569.450599620602
 30
0.0
 10
698.4398006532697
 20
569.4436567843314
 30
0.0
 10
698.0522715694447
 20
569.4280679618415
 30
0.0
 10
697.6515494569815
 20
569.4087306817773
 30
0.0
 10
697.3996900347237
 20
569.3951650806009
 30
0.0
 10
697.3141436801036
 20
569.3905574001795
 30
0.0
  0
ARC
  5
188
330
1F
100
AcDbEntity
  8
0
  6
Continuous
 62
     7
370
    25
100
AcDbCircle
 10
698.7382517622
 20
569.944257936
 30
0.0
 40
0.5000999153471408
100
AcDbArc
 50
273.1804119248
 51
359.9809145383
  0
SPLINE
  5
189
330
1F
100
AcDbEntity
  8
0
  6
Continuous
 62
     7
370
    25
100
AcDbSpline
210
0.0
220
0.0
230
1.0
 70
     8
 71
     3
 72
    12
 73
     8
 74
     0
 42
0.00000001
 43
0.00000001
 40
0.0
 40
0.0
 40
0.0
 40
0.0
 40
0.2190444340109335
 40
0.4380981679380244
 40
0.6571027493691858
 40
0.8772791087290026
 40
1.0
 40
1.0
 40
1.0
 40
1.0
 10
697.3141436801002
 20
576.00230890885
 30
0.0
 10
697.480561420871
 20
575.9934800959003
 30
0.0
 10
697.8134039679701
 20
575.9758220951579
 30
0.0
 10
698.2515624106132
 20
575.9563036057489
 30
0.0
 10
698.5785282373729
 20
575.9449978221166
 30
0.0
 10
698.740372114387
 20
575.9431739540399
 30
0.0
 10
698.7592434467991
 20
575.9466823833648
 30
0.0
 10
698.7659973846883
 20
575.9479380294014
 30
0.0
  0
ARC
  5
18A
330
1F
100
AcDbEntity
  8
0
  6
Continuous
 62
     7
370
    25
100
AcDbCircle
 10
698.7382517622
 20
575.448608373
 30
0.0
 40
0.5000999153470742
100
AcDbArc
 50
0.0190854623
 51
86.8195880753
  0
LINE
  5
18B
330
1F
100
AcDbEntity
  8
0
  6
Continuous
 62
     7
370
    25
100
AcDbLine
 10
650.1605885821
 20
566.7859448346
 30
0.0
 11
650.1875747638
 21
566.7146545593
 31
0.0
  0
LINE
  5
18C
330
1F
100
AcDbEntity
  8
0
  6
Continuous
 62
     7
370
    25
100
AcDbLine
 10
698.7706877454
 20
569.4404898266
 30
0.0
 11
698.7659973847
 21
569.4449282796
 31
0.0
  0
ELLIPSE
  5
18D
330
1F
100
AcDbEntity
  8
0
  6
Continuous
 62
     7
370
    25
100
AcDbEllipse
 10
697.2709162026
 20
569.3571973766
 30
0.0
 11
1.499999304622861
 21
0.0828726334386829
 31
0.0
210
0.0
220
0.0
230
1.0
 40
0.0174284859
 41
5.396717970286467
 42
6.29967570320429
  0
LINE
  5
18E
330
1F
100
AcDbEntity
  8
0
  6
Continuous
 62
     7
370
    25
100
AcDbLine
 10
694.7553015336
 20
569.1484377885
 30
0.0
 11
698.220264743
 21
569.3893290675
 31
0.0
  0
LINE
  5
18F
330
1F
100
AcDbEntity
  8
0
  6
Continuous
 62
     7
370
    25
100
AcDbLine
 10
694.7553015336
 20
569.1485361798
 30
0.0
 11
694.7553015336
 21
569.1484377885
 31
0.0
  0
ELLIPSE
  5
190
330
1F
100
AcDbEntity
  8
0
  6
Continuous
 62
     7
370
    25
100
AcDbEllipse
 10
685.3058151127
 20
568.8188901283
 30
0.0
 11
14.4999932780205
 21
0.8011021232407529
 31
0.0
210
0.0
220
0.0
230
1.0
 40
0.0174284859
 41
4.685109492442221
 42
5.421234828998204
  0
ELLIPSE
  5
191
330
1F
100
AcDbEntity
  8
0
  6
Continuous
 62
     7
370
    25
100
AcDbEllipse
 10
683.9848051971
 20
567.868606579
 30
0.0
 11
35.70262504606012
 21
1.972514619921867
 31
0.0
210
0.0
220
0.0
230
1.0
 40
0.0174284859
 41
1.543516838852421
 42
2.025717338718041
  0
ELLIPSE
  5
192
330
1F
100
AcDbEntity
  8
0
  6
Continuous
 62
     7
370
    25
100
AcDbEllipse
 10
664.9645777251
 20
567.4962105193
 30
0.0
 11
7.499996523114078
 21
0.4143631671934145
 31
0.0
210
0.0
220
0.0
230
1.0
 40
0.0174284859
 41
4.976419334597816
 42
5.167309992308083
  0
LINE
  5
193
330
1F
100
AcDbEntity
  8
0
  6
Continuous
 62
     7
370
    25
100
AcDbLine
 10
666.9092301261
 20
567.6285549705
 30
0.0
 11
666.9288483835
 21
567.4781644259
 31
0.0
  0
SPLINE
  5
194
330
1F
100
AcDbEntity
  8
0
  6
Continuous
 62
     7
370
    25
100
AcDbSpline
210
0.0
220
0.0
230
1.0
 70
     8
 71
     3
 72
    10
 73
     6
 74
     0
 42
0.00000001
 43
0.00000001
 40
0.0
 40
0.0
 40
0.0
 40
0.0
 40
0.0186368637457253
 40
0.3939469944633057
 40
1.0
 40
1.0
 40
1.0
 40
1.0
 10
666.7254588404026
 20
567.6280686032395
 30
0.0
 10
666.7279150476513
 20
567.6281563537189
 30
0.0
 10
666.7798344841283
 20
567.6300112279118
 30
0.0
 10
666.8838333326064
 20
567.63269120929
 30
0.0
 10
666.8995339899554
 20
567.6301341278923
 30
0.0
 10
666.909230126099
 20
567.6285549704845
 30
0.0
  0
LINE
  5
195
330
1F
100
AcDbEntity
  8
0
  6
Continuous
 62
     7
370
    25
100
AcDbLine
 10
650.1875747638
 20
566.7146545593
 30
0.0
 11
666.7254588404
 21
567.6280686032
 31
0.0
  0
LINE
  5
196
330
1F
100
AcDbEntity
  8
0
  6
Continuous
 62
     7
370
    25
100
AcDbLine
 10
666.7275245723
 20
577.7810013546
 30
0.0
 11
650.1936161489
 21
578.6941958168
 31
0.0
  0
SPLINE
  5
197
330
1F
100
AcDbEntity
  8
0
  6
Continuous
 62
     7
370
    25
100
AcDbSpline
210
0.0
220
0.0
230
1.0
 70
     8
 71
     3
 72
    11
 73
     7
 74
     0
 42
0.00000001
 43
0.00000001
 40
0.0
 40
0.0
 40
0.0
 40
0.0
 40
0.4177469294495335
 40
0.8392770662410767
 40
0.9817832068819767
 40
1.0
 40
1.0
 40
1.0
 40
1.0
 10
666.9112300129709
 20
577.7796519093314
 30
0.0
 10
666.906592984939
 20
577.7785687181477
 30
0.0
 10
666.8972769349376
 20
577.7763925261646
 30
0.0
 10
666.8217804691876
 20
577.777594703056
 30
0.0
 10
666.7515202686155
 20
577.7800652303961
 30
0.0
 10
666.7299674319579
 20
577.780906053353
 30
0.0
 10
666.7275245723279
 20
577.7810013546115
 30
0.0
  0
LINE
  5
198
330
1F
100
AcDbEntity
  8
0
  6
Continuous
 62
     7
370
    25
100
AcDbLine
 10
666.9288483835
 20
577.9147018831
 30
0.0
 11
666.911230013
 21
577.7796519093
 31
0.0
  0
ELLIPSE
  5
199
330
1F
100
AcDbEntity
  8
0
  6
Continuous
 62
     7
370
    25
100
AcDbEllipse
 10
664.9645777251
 20
577.8966557897
 30
0.0
 11
7.499996523114078
 21
-0.4143631671934145
 31
0.0
210
0.0
220
0.0
230
1.0
 40
0.0174284859
 41
1.115875314871656
 42
1.306765972582053
  0
ELLIPSE
  5
19A
330
1F
100
AcDbEntity
  8
0
  6
Continuous
 62
     7
370
    25
100
AcDbEllipse
 10
683.9848051971
 20
577.52425973
 30
0.0
 11
35.70262504606001
 21
-1.972514619921981
 31
0.0
210
0.0
220
0.0
230
1.0
 40
0.0174284859
 41
4.257467968461817
 42
4.739668468327162
  0
ELLIPSE
  5
19B
330
1F
100
AcDbEntity
  8
0
  6
Continuous
 62
     7
370
    25
100
AcDbEllipse
 10
685.3058151127
 20
576.5739761807
 30
0.0
 11
14.4999932780205
 21
-0.8011021232408666
 31
0.0
210
0.0
220
0.0
230
1.0
 40
0.0174284859
 41
0.8619504781819081
 42
1.598075814737379
  0
LINE
  5
19C
330
1F
100
AcDbEntity
  8
0
  6
Continuous
 62
     7
370
    25
100
AcDbLine
 10
694.7553015336
 20
576.2444285205
 30
0.0
 11
694.7553015336
 21
576.2443301293
 31
0.0
  0
LINE
  5
19D
330
1F
100
AcDbEntity
  8
0
  6
Continuous
 62
     7
370
    25
100
AcDbLine
 10
698.220264743
 20
576.0035372415
 30
0.0
 11
694.7553015336
 21
576.2444285205
 31
0.0
  0
ELLIPSE
  5
19E
330
1F
100
AcDbEntity
  8
0
  6
Continuous
 62
     7
370
    25
100
AcDbEllipse
 10
697.2709162026
 20
576.0356689325
 30
0.0
 11
1.499999304622861
 21
-0.0828726334386829
 31
0.0
210
0.0
220
0.0
230
1.0
 40
0.0174284859
 41
6.266694911160005
 42
7.169652644070152
  0
LINE
  5
19F
330
1F
100
AcDbEntity
  8
0
  6
Continuous
 62
     7
370
    25
100
AcDbLine
 10
698.7659973847
 20
575.9479380294
 30
0.0
 11
698.7706877454
 21
575.9523764825
 31
0.0
  0
LINE
  5
1A0
330
1F
100
AcDbEntity
  8
0
  6
Continuous
 62
     7
370
    25
100
AcDbLine
 10
650.1936161489
 20
578.6941958168
 30
0.0
 11
650.1605885821
 21
578.6069214744
 31
0.0
  0
SPLINE
  5
1A1
330
1F
100
AcDbEntity
  8
0
  6
Continuous
 62
     7
370
    25
100
AcDbSpline
210
0.0
220
0.0
230
1.0
 70
     8
 71
     3
 72
     9
 73
     5
 74
     0
 42
0.00000001
 43
0.00000001
 40
0.0
 40
0.0
 40
0.0
 40
0.0
 40
0.5001021276704715
 40
0.9999999999999999
 40
0.9999999999999999
 40
0.9999999999999999
 40
0.9999999999999999
 10
647.3676763350156
 20
565.6485405732417
 30
0.0
 10
647.796624110723
 20
565.9350662073301
 30
0.0
 10
648.6543444681735
 20
566.5080004506278
 30
0.0
 10
649.6765675967887
 20
566.645779237082
 30
0.0
 10
650.1875747638294
 20
566.7146545592826
 30
0.0
  0
LINE
  5
1A2
330
1F
100
AcDbEntity
  8
0
  6
Continuous
 62
     7
370
    25
100
AcDbLine
 10
647.367676335
 20
565.6485405732
 30
0.0
 11
647.334457469
 21
565.7142320202
 31
0.0
  0
SPLINE
  5
1A3
330
1F
100
AcDbEntity
  8
0
  6
Continuous
 62
     7
370
    25
100
AcDbSpline
210
0.0
220
0.0
230
1.0
 70
     8
 71
     3
 72
     9
 73
     5
 74
     0
 42
0.00000001
 43
0.00000001
 40
0.0
 40
0.0
 40
0.0
 40
0.0
 40
0.4007227371565293
 40
1.0
 40
1.0
 40
1.0
 40
1.0
 10
650.193616148881
 20
578.694195816826
 30
0.0
 10
649.7849300254718
 20
578.7426030788916
 30
0.0
 10
648.7650574664319
 20
578.8634029676355
 30
0.0
 10
647.895981422606
 20
579.4235102409891
 30
0.0
 10
647.3751639098592
 20
579.7591697946632
 30
0.0
  0
LINE
  5
1A4
330
1F
100
AcDbEntity
  8
0
  6
Continuous
 62
     7
370
    25
100
AcDbLine
 10
647.334457469
 20
579.6786342888
 30
0.0
 11
647.3751639099
 21
579.7591697947
 31
0.0
  0
ARC
  5
1A5
330
1F
100
AcDbEntity
  8
0
  6
Continuous
 62
     7
370
    25
100
AcDbCircle
 10
641.8098307551
 20
572.6964331545
 30
0.0
 40
8.975658044222202
100
AcDbArc
 50
245.1648853947
 51
308.2586979829
  0
LWPOLYLINE
  5
1A6
330
1F
100
AcDbEntity
  8
0
  6
Continuous
 62
     7
370
    25
100
AcDbPolyline
 90
        3
 70
   128
 43
0.0
 10
637.8745173309
 20
564.4457734312
 10
637.979098895
 20
564.5120258425
 10
638.0399794378
 20
564.5508418088
  0
ARC
  5
1A7
330
1F
100
AcDbEntity
  8
0
  6
Continuous
 62
     7
370
    25
100
AcDbCircle
 10
641.8098307551
 20
572.6964331545
 30
0.0
 40
9.14112015109216
100
AcDbArc
 50
115.4997164176
 51
244.500279429
  0
LWPOLYLINE
  5
1A8
330
1F
100
AcDbEntity
  8
0
  6
Continuous
 62
     7
370
    25
100
AcDbPolyline
 90
        3
 70
   128
 43
0.0
 10
638.0236865273
 20
580.852430571
 10
637.979098895
 20
580.8808404666
 10
637.8745173306
 20
580.947092878
  0
ARC
  5
1A9
330
1F
100
AcDbEntity
  8
0
  6
Continuous
 62
     7
370
    25
100
AcDbCircle
 10
641.8098307551
 20
572.6964331545
 30
0.0
 40
8.991950954660766
100
AcDbArc
 50
51.762407147
 51
114.9014811666
  0
LINE
  5
1AA
330
1F
100
AcDbEntity
  8
0
  6
Continuous
 62
     7
370
    25
100
AcDbLine
 10
699.2430420104
 20
575.4532134114
 30
0.0
 11
699.2383516498
 21
575.4487749584
 31
0.0
  0
LINE
  5
1AB
330
1F
100
AcDbEntity
  8
0
  6
Continuous
 62
     7
370
    25
100
AcDbLine
 10
699.2430420104
 20
569.9396528976
 30
0.0
 11
699.2430420104
 21
575.4532134114
 31
0.0
  0
LINE
  5
1AC
330
1F
100
AcDbEntity
  8
0
  6
Continuous
 62
     7
370
    25
100
AcDbLine
 10
699.2383516498
 20
569.9440913507
 30
0.0
 11
699.2430420104
 21
569.9396528976
 31
0.0
  0
ARC
  5
1AD
330
1F
100
AcDbEntity
  8
0
  6
Continuous
 62
     7
370
    25
100
AcDbCircle
 10
698.7429421228
 20
575.4530468261
 30
0.0
 40
0.5000999153471408
100
AcDbArc
 50
0.0190854617
 51
86.8195880753
  0
ARC
  5
1AE
330
1F
100
AcDbEntity
  8
0
  6
Continuous
 62
     7
370
    25
100
AcDbCircle
 10
698.7429421228
 20
569.939819483
 30
0.0
 40
0.5000999153471409
100
AcDbArc
 50
273.1804119247
 51
359.9809145383
  0
LINE
  5
1AF
330
1F
100
AcDbEntity
  8
0
  6
Continuous
 62
     7
370
    25
100
AcDbLine
 10
698.220264743
 20
576.0035372415
 30
0.0
 11
698.2273724738
 21
576.0031702049
 31
0.0
  0
LINE
  5
1B0
330
1F
100
AcDbEntity
  8
0
  6
Continuous
 62
     7
370
    25
100
AcDbLine
 10
698.220264743
 20
569.3893290675
 30
0.0
 11
698.2273724738
 21
569.3896961042
 31
0.0
  0
SPLINE
  5
1B1
330
1F
100
AcDbEntity
  8
0
  6
Continuous
 62
     7
370
    25
100
AcDbSpline
210
0.0
220
0.0
230
1.0
 70
     8
 71
     3
 72
    11
 73
     7
 74
     0
 42
0.00000001
 43
0.00000001
 40
0.0
 40
0.0
 40
0.0
 40
0.0
 40
0.1345990676765955
 40
0.41269788159695
 40
0.6969472592954596
 40
0.9999999999999999
 40
0.9999999999999999
 40
0.9999999999999999
 40
0.9999999999999999
 10
638.0392008313249
 20
564.5500351916943
 30
0.0
 10
638.4685068515734
 20
564.3591513065332
 30
0.0
 10
639.7848137782975
 20
563.7738770071134
 30
0.0
 10
642.1606238291807
 20
563.1514091230897
 30
0.0
 10
645.2143132140619
 20
562.7749064405895
 30
0.0
 10
647.4053431224224
 20
562.7477651122565
 30
0.0
 10
648.5359326399605
 20
562.7337599628115
 30
0.0
  0
ARC
  5
1B2
330
1F
100
AcDbEntity
  8
0
  6
Continuous
 62
     7
370
    25
100
AcDbCircle
 10
644.0434016469
 20
563.3535840074
 30
0.0
 40
4.53508727252296
100
AcDbArc
 50
329.0284626407
 51
352.1446266983
  0
SPLINE
  5
1B3
330
1F
100
AcDbEntity
  8
0
  6
Continuous
 62
     7
370
    25
100
AcDbSpline
210
0.0
220
0.0
230
1.0
 70
     8
 71
     3
 72
    12
 73
     8
 74
     0
 42
0.00000001
 43
0.00000001
 40
0.0
 40
0.0
 40
0.0
 40
0.0
 40
0.1662426524176549
 40
0.3368059756191304
 40
0.6054181071254592
 40
0.8801435087136196
 40
1.0
 40
1.0
 40
1.0
 40
1.0
 10
647.9318900024595
 20
561.0197727728437
 30
0.0
 10
647.2942084819233
 20
561.1752579483267
 30
0.0
 10
646.0022720051227
 20
561.4902693816819
 30
0.0
 10
643.8180856227733
 20
562.1532344866804
 30
0.0
 10
641.4561112792136
 20
563.0054294034859
 30
0.0
 10
639.490573717321
 20
563.848058082098
 30
0.0
 10
638.3767987325253
 20
564.3859161747931
 30
0.0
 10
638.0384832543679
 20
564.5492936256203
 30
0.0
  0
LINE
  5
1B4
330
1F
100
AcDbEntity
  8
0
  6
Continuous
 62
     7
370
    25
100
AcDbLine
 10
638.0384832544
 20
564.5492936256
 30
0.0
 11
638.0392008313
 21
564.5500351917
 31
0.0
  0
LINE
  5
1B5
330
1F
100
AcDbEntity
  8
0
  6
Continuous
 62
     7
370
    25
100
AcDbLine
 10
647.9318900025
 20
561.0197727728
 30
0.0
 11
647.9160319255
 21
560.9502992413
 31
0.0
  0
ARC
  5
1B6
330
1F
100
AcDbEntity
  8
0
  6
Continuous
 62
     7
370
    25
100
AcDbCircle
 10
658.637810162
 20
607.9219340535
 30
0.0
 40
48.17977797259062
100
AcDbArc
 50
244.4718479123
 51
257.1419190681
  0
LWPOLYLINE
  5
1B7
330
1F
100
AcDbEntity
  8
0
  6
Continuous
 62
     7
370
    25
100
AcDbPolyline
 90
        3
 70
   128
 43
0.0
 10
638.0384832544
 20
564.5492936256
 10
637.979095404
 20
564.5117699221
 10
637.8745173312
 20
564.4457718922
  0
LINE
  5
1B8
330
1F
100
AcDbEntity
  8
0
  6
Continuous
 62
     7
370
    25
100
AcDbLine
 10
647.367676335
 20
565.6485405732
 30
0.0
 11
649.5655482552
 21
562.8614236989
 31
0.0
  0
ARC
  5
1B9
330
1F
100
AcDbEntity
  8
0
  6
Continuous
 62
     7
370
    25
100
AcDbCircle
 10
641.8098307551
 20
572.6964331545
 30
0.0
 40
12.52511736202734
100
AcDbArc
 50
307.8583068702
 51
308.2586979829
  0
LINE
  5
1BA
330
1F
100
AcDbEntity
  8
0
  6
Continuous
 62
     7
370
    25
100
AcDbLine
 10
648.53593264
 20
562.7337599628
 30
0.0
 11
649.4966309888
 21
562.8074662166
 31
0.0
  0
LINE
  5
1BB
330
1F
100
AcDbEntity
  8
0
  6
Continuous
 62
     7
370
    25
100
AcDbLine
 10
638.0399794378
 20
564.5508418088
 30
0.0
 11
638.0392008313
 21
564.5500351917
 31
0.0
  0
ARC
  5
1BC
330
1F
100
AcDbEntity
  8
0
  6
Continuous
 62
     7
370
    25
100
AcDbCircle
 10
659.7275024688
 20
567.4198337664
 30
0.0
 40
6.834138728214479
100
AcDbArc
 50
211.8771071303
 51
226.9488007428
  0
SPLINE
  5
1BD
330
1F
100
AcDbEntity
  8
0
  6
Continuous
 62
     7
370
    25
100
AcDbSpline
210
0.0
220
0.0
230
1.0
 70
     8
 71
     3
 72
    16
 73
    12
 74
     0
 42
0.00000001
 43
0.00000001
 40
0.0
 40
0.0
 40
0.0
 40
0.0
 40
0.2861254310575662
 40
0.7591203623085429
 40
0.8520758313858452
 40
0.9266344548631258
 40
0.9604862301433732
 40
0.9835335436569235
 40
0.9930756629548355
 40
0.997224229202362
 40
1.0
 40
1.0
 40
1.0
 40
1.0
 10
653.9240696777084
 20
563.8107313855295
 30
0.0
 10
655.1522165148322
 20
564.3407986948815
 30
0.0
 10
658.4106170999163
 20
565.7471220910087
 30
0.0
 10
662.2081985545236
 20
566.7649340938932
 30
0.0
 10
665.0058602044282
 20
567.3268543116648
 30
0.0
 10
665.8709931433225
 20
567.4813568275576
 30
0.0
 10
666.3965793120567
 20
567.5698774933879
 30
0.0
 10
666.6302415707707
 20
567.6089868770366
 30
0.0
 10
666.7078917179316
 20
567.6233068460062
 30
0.0
 10
666.7239733729667
 20
567.6270405846292
 30
0.0
 10
666.7250337608884
 20
567.6277744267124
 30
0.0
 10
666.7254588404026
 20
567.6280686032395
 30
0.0
  0
SPLINE
  5
1BE
330
1F
100
AcDbEntity
  8
0
  6
Continuous
 62
     7
370
    25
100
AcDbSpline
210
0.0
220
0.0
230
1.0
 70
     8
 71
     3
 72
    10
 73
     6
 74
     0
 42
0.00000001
 43
0.00000001
 40
0.0
 40
0.0
 40
0.0
 40
0.0
 40
0.5975855365574468
 40
0.9790563563182108
 40
1.0
 40
1.0
 40
1.0
 40
1.0
 10
666.8354841600903
 20
567.6189417059
 30
0.0
 10
666.8380032994437
 20
567.6226810036266
 30
0.0
 10
666.8421305402243
 20
567.62880729515
 30
0.0
 10
666.7677594136691
 20
567.6291838540066
 30
0.0
 10
666.7275514615645
 20
567.6281237750062
 30
0.0
 10
666.7254588404026
 20
567.6280686032395
 30
0.0
  0
SPLINE
  5
1BF
330
1F
100
AcDbEntity
  8
0
  6
Continuous
 62
     7
370
    25
100
AcDbSpline
210
0.0
220
0.0
230
1.0
 70
     8
 71
     3
 72
    14
 73
    10
 74
     0
 42
0.00000001
 43
0.00000001
 40
0.0
 40
0.0
 40
0.0
 40
0.0
 40
0.0129036569231464
 40
0.0519665716781149
 40
0.1318891824261205
 40
0.2280032005552169
 40
0.4679440229400838
 40
0.7079115564493629
 40
0.9999999999999999
 40
0.9999999999999999
 40
0.9999999999999999
 40
0.9999999999999999
 10
666.8354841600903
 20
567.6189417059
 30
0.0
 10
666.8020155836259
 20
567.6110967318389
 30
0.0
 10
666.6672284307933
 20
567.5795028659063
 30
0.0
 10
666.2279549858008
 20
567.4771208186124
 30
0.0
 10
665.4165275675748
 20
567.2747193097955
 30
0.0
 10
663.7630503857542
 20
566.8076686290293
 30
0.0
 10
661.4187603135106
 20
565.970211569639
 30
0.0
 10
658.2736661370134
 20
564.5252713292887
 30
0.0
 10
656.200367462821
 20
563.1699004464939
 30
0.0
 10
655.0621665800737
 20
562.4258280393443
 30
0.0
  0
LINE
  5
1C0
330
1F
100
AcDbEntity
  8
0
  6
Continuous
 62
     7
370
    25
100
AcDbLine
 10
652.4834013156
 20
563.2865877035
 30
0.0
 11
650.3833187995
 21
563.1705967548
 31
0.0
  0
LINE
  5
1C1
330
1F
100
AcDbEntity
  8
0
  6
Continuous
 62
     7
370
    25
100
AcDbLine
 10
650.1875747638
 20
566.7146545593
 30
0.0
 11
650.3833187995
 21
563.1705967548
 31
0.0
  0
LINE
  5
1C2
330
1F
100
AcDbEntity
  8
0
  6
Continuous
 62
     7
370
    25
100
AcDbLine
 10
652.4834013156
 20
563.2865877035
 30
0.0
 11
653.9240696777
 21
563.8107313855
 31
0.0
  0
LWPOLYLINE
  5
1C3
330
1F
100
AcDbEntity
  8
0
  6
Continuous
 62
     7
370
    25
100
AcDbPolyline
 90
        4
 70
   128
 43
0.0
 10
666.8550109742
 20
567.4678461296
 10
666.8527663385
 20
567.4852042765
 10
666.8437913045
 20
567.5546370227
 10
666.8354841601
 20
567.6189417059
  0
LINE
  5
1C4
330
1F
100
AcDbEntity
  8
0
  6
Continuous
 62
     7
370
    25
100
AcDbLine
 10
665.0668866904
 20
567.0383186263
 30
0.0
 11
666.8550109742
 21
567.4678461296
 31
0.0
  0
ARC
  5
1C5
330
1F
100
AcDbEntity
  8
0
  6
Continuous
 62
     7
370
    25
100
AcDbCircle
 10
673.2524450889
 20
536.6126250325
 30
0.0
 40
31.50755777528349
100
AcDbArc
 50
105.0579972479
 51
125.1719294169
  0
LINE
  5
1C6
330
1F
100
AcDbEntity
  8
0
  6
Continuous
 62
     7
370
    25
100
AcDbLine
 10
655.0621665801
 20
562.4258280393
 30
0.0
 11
655.1030864663
 21
562.3677600263
 31
0.0
  0
SPLINE
  5
1C7
330
1F
100
AcDbEntity
  8
0
  6
Continuous
 62
     7
370
    25
100
AcDbSpline
210
0.0
220
0.0
230
1.0
 70
     8
 71
     3
 72
     9
 73
     5
 74
     0
 42
0.00000001
 43
0.00000001
 40
0.0
 40
0.0
 40
0.0
 40
0.0
 40
0.499897873060973
 40
0.9999999999999999
 40
0.9999999999999999
 40
0.9999999999999999
 40
0.9999999999999999
 10
650.3833187995347
 20
563.1705967548387
 30
0.0
 10
650.235123883639
 20
563.1506304168365
 30
0.0
 10
649.9386735007068
 20
563.1106895827618
 30
0.0
 10
649.6899402719303
 20
562.9445236401912
 30
0.0
 10
649.5655482551787
 20
562.8614236988868
 30
0.0
  0
ARC
  5
1C8
330
1F
100
AcDbEntity
  8
0
  6
Continuous
 62
     7
370
    25
100
AcDbCircle
 10
666.936819475
 20
567.1292402661
 30
0.0
 40
0.5000763403581063
100
AcDbArc
 50
93.1626296398
 51
101.691363562
  0
SPLINE
  5
1C9
330
1F
100
AcDbEntity
  8
0
  6
Continuous
 62
     7
370
    25
100
AcDbSpline
210
0.0
220
0.0
230
1.0
 70
     8
 71
     3
 72
    12
 73
     8
 74
     0
 42
0.00000001
 43
0.00000001
 40
0.0
 40
0.0
 40
0.0
 40
0.0
 40
0.046072672532115
 40
0.2494576442748309
 40
0.4755636088397375
 40
0.7057929889265029
 40
1.0
 40
1.0
 40
1.0
 40
1.0
 10
638.0224522806776
 20
580.8537049146172
 30
0.0
 10
638.1507876898531
 20
580.9162096139564
 30
0.0
 10
638.8456518488102
 20
581.2546374540698
 30
0.0
 10
640.1984508183325
 20
581.8702208702102
 30
0.0
 10
642.2063194624141
 20
582.6776801754647
 30
0.0
 10
644.7015912774195
 20
583.5508002929927
 30
0.0
 10
646.6405374655543
 20
584.0481499326356
 30
0.0
 10
647.7282796059908
 20
584.3271613693022
 30
0.0
  0
LINE
  5
1CA
330
1F
100
AcDbEntity
  8
0
  6
Continuous
 62
     7
370
    25
100
AcDbLine
 10
648.1817396839
 20
582.3795588401
 30
0.0
 11
647.728279606
 21
584.3271613693
 31
0.0
  0
SPLINE
  5
1CB
330
1F
100
AcDbEntity
  8
0
  6
Continuous
 62
     7
370
    25
100
AcDbSpline
210
0.0
220
0.0
230
1.0
 70
     8
 71
     3
 72
    13
 73
     9
 74
     0
 42
0.00000001
 43
0.00000001
 40
0.0
 40
0.0
 40
0.0
 40
0.0
 40
0.2574896950994369
 40
0.4890886589321034
 40
0.7206004760683483
 40
0.9447506334961274
 40
0.9460032291293298
 40
0.9999999999999999
 40
0.9999999999999999
 40
0.9999999999999999
 40
0.9999999999999999
 10
648.1817396838778
 20
582.3795588400882
 30
0.0
 10
647.26301410789
 20
582.4076218042029
 30
0.0
 10
645.5179413207518
 20
582.4609259858684
 30
0.0
 10
643.0233760748384
 20
582.2963618670302
 30
0.0
 10
640.7077262688372
 20
581.8829878720202
 30
0.0
 10
639.230617667234
 20
581.3834306854566
 30
0.0
 10
638.3593562226927
 20
581.0091878305269
 30
0.0
 10
638.1893098138698
 20
580.9302074120417
 30
0.0
 10
638.0231186418146
 20
580.853017611867
 30
0.0
  0
LINE
  5
1CC
330
1F
100
AcDbEntity
  8
0
  6
Continuous
 62
     7
370
    25
100
AcDbLine
 10
638.0231186418
 20
580.8530176119
 30
0.0
 11
638.0224522807
 21
580.8537049146
 31
0.0
  0
ARC
  5
1CD
330
1F
100
AcDbEntity
  8
0
  6
Continuous
 62
     7
370
    25
100
AcDbCircle
 10
658.637810162
 20
537.4709322555
 30
0.0
 40
48.10950076354642
100
AcDbArc
 50
102.8580809319
 51
103.1066633214
  0
LWPOLYLINE
  5
1CE
330
1F
100
AcDbEntity
  8
0
  6
Continuous
 62
     7
370
    25
100
AcDbPolyline
 90
        3
 70
   128
 43
0.0
 10
638.0224522807
 20
580.8537049146
 10
637.979095404
 20
580.881096387
 10
637.8745173309
 20
580.9470944171
  0
ARC
  5
1CF
330
1F
100
AcDbEntity
  8
0
  6
Continuous
 62
     7
370
    25
100
AcDbCircle
 10
658.637810162
 20
537.4709322555
 30
0.0
 40
48.17977797259051
100
AcDbArc
 50
102.8580809319
 51
115.5281512988
  0
LINE
  5
1D0
330
1F
100
AcDbEntity
  8
0
  6
Continuous
 62
     7
370
    25
100
AcDbLine
 10
647.9316711975
 20
584.3740521111
 30
0.0
 11
647.9160319255
 21
584.4425670678
 31
0.0
  0
LINE
  5
1D1
330
1F
100
AcDbEntity
  8
0
  6
Continuous
 62
     7
370
    25
100
AcDbLine
 10
654.2870589997
 20
581.0716744326
 30
0.0
 11
655.4165344171
 21
582.7218462222
 31
0.0
  0
SPLINE
  5
1D2
330
1F
100
AcDbEntity
  8
0
  6
Continuous
 62
     7
370
    25
100
AcDbSpline
210
0.0
220
0.0
230
1.0
 70
     8
 71
     3
 72
    14
 73
    10
 74
     0
 42
0.00000001
 43
0.00000001
 40
0.0
 40
0.0
 40
0.0
 40
0.0
 40
0.225645860719597
 40
0.4518169308148968
 40
0.8157761447763437
 40
0.8946140573305363
 40
0.9637846180221653
 40
0.9940799143125675
 40
1.0
 40
1.0
 40
1.0
 40
1.0
 10
655.4165344171465
 20
582.7218462222448
 30
0.0
 10
656.2622819642177
 20
582.1768224997437
 30
0.0
 10
657.9557456056216
 20
581.0855064670166
 30
0.0
 10
661.1359677056738
 20
579.5200653822145
 30
0.0
 10
663.8072457688403
 20
578.5666865479785
 30
0.0
 10
665.7577742560914
 20
578.0452384018494
 30
0.0
 10
666.4018507665332
 20
577.8898577272073
 30
0.0
 10
666.72980166276
 20
577.8143076663628
 30
0.0
 10
666.8223389953587
 20
577.7927868922177
 30
0.0
 10
666.837465963745
 20
577.7892689167045
 30
0.0
  0
SPLINE
  5
1D3
330
1F
100
AcDbEntity
  8
0
  6
Continuous
 62
     7
370
    25
100
AcDbSpline
210
0.0
220
0.0
230
1.0
 70
     8
 71
     3
 72
    11
 73
     7
 74
     0
 42
0.00000001
 43
0.00000001
 40
0.0
 40
0.0
 40
0.0
 40
0.0
 40
0.0195561212295859
 40
0.1681891996744558
 40
0.5898876540792811
 40
1.0
 40
1.0
 40
1.0
 40
1.0
 10
666.7275245723279
 20
577.7810013546115
 30
0.0
 10
666.729483285476
 20
577.7809432408958
 30
0.0
 10
666.7463288752986
 20
577.780443443455
 30
0.0
 10
666.7982294390578
 20
577.7795970260415
 30
0.0
 10
666.8475140711234
 20
577.7816863245636
 30
0.0
 10
666.8407840860469
 20
577.7867649657471
 30
0.0
 10
666.837465963745
 20
577.7892689167045
 30
0.0
  0
SPLINE
  5
1D4
330
1F
100
AcDbEntity
  8
0
  6
Continuous
 62
     7
370
    25
100
AcDbSpline
210
0.0
220
0.0
230
1.0
 70
     8
 71
     3
 72
    17
 73
    13
 74
     0
 42
0.00000001
 43
0.00000001
 40
0.0
 40
0.0
 40
0.0
 40
0.0
 40
0.0068263121770683
 40
0.008844850729726
 40
0.0223990310416119
 40
0.0309593028397531
 40
0.0563218912149136
 40
0.1198824177066677
 40
0.1957460556357049
 40
0.5558621944880022
 40
0.7780336097977192
 40
1.0
 40
1.0
 40
1.0
 40
1.0
 10
666.7275245723279
 20
577.7810013546115
 30
0.0
 10
666.7239044271663
 20
577.7820395376566
 30
0.0
 10
666.7192138061189
 20
577.7833847111303
 30
0.0
 10
666.6756810934154
 20
577.7909746992052
 30
0.0
 10
666.6011491709831
 20
577.8027262060118
 30
0.0
 10
666.4343169254811
 20
577.8284451012349
 30
0.0
 10
666.0527408084138
 20
577.8869596802572
 30
0.0
 10
665.3698398416794
 20
577.9961566648444
 30
0.0
 10
663.2648405247618
 20
578.3633288972685
 30
0.0
 10
660.4519059429756
 20
578.9975065812338
 30
0.0
 10
657.0531217284089
 20
580.0104468730923
 30
0.0
 10
655.2087961136451
 20
580.718040793779
 30
0.0
 10
654.2870589996545
 20
581.0716744326061
 30
0.0
  0
LINE
  5
1D5
330
1F
100
AcDbEntity
  8
0
  6
Continuous
 62
     7
370
    25
100
AcDbLine
 10
650.1936161489
 20
578.6941958168
 30
0.0
 11
650.3369779778
 21
581.2898437863
 31
0.0
  0
LINE
  5
1D6
330
1F
100
AcDbEntity
  8
0
  6
Continuous
 62
     7
370
    25
100
AcDbLine
 10
650.3369779778
 20
581.2898437863
 30
0.0
 11
654.2870589997
 21
581.0716744326
 31
0.0
  0
LINE
  5
1D7
330
1F
100
AcDbEntity
  8
0
  6
Continuous
 62
     7
370
    25
100
AcDbLine
 10
647.3751639099
 20
579.7591697947
 30
0.0
 11
648.9841209031
 21
581.8010312956
 31
0.0
  0
LINE
  5
1D8
330
1F
100
AcDbEntity
  8
0
  6
Continuous
 62
     7
370
    25
100
AcDbLine
 10
638.0231186418
 20
580.8530176119
 30
0.0
 11
638.0236865273
 21
580.852430571
 31
0.0
  0
ARC
  5
1D9
330
1F
100
AcDbEntity
  8
0
  6
Continuous
 62
     7
370
    25
100
AcDbCircle
 10
641.8098307551
 20
572.6964331545
 30
0.0
 40
11.5915549620674
100
AcDbArc
 50
51.762407147
 51
56.6533814372
  0
LWPOLYLINE
  5
1DA
330
1F
100
AcDbEntity
  8
0
  6
Continuous
 62
     7
370
    25
100
AcDbPolyline
 90
        4
 70
   128
 43
0.0
 10
666.8374659637
 20
577.7892689167
 10
666.8397082101
 20
577.8066271717
 10
666.8486806929
 20
577.8760600333
 10
666.8550109742
 20
577.9250201794
  0
ARC
  5
1DB
330
1F
100
AcDbEntity
  8
0
  6
Continuous
 62
     7
370
    25
100
AcDbCircle
 10
673.2524450889
 20
608.7802412765
 30
0.0
 40
31.57783498432761
100
AcDbArc
 50
234.8280705831
 51
235.6099480104
  0
LINE
  5
1DC
330
1F
100
AcDbEntity
  8
0
  6
Continuous
 62
     7
370
    25
100
AcDbLine
 10
655.0626045515
 20
582.9676597799
 30
0.0
 11
655.1030864663
 21
583.0251062827
 31
0.0
  0
ARC
  5
1DD
330
1F
100
AcDbEntity
  8
0
  6
Continuous
 62
     7
370
    25
100
AcDbCircle
 10
673.2524450889
 20
608.7802412765
 30
0.0
 40
31.5075577752834
100
AcDbArc
 50
234.8280705831
 51
254.9420027521
  0
LINE
  5
1DE
330
1F
100
AcDbEntity
  8
0
  6
Continuous
 62
     7
370
    25
100
AcDbLine
 10
666.8550109742
 20
577.9250201794
 30
0.0
 11
665.0668866904
 21
578.3545476827
 31
0.0
  0
LINE
  5
1DF
330
1F
100
AcDbEntity
  8
0
  6
Continuous
 62
     7
370
    25
100
AcDbLine
 10
666.9288483835
 20
567.4781644259
 30
0.0
 11
666.8550109742
 21
567.4678461296
 31
0.0
  0
SPLINE
  5
1E0
330
1F
100
AcDbEntity
  8
0
  6
Continuous
 62
     7
370
    25
100
AcDbSpline
210
0.0
220
0.0
230
1.0
 70
     8
 71
     3
 72
    10
 73
     6
 74
     0
 42
0.00000001
 43
0.00000001
 40
0.0
 40
0.0
 40
0.0
 40
0.0
 40
0.0490769085761621
 40
0.5995805843665267
 40
1.0
 40
1.0
 40
1.0
 40
1.0
 10
648.9841209031177
 20
581.8010312956395
 30
0.0
 10
649.0030684414868
 20
581.7864085600381
 30
0.0
 10
649.2345536033936
 20
581.6077602178491
 30
0.0
 10
649.6804273782107
 20
581.3737082244278
 30
0.0
 10
650.142433955095
 20
581.3146938514102
 30
0.0
 10
650.3369779778487
 20
581.2898437862779
 30
0.0
  0
ARC
  5
1E1
330
1F
100
AcDbEntity
  8
0
  6
Continuous
 62
     7
370
    25
100
AcDbCircle
 10
666.9388193647
 20
578.2789666137
 30
0.0
 40
0.500076340522585
100
AcDbArc
 50
258.306520338
 51
266.8373700344
  0
SPLINE
  5
1E2
330
1F
100
AcDbEntity
  8
0
  6
Continuous
 62
     7
370
    25
100
AcDbSpline
210
0.0
220
0.0
230
1.0
 70
     8
 71
     3
 72
     9
 73
     5
 74
     0
 42
0.00000001
 43
0.00000001
 40
0.0
 40
0.0
 40
0.0
 40
0.0
 40
0.845891190778427
 40
0.9999999999999999
 40
0.9999999999999999
 40
0.9999999999999999
 40
0.9999999999999999
 10
666.8550109741554
 20
577.9250201793907
 30
0.0
 10
666.8758515702665
 20
577.9212053723984
 30
0.0
 10
666.9004890134014
 20
577.9166955642411
 30
0.0
 10
666.9250615405776
 20
577.91496810049
 30
0.0
 10
666.9288483834803
 20
577.9147018831085
 30
0.0
  0
LINE
  5
1E3
330
1F
100
AcDbEntity
  8
0
  6
Continuous
 62
     7
370
    25
100
AcDbLine
 10
684.9242685811
 20
576.8484460298
 30
0.0
 11
684.9238105613
 21
576.8484711163
 31
0.0
  0
LINE
  5
1E4
330
1F
100
AcDbEntity
  8
0
  6
Continuous
 62
     7
370
    25
100
AcDbLine
 10
655.0621665801
 20
562.4258280393
 30
0.0
 11
653.2234257308
 21
561.4288618037
 31
0.0
  0
LINE
  5
1E5
330
1F
100
AcDbEntity
  8
0
  6
Continuous
 62
     7
370
    25
100
AcDbLine
 10
652.4834013156
 20
563.2865877035
 30
0.0
 11
653.2234257308
 21
561.4288618037
 31
0.0
  0
LINE
  5
1E6
330
1F
100
AcDbEntity
  8
0
  6
Continuous
 62
     7
370
    25
100
AcDbLine
 10
649.4966309888
 20
562.8074662166
 30
0.0
 11
649.3747972422
 21
560.8114857076
 31
0.0
  0
LINE
  5
1E7
330
1F
100
AcDbEntity
  8
0
  6
Continuous
 62
     7
370
    25
100
AcDbLine
 10
649.3747972422
 20
560.8114857076
 30
0.0
 11
647.9318900025
 21
561.0197727728
 31
0.0
  0
ARC
  5
1E8
330
1F
100
AcDbEntity
  8
0
  6
Continuous
 62
     7
370
    25
100
AcDbCircle
 10
673.2524450889
 20
608.7802412765
 30
0.0
 40
33.5775303746404
100
AcDbArc
 50
234.8280705831
 51
235.6099480104
  0
LINE
  5
1E9
330
1F
100
AcDbEntity
  8
0
  6
Continuous
 62
     7
370
    25
100
AcDbLine
 10
653.9107162003
 20
581.3330543595
 30
0.0
 11
655.0626045515
 21
582.9676597799
 31
0.0
  0
ARC
  5
1EA
330
1F
100
AcDbEntity
  8
0
  6
Continuous
 62
     7
370
    25
100
AcDbCircle
 10
658.637810162
 20
537.4709322555
 30
0.0
 40
46.10980537323358
100
AcDbArc
 50
102.8580809319
 51
103.1066633214
  0
LINE
  5
1EB
330
1F
100
AcDbEntity
  8
0
  6
Continuous
 62
     7
370
    25
100
AcDbLine
 10
648.3766772024
 20
582.4245005448
 30
0.0
 11
647.9316711975
 21
584.3740521111
 31
0.0
  0
ARC
  5
1EC
330
1F
100
AcDbEntity
  8
0
  6
Continuous
 62
     7
370
    25
100
AcDbCircle
 10
649.9188459604
 20
575.6683276303
 30
0.0
 40
6.92994638714431
100
AcDbArc
 50
54.8280705831
 51
102.8580809319
  0
ARC
  5
1ED
330
1F
100
AcDbEntity
  8
0
  6
Continuous
 62
     7
370
    25
100
AcDbCircle
 10
649.9188459604
 20
575.6683276303
 30
0.0
 40
8.929641777457157
100
AcDbArc
 50
54.8280705831
 51
102.8580809319
  0
ARC
  5
1EE
330
1F
100
AcDbEntity
  8
0
  6
Continuous
 62
     7
370
    25
100
AcDbCircle
 10
649.9188459604
 20
569.7245386787
 30
0.0
 40
6.929946387144299
100
AcDbArc
 50
266.5070253286
 51
291.7198462835
  0
ARC
  5
1EF
330
1F
100
AcDbEntity
  8
0
  6
Continuous
 62
     7
370
    25
100
AcDbCircle
 10
649.9188459604
 20
569.7245386787
 30
0.0
 40
8.929641777457114
100
AcDbArc
 50
266.5070253286
 51
291.7198462835
  0
ARC
  5
1F0
330
1F
100
AcDbEntity
  8
0
  6
Continuous
 62
     7
370
    25
100
AcDbCircle
 10
649.9188459604
 20
569.7245386787
 30
0.0
 40
8.999918986501244
100
AcDbArc
 50
257.1419190681
 51
305.1719294169
  0
ARC
  5
1F1
330
1F
100
AcDbEntity
  8
0
  6
Continuous
 62
     7
370
    25
100
AcDbCircle
 10
649.9188459604
 20
575.6683276303
 30
0.0
 40
8.999918986501244
100
AcDbArc
 50
54.8280705831
 51
102.8580809319
  0
SPLINE
  5
1F2
330
1F
100
AcDbEntity
  8
0
  6
Continuous
 62
     7
370
    25
100
AcDbSpline
210
0.0
220
0.0
230
1.0
 70
     8
 71
     3
 72
    11
 73
     7
 74
     0
 42
0.00000001
 43
0.00000001
 40
0.0
 40
0.0
 40
0.0
 40
0.0
 40
0.2200386424382248
 40
0.6637869905998172
 40
0.8890365590789576
 40
1.0
 40
1.0
 40
1.0
 40
1.0
 10
533.5322406105571
 20
566.6761148475638
 30
0.0
 10
533.3280191475556
 20
566.9411334588225
 30
0.0
 10
532.711947584672
 20
567.7406107891273
 30
0.0
 10
532.1883982336549
 20
569.0037800596551
 30
0.0
 10
531.9367690338936
 20
570.1703498729792
 30
0.0
 10
531.957476228616
 20
570.6816296716386
 30
0.0
 10
531.964310412642
 20
570.850371999111
 30
0.0
  0
SPLINE
  5
1F3
330
1F
100
AcDbEntity
  8
0
  6
Continuous
 62
     7
370
    25
100
AcDbSpline
210
0.0
220
0.0
230
1.0
 70
     8
 71
     3
 72
     9
 73
     5
 74
     0
 42
0.00000001
 43
0.00000001
 40
0.0
 40
0.0
 40
0.0
 40
0.0
 40
0.9209630919903058
 40
1.0
 40
1.0
 40
1.0
 40
1.0
 10
531.8921982473097
 20
566.9964381231972
 30
0.0
 10
532.4066197851826
 20
566.9396110642786
 30
0.0
 10
532.9651888986973
 20
566.8779071160826
 30
0.0
 10
533.4907054103667
 20
566.6908956551947
 30
0.0
 10
533.5322406105571
 20
566.6761148475638
 30
0.0
  0
SPLINE
  5
1F4
330
1F
100
AcDbEntity
  8
0
  6
Continuous
 62
     7
370
    25
100
AcDbSpline
210
0.0
220
0.0
230
1.0
 70
     8
 71
     3
 72
    10
 73
     6
 74
     0
 42
0.00000001
 43
0.00000001
 40
0.0
 40
0.0
 40
0.0
 40
0.0
 40
0.2596150688488839
 40
0.6297606444810658
 40
1.0
 40
1.0
 40
1.0
 40
1.0
 10
484.7170372933725
 20
569.5879956921863
 30
0.0
 10
488.7948575120955
 20
569.2882415550879
 30
0.0
 10
498.6866203454608
 20
568.5611136599238
 30
0.0
 10
514.416193028134
 20
567.7352667900336
 30
0.0
 10
526.0663712893986
 20
567.242735140768
 30
0.0
 10
531.8921982473097
 20
566.9964381231972
 30
0.0
  0
SPLINE
  5
1F5
330
1F
100
AcDbEntity
  8
0
  6
Continuous
 62
     7
370
    25
100
AcDbSpline
210
0.0
220
0.0
230
1.0
 70
     8
 71
     3
 72
    11
 73
     7
 74
     0
 42
0.00000001
 43
0.00000001
 40
0.0
 40
0.0
 40
0.0
 40
0.0
 40
0.0614641195413919
 40
0.4999988937835378
 40
0.9375097801832796
 40
1.0
 40
1.0
 40
1.0
 40
1.0
 10
484.7170372933727
 20
575.3140280391882
 30
0.0
 10
484.7053680971703
 20
575.197571066736
 30
0.0
 10
484.610441410901
 20
574.2502157994049
 30
0.0
 10
484.5267385836347
 20
572.4529716009566
 30
0.0
 10
484.610308507155
 20
570.6537735767158
 30
0.0
 10
484.7051802122001
 20
569.7063987522828
 30
0.0
 10
484.7170372933725
 20
569.5879956921863
 30
0.0
  0
SPLINE
  5
1F6
330
1F
100
AcDbEntity
  8
0
  6
Continuous
 62
     7
370
    25
100
AcDbSpline
210
0.0
220
0.0
230
1.0
 70
     8
 71
     3
 72
    10
 73
     6
 74
     0
 42
0.00000001
 43
0.00000001
 40
0.0
 40
0.0
 40
0.0
 40
0.0
 40
0.2594618540778873
 40
0.6296073956705972
 40
1.0
 40
1.0
 40
1.0
 40
1.0
 10
531.8921982473097
 20
577.9055856081754
 30
0.0
 10
527.8093300092141
 20
577.7382012986499
 30
0.0
 10
517.9018850501495
 20
577.332028300422
 30
0.0
 10
502.1705884886802
 20
576.5452449426915
 30
0.0
 10
490.5361815384689
 20
575.7245249448501
 30
0.0
 10
484.7170372933727
 20
575.3140280391882
 30
0.0
  0
SPLINE
  5
1F7
330
1F
100
AcDbEntity
  8
0
  6
Continuous
 62
     7
370
    25
100
AcDbSpline
210
0.0
220
0.0
230
1.0
 70
     8
 71
     3
 72
     9
 73
     5
 74
     0
 42
0.00000001
 43
0.00000001
 40
0.0
 40
0.0
 40
0.0
 40
0.0
 40
0.0790369080192175
 40
1.0
 40
1.0
 40
1.0
 40
1.0
 10
533.5322406105563
 20
578.2259088838088
 30
0.0
 10
533.4907054103609
 20
578.211128076176
 30
0.0
 10
532.9651888986916
 20
578.0241166152882
 30
0.0
 10
532.406619785177
 20
577.9624126670928
 30
0.0
 10
531.8921982473097
 20
577.9055856081754
 30
0.0
  0
SPLINE
  5
1F8
330
1F
100
AcDbEntity
  8
0
  6
Continuous
 62
     7
370
    25
100
AcDbSpline
210
0.0
220
0.0
230
1.0
 70
     8
 71
     3
 72
    11
 73
     7
 74
     0
 42
0.00000001
 43
0.00000001
 40
0.0
 40
0.0
 40
0.0
 40
0.0
 40
0.0728838064943292
 40
0.4140719411596028
 40
0.9209668754550557
 40
1.0
 40
1.0
 40
1.0
 40
1.0
 10
531.9643104126458
 20
574.0516517322469
 30
0.0
 10
531.9565952635081
 20
574.1620981664859
 30
0.0
 10
531.9127634861436
 20
574.7895732068168
 30
0.0
 10
532.2572551975816
 20
576.1725652372819
 30
0.0
 10
532.8969445470681
 20
577.4424967550594
 30
0.0
 10
533.4567332965008
 20
578.1327974212325
 30
0.0
 10
533.5322406105563
 20
578.2259088838088
 30
0.0
  0
SPLINE
  5
1F9
330
1F
100
AcDbEntity
  8
0
  6
Continuous
 62
     7
370
    25
100
AcDbSpline
210
0.0
220
0.0
230
1.0
 70
     8
 71
     3
 72
    10
 73
     6
 74
     0
 42
0.00000001
 43
0.00000001
 40
0.0
 40
0.0
 40
0.0
 40
0.0
 40
0.3880207377811387
 40
0.979063776650686
 40
1.0
 40
1.0
 40
1.0
 40
1.0
 10
531.964310412642
 20
570.850371999111
 30
0.0
 10
532.0376249434015
 20
571.2612118609667
 30
0.0
 10
532.2226140287247
 20
572.2978534308149
 30
0.0
 10
532.1269071028937
 20
573.3916227523862
 30
0.0
 10
531.9696889516458
 20
574.0298186211057
 30
0.0
 10
531.9643104126458
 20
574.0516517322469
 30
0.0
  0
ARC
  5
1FA
330
1F
100
AcDbEntity
  8
0
  6
Continuous
 62
     7
370
    25
100
AcDbCircle
 10
540.2098307551
 20
572.4510118657
 30
0.0
 40
8.39944365426456
100
AcDbArc
 50
190.985757993
 51
169.0142420071
  0
SPLINE
  5
1FB
330
1F
100
AcDbEntity
  8
0
  6
Continuous
 62
     7
370
    25
100
AcDbSpline
210
0.0
220
0.0
230
1.0
 70
     8
 71
     3
 72
     9
 73
     5
 74
     0
 42
0.00000001
 43
0.00000001
 40
0.0
 40
0.0
 40
0.0
 40
0.0
 40
0.6817923421274298
 40
1.0
 40
1.0
 40
1.0
 40
1.0
 10
533.5322406105563
 20
578.2259088838088
 30
0.0
 10
533.6745041711994
 20
578.415819238914
 30
0.0
 10
533.8831653013597
 20
578.6943649827875
 30
0.0
 10
534.1125911352401
 20
578.9272693557305
 30
0.0
 10
534.1855961924946
 20
579.0013813107529
 30
0.0
  0
ARC
  5
1FC
330
1F
100
AcDbEntity
  8
0
  6
Continuous
 62
     7
370
    25
100
AcDbCircle
 10
540.2098307551
 20
572.4510118657
 30
0.0
 40
8.899367501836373
100
AcDbArc
 50
227.3959191961
 51
132.6040808039
  0
LINE
  5
1FD
330
1F
100
AcDbEntity
  8
0
  6
Continuous
 62
     7
370
    25
100
AcDbLine
 10
534.1855961925
 20
565.9006424206
 30
0.0
 11
533.5322406106
 21
566.6761148476
 31
0.0
  0
SPLINE
  5
1FE
330
1F
100
AcDbEntity
  8
0
  6
Continuous
 62
     7
370
    25
100
AcDbSpline
210
0.0
220
0.0
230
1.0
 70
     8
 71
     3
 72
    10
 73
     6
 74
     0
 42
0.00000001
 43
0.00000001
 40
0.0
 40
0.0
 40
0.0
 40
0.0
 40
0.3702896688583042
 40
0.7405318123903297
 40
0.9999999999999999
 40
0.9999999999999999
 40
0.9999999999999999
 40
0.9999999999999999
 10
484.7055178301942
 20
575.7568876200214
 30
0.0
 10
490.5255816764126
 20
576.0770786345477
 30
0.0
 10
502.1649623849162
 20
576.7174195682533
 30
0.0
 10
517.8838307916911
 20
577.5866539001165
 30
0.0
 10
527.7810046077009
 20
578.1353949017257
 30
0.0
 10
531.8590729281649
 20
578.3615001855576
 30
0.0
  0
ARC
  5
1FF
330
1F
100
AcDbEntity
  8
0
  6
Continuous
 62
     7
370
    25
100
AcDbCircle
 10
524.6439837208
 20
577.6081138189
 30
0.0
 40
7.254316183285637
100
AcDbArc
 50
2.3501399448
 51
5.9611177314
  0
ARC
  5
200
330
1F
100
AcDbEntity
  8
0
  6
Continuous
 62
     7
370
    25
100
AcDbCircle
 10
488.9660403714
 20
575.646130796
 30
0.0
 40
4.261961918910719
100
AcDbArc
 50
178.5108705387
 51
184.4691613065
  0
SPLINE
  5
201
330
1F
100
AcDbEntity
  8
0
  6
Continuous
 62
     7
370
    25
100
AcDbSpline
210
0.0
220
0.0
230
1.0
 70
     8
 71
     3
 72
    10
 73
     6
 74
     0
 42
0.00000001
 43
0.00000001
 40
0.0
 40
0.0
 40
0.0
 40
0.0
 40
0.3702717503651156
 40
0.7405122151371748
 40
1.0
 40
1.0
 40
1.0
 40
1.0
 10
531.8590729281649
 20
566.5405235458151
 30
0.0
 10
526.0394008664958
 20
566.863052031483
 30
0.0
 10
514.400548468199
 20
567.508081751226
 30
0.0
 10
498.6814088842443
 20
568.3768962387051
 30
0.0
 10
488.7839114605456
 20
568.9209511494719
 30
0.0
 10
484.7055178301976
 20
569.145136111351
 30
0.0
  0
ARC
  5
202
330
1F
100
AcDbEntity
  8
0
  6
Continuous
 62
     7
370
    25
100
AcDbCircle
 10
488.9660403743
 20
569.2558929353
 30
0.0
 40
4.261961921838749
100
AcDbArc
 50
175.5308386961
 51
181.4891294598
  0
ARC
  5
203
330
1F
100
AcDbEntity
  8
0
  6
Continuous
 62
     7
370
    25
100
AcDbCircle
 10
524.6439837208
 20
567.2939099125
 30
0.0
 40
7.254316183315022
100
AcDbArc
 50
354.0388822686
 51
357.6498600552
  0
SPLINE
  5
204
330
1F
100
AcDbEntity
  8
0
  6
Continuous
 62
     7
370
    25
100
AcDbSpline
210
0.0
220
0.0
230
1.0
 70
     8
 71
     3
 72
    12
 73
     8
 74
     0
 42
0.00000001
 43
0.00000001
 40
0.0
 40
0.0
 40
0.0
 40
0.0
 40
0.1224290494151362
 40
0.3423522449770489
 40
0.5614228816909436
 40
0.7807229538533521
 40
1.0
 40
1.0
 40
1.0
 40
1.0
 10
482.781309860525
 20
569.6986700618424
 30
0.0
 10
482.7903139363891
 20
569.6963113774016
 30
0.0
 10
482.8154923201201
 20
569.6897157130768
 30
0.0
 10
483.0314800037648
 20
569.6727077453377
 30
0.0
 10
483.4673781334938
 20
569.6471967711833
 30
0.0
 10
484.0513037469241
 20
569.6176445886239
 30
0.0
 10
484.4951338784922
 20
569.5978783117449
 30
0.0
 10
484.7170372933725
 20
569.5879956921863
 30
0.0
  0
SPLINE
  5
205
330
1F
100
AcDbEntity
  8
0
  6
Continuous
 62
     7
370
    25
100
AcDbSpline
210
0.0
220
0.0
230
1.0
 70
     8
 71
     3
 72
    11
 73
     7
 74
     0
 42
0.00000001
 43
0.00000001
 40
0.0
 40
0.0
 40
0.0
 40
0.0
 40
0.0800485240044433
 40
0.5000005853538798
 40
0.9209248322279645
 40
1.0
 40
1.0
 40
1.0
 40
1.0
 10
482.781309860525
 20
569.6986700618424
 30
0.0
 10
482.7815961049391
 20
569.8449144869431
 30
0.0
 10
482.7833840501437
 20
570.7583891457763
 30
0.0
 10
482.7846197469737
 20
572.4527987335348
 30
0.0
 10
482.7833820488789
 20
574.1454255853894
 30
0.0
 10
482.7815928269108
 20
575.0588889610333
 30
0.0
 10
482.7813098605249
 20
575.2033536695246
 30
0.0
  0
SPLINE
  5
206
330
1F
100
AcDbEntity
  8
0
  6
Continuous
 62
     7
370
    25
100
AcDbSpline
210
0.0
220
0.0
230
1.0
 70
     8
 71
     3
 72
    12
 73
     8
 74
     0
 42
0.00000001
 43
0.00000001
 40
0.0
 40
0.0
 40
0.0
 40
0.0
 40
0.1130367476169282
 40
0.3328594693547963
 40
0.5544127937944965
 40
0.7774207483513224
 40
1.0
 40
1.0
 40
1.0
 40
1.0
 10
484.7170372933727
 20
575.3140280391882
 30
0.0
 10
484.6029664533858
 20
575.3090127934868
 30
0.0
 10
484.2670618907779
 20
575.2942443924311
 30
0.0
 10
483.7329940343832
 20
575.2686521883217
 30
0.0
 10
483.2164683964959
 20
575.2407769254506
 30
0.0
 10
482.8595736793415
 20
575.2173350518601
 30
0.0
 10
482.8073810618231
 20
575.2080111401004
 30
0.0
 10
482.7813098605249
 20
575.2033536695246
 30
0.0
  0
SPLINE
  5
207
330
1F
100
AcDbEntity
  8
0
  6
Continuous
 62
     7
370
    25
100
AcDbSpline
210
0.0
220
0.0
230
1.0
 70
     8
 71
     3
 72
     9
 73
     5
 74
     0
 42
0.00000001
 43
0.00000001
 40
0.0
 40
0.0
 40
0.0
 40
0.0
 40
0.5000106123815449
 40
1.0
 40
1.0
 40
1.0
 40
1.0
 10
534.6852040413376
 20
565.4688107313734
 30
0.0
 10
534.2554826745168
 20
565.7566512694667
 30
0.0
 10
533.3960581819562
 20
566.3323201272182
 30
0.0
 10
532.3713940966779
 20
566.4711233883048
 30
0.0
 10
531.8590729281649
 20
566.5405235458151
 30
0.0
  0
SPLINE
  5
208
330
1F
100
AcDbEntity
  8
0
  6
Continuous
 62
     7
370
    25
100
AcDbSpline
210
0.0
220
0.0
230
1.0
 70
     8
 71
     3
 72
     9
 73
     5
 74
     0
 42
0.00000001
 43
0.00000001
 40
0.0
 40
0.0
 40
0.0
 40
0.0
 40
0.9838702326459322
 40
1.0
 40
1.0
 40
1.0
 40
1.0
 10
534.1855961924946
 20
565.9006424206196
 30
0.0
 10
534.346937007429
 20
565.7558100076006
 30
0.0
 10
534.510922876277
 20
565.6086031827439
 30
0.0
 10
534.6824375495597
 20
565.4710297586973
 30
0.0
 10
534.6852040413376
 20
565.4688107313734
 30
0.0
  0
SPLINE
  5
209
330
1F
100
AcDbEntity
  8
0
  6
Continuous
 62
     7
370
    25
100
AcDbSpline
210
0.0
220
0.0
230
1.0
 70
     8
 71
     3
 72
     9
 73
     5
 74
     0
 42
0.00000001
 43
0.00000001
 40
0.0
 40
0.0
 40
0.0
 40
0.0
 40
0.5055561057107315
 40
1.0
 40
1.0
 40
1.0
 40
1.0
 10
531.8590729281649
 20
578.3615001855576
 30
0.0
 10
532.377132445498
 20
578.4321562198276
 30
0.0
 10
533.4018644415734
 20
578.571915256405
 30
0.0
 10
534.2606050103349
 20
579.1482485312007
 30
0.0
 10
534.6852040413376
 20
579.4332129999991
 30
0.0
  0
SPLINE
  5
20A
330
1F
100
AcDbEntity
  8
0
  6
Continuous
 62
     7
370
    25
100
AcDbSpline
210
0.0
220
0.0
230
1.0
 70
     8
 71
     3
 72
     9
 73
     5
 74
     0
 42
0.00000001
 43
0.00000001
 40
0.0
 40
0.0
 40
0.0
 40
0.0
 40
0.0161297673533178
 40
1.0
 40
1.0
 40
1.0
 40
1.0
 10
534.6852040413376
 20
579.4332129999991
 30
0.0
 10
534.6824375495598
 20
579.4309939726753
 30
0.0
 10
534.510922876273
 20
579.2934205486257
 30
0.0
 10
534.346937007427
 20
579.1462137237704
 30
0.0
 10
534.1855961924946
 20
579.0013813107529
 30
0.0
  0
SPLINE
  5
20B
330
1F
100
AcDbEntity
  8
0
  6
Continuous
 62
     7
370
    25
100
AcDbSpline
210
0.0
220
0.0
230
1.0
 70
     8
 71
     3
 72
    12
 73
     8
 74
     0
 42
0.00000001
 43
0.00000001
 40
0.0
 40
0.0
 40
0.0
 40
0.0
 40
0.2230315344150378
 40
0.4461337558340359
 40
0.6675099896777023
 40
0.8870667292265011
 40
1.0
 40
1.0
 40
1.0
 40
1.0
 10
483.2536641256094
 20
575.7025167405731
 30
0.0
 10
483.2731979117354
 20
575.7006264932783
 30
0.0
 10
483.312271674972
 20
575.6968453995988
 30
0.0
 10
483.5798608570281
 20
575.7037882358695
 30
0.0
 10
483.9673899408531
 20
575.7193770583594
 30
0.0
 10
484.3681120533162
 20
575.7387143384236
 30
0.0
 10
484.6199714755741
 20
575.7522799396
 30
0.0
 10
484.7055178301942
 20
575.7568876200214
 30
0.0
  0
ARC
  5
20C
330
1F
100
AcDbEntity
  8
0
  6
Continuous
 62
     7
370
    25
100
AcDbCircle
 10
483.2814097481
 20
575.2031870842
 30
0.0
 40
0.5000999153470841
100
AcDbArc
 50
93.1804119248
 51
179.9809145383
  0
SPLINE
  5
20D
330
1F
100
AcDbEntity
  8
0
  6
Continuous
 62
     7
370
    25
100
AcDbSpline
210
0.0
220
0.0
230
1.0
 70
     8
 71
     3
 72
    12
 73
     8
 74
     0
 42
0.00000001
 43
0.00000001
 40
0.0
 40
0.0
 40
0.0
 40
0.0
 40
0.2190444340109337
 40
0.4380981679380299
 40
0.6571027493691836
 40
0.8772791087290026
 40
1.0
 40
1.0
 40
1.0
 40
1.0
 10
484.7055178301976
 20
569.145136111351
 30
0.0
 10
484.5391000894268
 20
569.1539649243007
 30
0.0
 10
484.2062575423276
 20
569.1716229250429
 30
0.0
 10
483.7680990996844
 20
569.1911414144521
 30
0.0
 10
483.441133272925
 20
569.2024471980843
 30
0.0
 10
483.2792893959107
 20
569.204271066161
 30
0.0
 10
483.2604180634986
 20
569.2007626368362
 30
0.0
 10
483.2536641256095
 20
569.1995069907996
 30
0.0
  0
ARC
  5
20E
330
1F
100
AcDbEntity
  8
0
  6
Continuous
 62
     7
370
    25
100
AcDbCircle
 10
483.2814097481
 20
569.6988366472
 30
0.0
 40
0.5000999153471908
100
AcDbArc
 50
180.0190854624
 51
266.8195880753
  0
LINE
  5
20F
330
1F
100
AcDbEntity
  8
0
  6
Continuous
 62
     7
370
    25
100
AcDbLine
 10
531.8590729282
 20
578.3615001856
 30
0.0
 11
531.8320867465
 21
578.4327904609
 31
0.0
  0
LINE
  5
210
330
1F
100
AcDbEntity
  8
0
  6
Continuous
 62
     7
370
    25
100
AcDbLine
 10
483.2489737649
 20
575.7069551936
 30
0.0
 11
483.2536641256
 21
575.7025167406
 31
0.0
  0
ELLIPSE
  5
211
330
1F
100
AcDbEntity
  8
0
  6
Continuous
 62
     7
370
    25
100
AcDbEllipse
 10
484.7487453077
 20
575.7902476436
 30
0.0
 11
1.499999304622804
 21
0.0828726334386829
 31
0.0
210
0.0
220
0.0
230
1.0
 40
0.0174284859
 41
2.255125316699077
 42
3.158083049610986
  0
LINE
  5
212
330
1F
100
AcDbEntity
  8
0
  6
Continuous
 62
     7
370
    25
100
AcDbLine
 10
487.2643599767
 20
575.9990072317
 30
0.0
 11
483.7993967673
 21
575.7581159527
 31
0.0
  0
LINE
  5
213
330
1F
100
AcDbEntity
  8
0
  6
Continuous
 62
     7
370
    25
100
AcDbLine
 10
487.2643599767
 20
575.9989088404
 30
0.0
 11
487.2643599767
 21
575.9990072317
 31
0.0
  0
ELLIPSE
  5
214
330
1F
100
AcDbEntity
  8
0
  6
Continuous
 62
     7
370
    25
100
AcDbEllipse
 10
496.7138463976
 20
576.3285548919
 30
0.0
 11
14.49999327802044
 21
0.8011021232406392
 31
0.0
210
0.0
220
0.0
230
1.0
 40
0.0174284859
 41
1.543516838852407
 42
2.279642175408196
  0
ELLIPSE
  5
215
330
1F
100
AcDbEntity
  8
0
  6
Continuous
 62
     7
370
    25
100
AcDbEllipse
 10
498.0348563132
 20
577.2788384412
 30
0.0
 11
35.70262504606012
 21
1.972514619921867
 31
0.0
210
0.0
220
0.0
230
1.0
 40
0.0174284859
 41
4.685109492442219
 42
5.167309992307905
  0
ELLIPSE
  5
216
330
1F
100
AcDbEntity
  8
0
  6
Continuous
 62
     7
370
    25
100
AcDbEllipse
 10
517.0550837852
 20
577.6512345009
 30
0.0
 11
7.499996523113964
 21
0.4143631671934145
 31
0.0
210
0.0
220
0.0
230
1.0
 40
0.0174284859
 41
1.83482668100797
 42
2.025717338718135
  0
LINE
  5
217
330
1F
100
AcDbEntity
  8
0
  6
Continuous
 62
     7
370
    25
100
AcDbLine
 10
515.1104313842
 20
577.5188900497
 30
0.0
 11
515.0908131268
 21
577.6692805943
 31
0.0
  0
SPLINE
  5
218
330
1F
100
AcDbEntity
  8
0
  6
Continuous
 62
     7
370
    25
100
AcDbSpline
210
0.0
220
0.0
230
1.0
 70
     8
 71
     3
 72
    10
 73
     6
 74
     0
 42
0.00000001
 43
0.00000001
 40
0.0
 40
0.0
 40
0.0
 40
0.0
 40
0.0186368637457406
 40
0.3939469944633167
 40
1.0
 40
1.0
 40
1.0
 40
1.0
 10
515.2942026698952
 20
577.5193764169614
 30
0.0
 10
515.2917464626465
 20
577.5192886664821
 30
0.0
 10
515.2398270261693
 20
577.5174337922892
 30
0.0
 10
515.1358281776917
 20
577.514753810911
 30
0.0
 10
515.1201275203423
 20
577.5173108923086
 30
0.0
 10
515.1104313841988
 20
577.5188900497164
 30
0.0
  0
LINE
  5
219
330
1F
100
AcDbEntity
  8
0
  6
Continuous
 62
     7
370
    25
100
AcDbLine
 10
531.8320867465
 20
578.4327904609
 30
0.0
 11
515.2942026699
 21
577.519376417
 31
0.0
  0
LINE
  5
21A
330
1F
100
AcDbEntity
  8
0
  6
Continuous
 62
     7
370
    25
100
AcDbLine
 10
515.292136938
 20
567.3664436656
 30
0.0
 11
531.8260453614
 21
566.4532492034
 31
0.0
  0
SPLINE
  5
21B
330
1F
100
AcDbEntity
  8
0
  6
Continuous
 62
     7
370
    25
100
AcDbSpline
210
0.0
220
0.0
230
1.0
 70
     8
 71
     3
 72
    11
 73
     7
 74
     0
 42
0.00000001
 43
0.00000001
 40
0.0
 40
0.0
 40
0.0
 40
0.0
 40
0.417746929449536
 40
0.8392770662410924
 40
0.9817832068819766
 40
1.0
 40
1.0
 40
1.0
 40
1.0
 10
515.1084314973269
 20
567.3677931108696
 30
0.0
 10
515.1130685253588
 20
567.3688763020532
 30
0.0
 10
515.1223845753601
 20
567.3710524940363
 30
0.0
 10
515.1978810411102
 20
567.3698503171449
 30
0.0
 10
515.2681412416823
 20
567.3673797898049
 30
0.0
 10
515.28969407834
 20
567.366538966848
 30
0.0
 10
515.29213693797
 20
567.3664436655895
 30
0.0
  0
LINE
  5
21C
330
1F
100
AcDbEntity
  8
0
  6
Continuous
 62
     7
370
    25
100
AcDbLine
 10
515.0908131268
 20
567.2327431371
 30
0.0
 11
515.1084314973
 21
567.3677931109
 31
0.0
  0
ELLIPSE
  5
21D
330
1F
100
AcDbEntity
  8
0
  6
Continuous
 62
     7
370
    25
100
AcDbEllipse
 10
517.0550837852
 20
567.2507892305
 30
0.0
 11
7.499996523113964
 21
-0.4143631671935282
 31
0.0
210
0.0
220
0.0
230
1.0
 40
0.0174284859
 41
4.257467968461774
 42
4.448358626171958
  0
ELLIPSE
  5
21E
330
1F
100
AcDbEntity
  8
0
  6
Continuous
 62
     7
370
    25
100
AcDbEllipse
 10
498.0348563132
 20
567.6231852902
 30
0.0
 11
35.70262504606023
 21
-1.972514619921867
 31
0.0
210
0.0
220
0.0
230
1.0
 40
0.0174284859
 41
1.115875314871907
 42
1.598075814737362
  0
ELLIPSE
  5
21F
330
1F
100
AcDbEntity
  8
0
  6
Continuous
 62
     7
370
    25
100
AcDbEllipse
 10
496.7138463976
 20
568.5734688395
 30
0.0
 11
14.49999327802044
 21
-0.8011021232406392
 31
0.0
210
0.0
220
0.0
230
1.0
 40
0.0174284859
 41
4.003543131771957
 42
4.739668468327168
  0
LINE
  5
220
330
1F
100
AcDbEntity
  8
0
  6
Continuous
 62
     7
370
    25
100
AcDbLine
 10
487.2643599767
 20
568.9030164997
 30
0.0
 11
487.2643599767
 21
568.9031148909
 31
0.0
  0
LINE
  5
221
330
1F
100
AcDbEntity
  8
0
  6
Continuous
 62
     7
370
    25
100
AcDbLine
 10
483.7993967673
 20
569.1439077787
 30
0.0
 11
487.2643599767
 21
568.9030164997
 31
0.0
  0
ELLIPSE
  5
222
330
1F
100
AcDbEntity
  8
0
  6
Continuous
 62
     7
370
    25
100
AcDbEllipse
 10
484.7487453077
 20
569.1117760877
 30
0.0
 11
1.499999304622804
 21
-0.0828726334386829
 31
0.0
210
0.0
220
0.0
230
1.0
 40
0.0174284859
 41
3.125102257569404
 42
4.028059990483511
  0
LINE
  5
223
330
1F
100
AcDbEntity
  8
0
  6
Continuous
 62
     7
370
    25
100
AcDbLine
 10
483.2536641256
 20
569.1995069908
 30
0.0
 11
483.2489737649
 21
569.1950685377
 31
0.0
  0
LINE
  5
224
330
1F
100
AcDbEntity
  8
0
  6
Continuous
 62
     7
370
    25
100
AcDbLine
 10
531.8260453614
 20
566.4532492034
 30
0.0
 11
531.8590729282
 21
566.5405235458
 31
0.0
  0
SPLINE
  5
225
330
1F
100
AcDbEntity
  8
0
  6
Continuous
 62
     7
370
    25
100
AcDbSpline
210
0.0
220
0.0
230
1.0
 70
     8
 71
     3
 72
     9
 73
     5
 74
     0
 42
0.00000001
 43
0.00000001
 40
0.0
 40
0.0
 40
0.0
 40
0.0
 40
0.5001021276704715
 40
0.9999999999999999
 40
0.9999999999999999
 40
0.9999999999999999
 40
0.9999999999999999
 10
534.6519851752821
 20
579.4989044469594
 30
0.0
 10
534.2230373995748
 20
579.212378812871
 30
0.0
 10
533.3653170421242
 20
578.639444569573
 30
0.0
 10
532.343093913509
 20
578.5016657831189
 30
0.0
 10
531.8320867464685
 20
578.4327904609183
 30
0.0
  0
LINE
  5
226
330
1F
100
AcDbEntity
  8
0
  6
Continuous
 62
     7
370
    25
100
AcDbLine
 10
534.6519851753
 20
579.498904447
 30
0.0
 11
534.6852040413
 21
579.433213
 31
0.0
  0
SPLINE
  5
227
330
1F
100
AcDbEntity
  8
0
  6
Continuous
 62
     7
370
    25
100
AcDbSpline
210
0.0
220
0.0
230
1.0
 70
     8
 71
     3
 72
     9
 73
     5
 74
     0
 42
0.00000001
 43
0.00000001
 40
0.0
 40
0.0
 40
0.0
 40
0.0
 40
0.4007227371565292
 40
1.0
 40
1.0
 40
1.0
 40
1.0
 10
531.8260453614167
 20
566.4532492033749
 30
0.0
 10
532.234731484826
 20
566.4048419413092
 30
0.0
 10
533.2546040438658
 20
566.2840420525654
 30
0.0
 10
534.1236800876917
 20
565.7239347792118
 30
0.0
 10
534.6444976004385
 20
565.3882752255377
 30
0.0
  0
LINE
  5
228
330
1F
100
AcDbEntity
  8
0
  6
Continuous
 62
     7
370
    25
100
AcDbLine
 10
534.6852040413
 20
565.4688107314
 30
0.0
 11
534.6444976004
 21
565.3882752255
 31
0.0
  0
ARC
  5
229
330
1F
100
AcDbEntity
  8
0
  6
Continuous
 62
     7
370
    25
100
AcDbCircle
 10
540.2098307551
 20
572.4510118657
 30
0.0
 40
8.975658044222143
100
AcDbArc
 50
65.1648853947
 51
128.2586979829
  0
LWPOLYLINE
  5
22A
330
1F
100
AcDbEntity
  8
0
  6
Continuous
 62
     7
370
    25
100
AcDbPolyline
 90
        3
 70
   128
 43
0.0
 10
544.1451441794
 20
580.701671589
 10
544.0405626153
 20
580.6354191777
 10
543.9796820725
 20
580.5966032114
  0
ARC
  5
22B
330
1F
100
AcDbEntity
  8
0
  6
Continuous
 62
     7
370
    25
100
AcDbCircle
 10
540.2098307551
 20
572.4510118657
 30
0.0
 40
9.141120151092158
100
AcDbArc
 50
295.4997164176
 51
64.5002794289
  0
LWPOLYLINE
  5
22C
330
1F
100
AcDbEntity
  8
0
  6
Continuous
 62
     7
370
    25
100
AcDbPolyline
 90
        3
 70
   128
 43
0.0
 10
543.995974983
 20
564.2950144492
 10
544.0405626153
 20
564.2666045536
 10
544.1451441797
 20
564.2003521422
  0
ARC
  5
22D
330
1F
100
AcDbEntity
  8
0
  6
Continuous
 62
     7
370
    25
100
AcDbCircle
 10
540.2098307551
 20
572.4510118657
 30
0.0
 40
8.99195095466071
100
AcDbArc
 50
231.762407147
 51
294.9014811666
  0
LINE
  5
22E
330
1F
100
AcDbEntity
  8
0
  6
Continuous
 62
     7
370
    25
100
AcDbLine
 10
482.7766194999
 20
569.6942316088
 30
0.0
 11
482.7813098605
 21
569.6986700618
 31
0.0
  0
LINE
  5
22F
330
1F
100
AcDbEntity
  8
0
  6
Continuous
 62
     7
370
    25
100
AcDbLine
 10
482.7766194999
 20
575.2077921226
 30
0.0
 11
482.7766194999
 21
569.6942316088
 31
0.0
  0
LINE
  5
230
330
1F
100
AcDbEntity
  8
0
  6
Continuous
 62
     7
370
    25
100
AcDbLine
 10
482.7813098605
 20
575.2033536695
 30
0.0
 11
482.7766194999
 21
575.2077921226
 31
0.0
  0
ARC
  5
231
330
1F
100
AcDbEntity
  8
0
  6
Continuous
 62
     7
370
    25
100
AcDbCircle
 10
483.2767193875
 20
569.6943981941
 30
0.0
 40
0.5000999153469134
100
AcDbArc
 50
180.0190854617
 51
266.8195880753
  0
ARC
  5
232
330
1F
100
AcDbEntity
  8
0
  6
Continuous
 62
     7
370
    25
100
AcDbCircle
 10
483.2767193875
 20
575.2076255372
 30
0.0
 40
0.500099915347084
100
AcDbArc
 50
93.1804119248
 51
179.9809145383
  0
LINE
  5
233
330
1F
100
AcDbEntity
  8
0
  6
Continuous
 62
     7
370
    25
100
AcDbLine
 10
483.7993967673
 20
569.1439077787
 30
0.0
 11
483.7922890365
 21
569.1442748153
 31
0.0
  0
LINE
  5
234
330
1F
100
AcDbEntity
  8
0
  6
Continuous
 62
     7
370
    25
100
AcDbLine
 10
483.7993967673
 20
575.7581159527
 30
0.0
 11
483.7922890365
 21
575.757748916
 31
0.0
  0
SPLINE
  5
235
330
1F
100
AcDbEntity
  8
0
  6
Continuous
 62
     7
370
    25
100
AcDbSpline
210
0.0
220
0.0
230
1.0
 70
     8
 71
     3
 72
    11
 73
     7
 74
     0
 42
0.00000001
 43
0.00000001
 40
0.0
 40
0.0
 40
0.0
 40
0.0
 40
0.1345990676765949
 40
0.4126978815969498
 40
0.6969472592954598
 40
1.0
 40
1.0
 40
1.0
 40
1.0
 10
543.9804606789729
 20
580.5974098285067
 30
0.0
 10
543.5511546587245
 20
580.7882937136678
 30
0.0
 10
542.2348477320004
 20
581.3735680130876
 30
0.0
 10
539.8590376811171
 20
581.9960358971113
 30
0.0
 10
536.805348296236
 20
582.3725385796116
 30
0.0
 10
534.6143183878753
 20
582.3996799079443
 30
0.0
 10
533.4837288703374
 20
582.4136850573894
 30
0.0
  0
ARC
  5
236
330
1F
100
AcDbEntity
  8
0
  6
Continuous
 62
     7
370
    25
100
AcDbCircle
 10
537.9762598633
 20
581.7938610128
 30
0.0
 40
4.535087272519783
100
AcDbArc
 50
149.0284626407
 51
172.1446266983
  0
SPLINE
  5
237
330
1F
100
AcDbEntity
  8
0
  6
Continuous
 62
     7
370
    25
100
AcDbSpline
210
0.0
220
0.0
230
1.0
 70
     8
 71
     3
 72
    12
 73
     8
 74
     0
 42
0.00000001
 43
0.00000001
 40
0.0
 40
0.0
 40
0.0
 40
0.0
 40
0.1662426524176543
 40
0.3368059756191302
 40
0.6054181071254584
 40
0.8801435087136191
 40
1.0
 40
1.0
 40
1.0
 40
1.0
 10
534.0877715078384
 20
584.1276722473573
 30
0.0
 10
534.7254530283744
 20
583.9721870718743
 30
0.0
 10
536.0173895051751
 20
583.657175638519
 30
0.0
 10
538.2015758875245
 20
582.9942105335206
 30
0.0
 10
540.5635502310843
 20
582.1420156167151
 30
0.0
 10
542.5290877929768
 20
581.299386938103
 30
0.0
 10
543.6428627777724
 20
580.7615288454078
 30
0.0
 10
543.98117825593
 20
580.5981513945806
 30
0.0
  0
LINE
  5
238
330
1F
100
AcDbEntity
  8
0
  6
Continuous
 62
     7
370
    25
100
AcDbLine
 10
543.9811782559
 20
580.5981513946
 30
0.0
 11
543.980460679
 21
580.5974098285
 31
0.0
  0
LINE
  5
239
330
1F
100
AcDbEntity
  8
0
  6
Continuous
 62
     7
370
    25
100
AcDbLine
 10
534.0877715078
 20
584.1276722474
 30
0.0
 11
534.1036295848
 21
584.1971457789
 31
0.0
  0
ARC
  5
23A
330
1F
100
AcDbEntity
  8
0
  6
Continuous
 62
     7
370
    25
100
AcDbCircle
 10
523.3818513483
 20
537.2255109667
 30
0.0
 40
48.17977797259062
100
AcDbArc
 50
64.4718479123
 51
77.1419190681
  0
LWPOLYLINE
  5
23B
330
1F
100
AcDbEntity
  8
0
  6
Continuous
 62
     7
370
    25
100
AcDbPolyline
 90
        3
 70
   128
 43
0.0
 10
543.9811782559
 20
580.5981513946
 10
544.0405661063
 20
580.6356750981
 10
544.1451441791
 20
580.701673128
  0
LINE
  5
23C
330
1F
100
AcDbEntity
  8
0
  6
Continuous
 62
     7
370
    25
100
AcDbLine
 10
534.6519851753
 20
579.498904447
 30
0.0
 11
532.4541132551
 21
582.2860213213
 31
0.0
  0
ARC
  5
23D
330
1F
100
AcDbEntity
  8
0
  6
Continuous
 62
     7
370
    25
100
AcDbCircle
 10
540.2098307551
 20
572.4510118657
 30
0.0
 40
12.52511736202731
100
AcDbArc
 50
127.8583068702
 51
128.2586979829
  0
LINE
  5
23E
330
1F
100
AcDbEntity
  8
0
  6
Continuous
 62
     7
370
    25
100
AcDbLine
 10
533.4837288703
 20
582.4136850574
 30
0.0
 11
532.5230305215
 21
582.3399788036
 31
0.0
  0
LINE
  5
23F
330
1F
100
AcDbEntity
  8
0
  6
Continuous
 62
     7
370
    25
100
AcDbLine
 10
543.9796820725
 20
580.5966032114
 30
0.0
 11
543.980460679
 21
580.5974098285
 31
0.0
  0
LINE
  5
240
330
1F
100
AcDbEntity
  8
0
  6
Continuous
 62
     7
370
    25
100
AcDbLine
 10
529.5362601947
 20
581.8608573167
 30
0.0
 11
531.6363427108
 21
581.9768482654
 31
0.0
  0
LINE
  5
241
330
1F
100
AcDbEntity
  8
0
  6
Continuous
 62
     7
370
    25
100
AcDbLine
 10
531.8320867465
 20
578.4327904609
 30
0.0
 11
531.6363427108
 21
581.9768482654
 31
0.0
  0
SPLINE
  5
242
330
1F
100
AcDbEntity
  8
0
  6
Continuous
 62
     7
370
    25
100
AcDbSpline
210
0.0
220
0.0
230
1.0
 70
     8
 71
     3
 72
    16
 73
    12
 74
     0
 42
0.00000001
 43
0.00000001
 40
0.0
 40
0.0
 40
0.0
 40
0.0
 40
0.2861254310575659
 40
0.7591203623085424
 40
0.8520758313858446
 40
0.9266344548631261
 40
0.9604862301433726
 40
0.9835335436569237
 40
0.9930756629548353
 40
0.997224229202362
 40
1.0
 40
1.0
 40
1.0
 40
1.0
 10
528.0955918325893
 20
581.3367136346715
 30
0.0
 10
526.8674449954657
 20
580.8066463253194
 30
0.0
 10
523.6090444103813
 20
579.4003229291922
 30
0.0
 10
519.8114629557742
 20
578.3825109263079
 30
0.0
 10
517.0138013058696
 20
577.8205907085363
 30
0.0
 10
516.1486683669752
 20
577.6660881926433
 30
0.0
 10
515.623082198241
 20
577.577567526813
 30
0.0
 10
515.389419939527
 20
577.5384581431642
 30
0.0
 10
515.3117697923661
 20
577.5241381741947
 30
0.0
 10
515.2956881373311
 20
577.5204044355718
 30
0.0
 10
515.2946277494094
 20
577.5196705934886
 30
0.0
 10
515.2942026698952
 20
577.5193764169614
 30
0.0
  0
LINE
  5
243
330
1F
100
AcDbEntity
  8
0
  6
Continuous
 62
     7
370
    25
100
AcDbLine
 10
529.5362601947
 20
581.8608573167
 30
0.0
 11
528.0955918326
 21
581.3367136347
 31
0.0
  0
ARC
  5
244
330
1F
100
AcDbEntity
  8
0
  6
Continuous
 62
     7
370
    25
100
AcDbCircle
 10
522.2921590415
 20
577.7276112538
 30
0.0
 40
6.834138728210252
100
AcDbArc
 50
31.8771071303
 51
46.9488007428
  0
SPLINE
  5
245
330
1F
100
AcDbEntity
  8
0
  6
Continuous
 62
     7
370
    25
100
AcDbSpline
210
0.0
220
0.0
230
1.0
 70
     8
 71
     3
 72
    10
 73
     6
 74
     0
 42
0.00000001
 43
0.00000001
 40
0.0
 40
0.0
 40
0.0
 40
0.0
 40
0.5975855365574454
 40
0.9790563563181981
 40
1.0
 40
1.0
 40
1.0
 40
1.0
 10
515.1841773502075
 20
577.5285033143008
 30
0.0
 10
515.1816582108542
 20
577.5247640165745
 30
0.0
 10
515.1775309700736
 20
577.518637725051
 30
0.0
 10
515.2519020966288
 20
577.5182611661944
 30
0.0
 10
515.2921100487333
 20
577.5193212451949
 30
0.0
 10
515.2942026698952
 20
577.5193764169614
 30
0.0
  0
SPLINE
  5
246
330
1F
100
AcDbEntity
  8
0
  6
Continuous
 62
     7
370
    25
100
AcDbSpline
210
0.0
220
0.0
230
1.0
 70
     8
 71
     3
 72
    14
 73
    10
 74
     0
 42
0.00000001
 43
0.00000001
 40
0.0
 40
0.0
 40
0.0
 40
0.0
 40
0.0129036569231464
 40
0.0519665716781148
 40
0.1318891824261205
 40
0.2280032005552168
 40
0.4679440229400844
 40
0.7079115564493632
 40
1.0
 40
1.0
 40
1.0
 40
1.0
 10
515.1841773502075
 20
577.5285033143008
 30
0.0
 10
515.2176459266718
 20
577.5363482883621
 30
0.0
 10
515.3524330795045
 20
577.5679421542947
 30
0.0
 10
515.791706524497
 20
577.6703242015885
 30
0.0
 10
516.6031339427228
 20
577.8727257104055
 30
0.0
 10
518.2566111245436
 20
578.3397763911717
 30
0.0
 10
520.6009011967873
 20
579.1772334505621
 30
0.0
 10
523.7459953732844
 20
580.6221736909123
 30
0.0
 10
525.8192940474769
 20
581.9775445737071
 30
0.0
 10
526.957494930224
 20
582.7216169808568
 30
0.0
  0
LWPOLYLINE
  5
247
330
1F
100
AcDbEntity
  8
0
  6
Continuous
 62
     7
370
    25
100
AcDbPolyline
 90
        4
 70
   128
 43
0.0
 10
515.1646505361
 20
577.6795988906
 10
515.1668951718
 20
577.6622407437
 10
515.1758702058
 20
577.5928079975
 10
515.1841773502
 20
577.5285033143
  0
LINE
  5
248
330
1F
100
AcDbEntity
  8
0
  6
Continuous
 62
     7
370
    25
100
AcDbLine
 10
516.9527748199
 20
578.1091263939
 30
0.0
 11
515.1646505361
 21
577.6795988906
 31
0.0
  0
ARC
  5
249
330
1F
100
AcDbEntity
  8
0
  6
Continuous
 62
     7
370
    25
100
AcDbCircle
 10
508.7672164214
 20
608.5348199877
 30
0.0
 40
31.50755777528338
100
AcDbArc
 50
285.0579972479
 51
305.1719294169
  0
LINE
  5
24A
330
1F
100
AcDbEntity
  8
0
  6
Continuous
 62
     7
370
    25
100
AcDbLine
 10
526.9574949302
 20
582.7216169809
 30
0.0
 11
526.916575044
 21
582.7796849939
 31
0.0
  0
SPLINE
  5
24B
330
1F
100
AcDbEntity
  8
0
  6
Continuous
 62
     7
370
    25
100
AcDbSpline
210
0.0
220
0.0
230
1.0
 70
     8
 71
     3
 72
     9
 73
     5
 74
     0
 42
0.00000001
 43
0.00000001
 40
0.0
 40
0.0
 40
0.0
 40
0.0
 40
0.4998978730609696
 40
0.9999999999999999
 40
0.9999999999999999
 40
0.9999999999999999
 40
0.9999999999999999
 10
531.6363427107631
 20
581.9768482653623
 30
0.0
 10
531.7845376266589
 20
581.9968146033646
 30
0.0
 10
532.0809880095909
 20
582.0367554374392
 30
0.0
 10
532.3297212383675
 20
582.2029213800097
 30
0.0
 10
532.4541132551192
 20
582.2860213213141
 30
0.0
  0
ARC
  5
24C
330
1F
100
AcDbEntity
  8
0
  6
Continuous
 62
     7
370
    25
100
AcDbCircle
 10
515.0828420353
 20
578.0182047541
 30
0.0
 40
0.5000763404040395
100
AcDbArc
 50
273.1626296402
 51
281.6913635615
  0
SPLINE
  5
24D
330
1F
100
AcDbEntity
  8
0
  6
Continuous
 62
     7
370
    25
100
AcDbSpline
210
0.0
220
0.0
230
1.0
 70
     8
 71
     3
 72
    12
 73
     8
 74
     0
 42
0.00000001
 43
0.00000001
 40
0.0
 40
0.0
 40
0.0
 40
0.0
 40
0.046072672532115
 40
0.2494576442748309
 40
0.4755636088397375
 40
0.7057929889265029
 40
1.0
 40
1.0
 40
1.0
 40
1.0
 10
543.9972092296201
 20
564.2937401055839
 30
0.0
 10
543.8688738204447
 20
564.2312354062445
 30
0.0
 10
543.1740096614875
 20
563.8928075661313
 30
0.0
 10
541.8212106919653
 20
563.2772241499907
 30
0.0
 10
539.8133420478838
 20
562.4697648447362
 30
0.0
 10
537.3180702328782
 20
561.5966447272083
 30
0.0
 10
535.3791240447435
 20
561.0992950875653
 30
0.0
 10
534.2913819043071
 20
560.8202836508988
 30
0.0
  0
LINE
  5
24E
330
1F
100
AcDbEntity
  8
0
  6
Continuous
 62
     7
370
    25
100
AcDbLine
 10
533.8379218264
 20
562.7678861801
 30
0.0
 11
534.2913819043
 21
560.8202836509
 31
0.0
  0
SPLINE
  5
24F
330
1F
100
AcDbEntity
  8
0
  6
Continuous
 62
     7
370
    25
100
AcDbSpline
210
0.0
220
0.0
230
1.0
 70
     8
 71
     3
 72
    13
 73
     9
 74
     0
 42
0.00000001
 43
0.00000001
 40
0.0
 40
0.0
 40
0.0
 40
0.0
 40
0.2574896950994369
 40
0.4890886589321034
 40
0.7206004760683484
 40
0.9447506334961274
 40
0.9460032291293298
 40
0.9999999999999999
 40
0.9999999999999999
 40
0.9999999999999999
 40
0.9999999999999999
 10
533.83792182642
 20
562.7678861801128
 30
0.0
 10
534.7566474024079
 20
562.7398232159981
 30
0.0
 10
536.501720189546
 20
562.6865190343326
 30
0.0
 10
538.9962854354593
 20
562.8510831531706
 30
0.0
 10
541.3119352414609
 20
563.2644571481809
 30
0.0
 10
542.7890438430629
 20
563.764014334744
 30
0.0
 10
543.6603052876053
 20
564.1382571896742
 30
0.0
 10
543.830351696428
 20
564.2172376081593
 30
0.0
 10
543.9965428684832
 20
564.294427408334
 30
0.0
  0
LINE
  5
250
330
1F
100
AcDbEntity
  8
0
  6
Continuous
 62
     7
370
    25
100
AcDbLine
 10
543.9965428685
 20
564.2944274083
 30
0.0
 11
543.9972092296
 21
564.2937401056
 31
0.0
  0
ARC
  5
251
330
1F
100
AcDbEntity
  8
0
  6
Continuous
 62
     7
370
    25
100
AcDbCircle
 10
523.3818513483
 20
607.6765127647
 30
0.0
 40
48.10950076354645
100
AcDbArc
 50
282.8580809319
 51
283.1066633214
  0
LWPOLYLINE
  5
252
330
1F
100
AcDbEntity
  8
0
  6
Continuous
 62
     7
370
    25
100
AcDbPolyline
 90
        3
 70
   128
 43
0.0
 10
543.9972092296
 20
564.2937401056
 10
544.0405661063
 20
564.2663486332
 10
544.1451441794
 20
564.2003506031
  0
ARC
  5
253
330
1F
100
AcDbEntity
  8
0
  6
Continuous
 62
     7
370
    25
100
AcDbCircle
 10
523.3818513483
 20
607.6765127647
 30
0.0
 40
48.17977797259062
100
AcDbArc
 50
282.8580809319
 51
295.5281512988
  0
LINE
  5
254
330
1F
100
AcDbEntity
  8
0
  6
Continuous
 62
     7
370
    25
100
AcDbLine
 10
534.0879903128
 20
560.7733929091
 30
0.0
 11
534.1036295848
 21
560.7048779524
 31
0.0
  0
LINE
  5
255
330
1F
100
AcDbEntity
  8
0
  6
Continuous
 62
     7
370
    25
100
AcDbLine
 10
531.8260453614
 20
566.4532492034
 30
0.0
 11
531.6826835324
 21
563.8576012339
 31
0.0
  0
LINE
  5
256
330
1F
100
AcDbEntity
  8
0
  6
Continuous
 62
     7
370
    25
100
AcDbLine
 10
531.6826835324
 20
563.8576012339
 30
0.0
 11
527.7326025106
 21
564.0757705876
 31
0.0
  0
SPLINE
  5
257
330
1F
100
AcDbEntity
  8
0
  6
Continuous
 62
     7
370
    25
100
AcDbSpline
210
0.0
220
0.0
230
1.0
 70
     8
 71
     3
 72
    17
 73
    13
 74
     0
 42
0.00000001
 43
0.00000001
 40
0.0
 40
0.0
 40
0.0
 40
0.0
 40
0.0068263121770683
 40
0.008844850729726
 40
0.0223990310416126
 40
0.0309593028397538
 40
0.0563218912149133
 40
0.1198824177066675
 40
0.1957460556357056
 40
0.555862194488003
 40
0.77803360979772
 40
0.9999999999999999
 40
0.9999999999999999
 40
0.9999999999999999
 40
0.9999999999999999
 10
515.29213693797
 20
567.3664436655895
 30
0.0
 10
515.2957570831314
 20
567.3654054825444
 30
0.0
 10
515.300447704179
 20
567.3640603090706
 30
0.0
 10
515.3439804168825
 20
567.3564703209958
 30
0.0
 10
515.4185123393147
 20
567.3447188141892
 30
0.0
 10
515.5853445848168
 20
567.3189999189659
 30
0.0
 10
515.9669207018841
 20
567.2604853399438
 30
0.0
 10
516.6498216686183
 20
567.1512883553565
 30
0.0
 10
518.7548209855362
 20
566.7841161229325
 30
0.0
 10
521.5677555673221
 20
566.1499384389672
 30
0.0
 10
524.9665397818889
 20
565.1369981471086
 30
0.0
 10
526.8108653966526
 20
564.429404226422
 30
0.0
 10
527.7326025106432
 20
564.0757705875949
 30
0.0
  0
LINE
  5
258
330
1F
100
AcDbEntity
  8
0
  6
Continuous
 62
     7
370
    25
100
AcDbLine
 10
527.7326025106
 20
564.0757705876
 30
0.0
 11
526.6031270932
 21
562.425598798
 31
0.0
  0
SPLINE
  5
259
330
1F
100
AcDbEntity
  8
0
  6
Continuous
 62
     7
370
    25
100
AcDbSpline
210
0.0
220
0.0
230
1.0
 70
     8
 71
     3
 72
    14
 73
    10
 74
     0
 42
0.00000001
 43
0.00000001
 40
0.0
 40
0.0
 40
0.0
 40
0.0
 40
0.2256458607195977
 40
0.4518169308148962
 40
0.8157761447763432
 40
0.8946140573305367
 40
0.9637846180221649
 40
0.9940799143125669
 40
1.0
 40
1.0
 40
1.0
 40
1.0
 10
526.6031270931512
 20
562.425598797956
 30
0.0
 10
525.7573795460802
 20
562.9706225204573
 30
0.0
 10
524.0639159046763
 20
564.0619385531844
 30
0.0
 10
520.8836938046239
 20
565.6273796379866
 30
0.0
 10
518.2124157414573
 20
566.5807584722224
 30
0.0
 10
516.2618872542064
 20
567.1022066183515
 30
0.0
 10
515.6178107437645
 20
567.2575872929937
 30
0.0
 10
515.2898598475379
 20
567.3331373538382
 30
0.0
 10
515.1973225149391
 20
567.3546581279833
 30
0.0
 10
515.1821955465529
 20
567.3581761034965
 30
0.0
  0
SPLINE
  5
25A
330
1F
100
AcDbEntity
  8
0
  6
Continuous
 62
     7
370
    25
100
AcDbSpline
210
0.0
220
0.0
230
1.0
 70
     8
 71
     3
 72
    11
 73
     7
 74
     0
 42
0.00000001
 43
0.00000001
 40
0.0
 40
0.0
 40
0.0
 40
0.0
 40
0.0195561212295929
 40
0.1681891996744423
 40
0.5898876540792745
 40
1.0
 40
1.0
 40
1.0
 40
1.0
 10
515.29213693797
 20
567.3664436655895
 30
0.0
 10
515.2901782248218
 20
567.3665017793053
 30
0.0
 10
515.2733326349992
 20
567.3670015767459
 30
0.0
 10
515.22143207124
 20
567.3678479941594
 30
0.0
 10
515.1721474391744
 20
567.3657586956374
 30
0.0
 10
515.1788774242508
 20
567.3606800544538
 30
0.0
 10
515.1821955465529
 20
567.3581761034965
 30
0.0
  0
LINE
  5
25B
330
1F
100
AcDbEntity
  8
0
  6
Continuous
 62
     7
370
    25
100
AcDbLine
 10
534.6444976004
 20
565.3882752255
 30
0.0
 11
533.0355406072
 21
563.3464137246
 31
0.0
  0
LINE
  5
25C
330
1F
100
AcDbEntity
  8
0
  6
Continuous
 62
     7
370
    25
100
AcDbLine
 10
543.9965428685
 20
564.2944274083
 30
0.0
 11
543.995974983
 21
564.2950144492
 31
0.0
  0
ARC
  5
25D
330
1F
100
AcDbEntity
  8
0
  6
Continuous
 62
     7
370
    25
100
AcDbCircle
 10
540.2098307551
 20
572.4510118657
 30
0.0
 40
11.59155496206734
100
AcDbArc
 50
231.762407147
 51
236.6533814372
  0
LWPOLYLINE
  5
25E
330
1F
100
AcDbEntity
  8
0
  6
Continuous
 62
     7
370
    25
100
AcDbPolyline
 90
        4
 70
   128
 43
0.0
 10
515.1821955466
 20
567.3581761035
 10
515.1799533002
 20
567.3408178485
 10
515.1709808174
 20
567.2713849869
 10
515.1646505361
 20
567.2224248408
  0
ARC
  5
25F
330
1F
100
AcDbEntity
  8
0
  6
Continuous
 62
     7
370
    25
100
AcDbCircle
 10
508.7672164214
 20
536.3672037437
 30
0.0
 40
31.57783498432764
100
AcDbArc
 50
54.8280705831
 51
55.6099480104
  0
LINE
  5
260
330
1F
100
AcDbEntity
  8
0
  6
Continuous
 62
     7
370
    25
100
AcDbLine
 10
526.9570569588
 20
562.1797852403
 30
0.0
 11
526.916575044
 21
562.1223387375
 31
0.0
  0
ARC
  5
261
330
1F
100
AcDbEntity
  8
0
  6
Continuous
 62
     7
370
    25
100
AcDbCircle
 10
508.7672164214
 20
536.3672037437
 30
0.0
 40
31.50755777528346
100
AcDbArc
 50
54.8280705831
 51
74.9420027521
  0
LINE
  5
262
330
1F
100
AcDbEntity
  8
0
  6
Continuous
 62
     7
370
    25
100
AcDbLine
 10
515.1646505361
 20
567.2224248408
 30
0.0
 11
516.9527748199
 21
566.7928973375
 31
0.0
  0
LINE
  5
263
330
1F
100
AcDbEntity
  8
0
  6
Continuous
 62
     7
370
    25
100
AcDbLine
 10
515.0908131268
 20
577.6692805943
 30
0.0
 11
515.1646505361
 21
577.6795988906
 31
0.0
  0
SPLINE
  5
264
330
1F
100
AcDbEntity
  8
0
  6
Continuous
 62
     7
370
    25
100
AcDbSpline
210
0.0
220
0.0
230
1.0
 70
     8
 71
     3
 72
    10
 73
     6
 74
     0
 42
0.00000001
 43
0.00000001
 40
0.0
 40
0.0
 40
0.0
 40
0.0
 40
0.0490769085761621
 40
0.5995805843665267
 40
1.0
 40
1.0
 40
1.0
 40
1.0
 10
533.0355406071801
 20
563.3464137245614
 30
0.0
 10
533.016593068811
 20
563.3610364601627
 30
0.0
 10
532.7851079069043
 20
563.539684802352
 30
0.0
 10
532.3392341320872
 20
563.7737367957732
 30
0.0
 10
531.8772275552027
 20
563.8327511687908
 30
0.0
 10
531.6826835324491
 20
563.857601233923
 30
0.0
  0
ARC
  5
265
330
1F
100
AcDbEntity
  8
0
  6
Continuous
 62
     7
370
    25
100
AcDbCircle
 10
515.0808421456
 20
566.8684784065
 30
0.0
 40
0.5000763405227193
100
AcDbArc
 50
78.306520338
 51
86.8373700344
  0
SPLINE
  5
266
330
1F
100
AcDbEntity
  8
0
  6
Continuous
 62
     7
370
    25
100
AcDbSpline
210
0.0
220
0.0
230
1.0
 70
     8
 71
     3
 72
     9
 73
     5
 74
     0
 42
0.00000001
 43
0.00000001
 40
0.0
 40
0.0
 40
0.0
 40
0.0
 40
0.8458911907784387
 40
0.9999999999999999
 40
0.9999999999999999
 40
0.9999999999999999
 40
0.9999999999999999
 10
515.1646505361424
 20
567.2224248408102
 30
0.0
 10
515.1438099400312
 20
567.2262396478026
 30
0.0
 10
515.1191724968965
 20
567.2307494559599
 30
0.0
 10
515.0945999697202
 20
567.2324769197108
 30
0.0
 10
515.0908131268175
 20
567.2327431370925
 30
0.0
  0
LINE
  5
267
330
1F
100
AcDbEntity
  8
0
  6
Continuous
 62
     7
370
    25
100
AcDbLine
 10
497.0953929292
 20
568.2989989904
 30
0.0
 11
497.095850949
 21
568.2989739039
 31
0.0
  0
LINE
  5
268
330
1F
100
AcDbEntity
  8
0
  6
Continuous
 62
     7
370
    25
100
AcDbLine
 10
526.9574949302
 20
582.7216169809
 30
0.0
 11
528.7962357795
 21
583.7185832165
 31
0.0
  0
LINE
  5
269
330
1F
100
AcDbEntity
  8
0
  6
Continuous
 62
     7
370
    25
100
AcDbLine
 10
529.5362601947
 20
581.8608573167
 30
0.0
 11
528.7962357795
 21
583.7185832165
 31
0.0
  0
LINE
  5
26A
330
1F
100
AcDbEntity
  8
0
  6
Continuous
 62
     7
370
    25
100
AcDbLine
 10
532.5230305215
 20
582.3399788036
 30
0.0
 11
532.6448642681
 21
584.3359593126
 31
0.0
  0
LINE
  5
26B
330
1F
100
AcDbEntity
  8
0
  6
Continuous
 62
     7
370
    25
100
AcDbLine
 10
532.6448642681
 20
584.3359593126
 30
0.0
 11
534.0877715078
 21
584.1276722474
 31
0.0
  0
ARC
  5
26C
330
1F
100
AcDbEntity
  8
0
  6
Continuous
 62
     7
370
    25
100
AcDbCircle
 10
532.1008155499
 20
575.4229063415
 30
0.0
 40
6.929946387144418
100
AcDbArc
 50
86.5070253286
 51
111.7198462835
  0
ARC
  5
26D
330
1F
100
AcDbEntity
  8
0
  6
Continuous
 62
     7
370
    25
100
AcDbCircle
 10
532.1008155499
 20
575.4229063415
 30
0.0
 40
8.929641777457107
100
AcDbArc
 50
86.5070253286
 51
111.7198462835
  0
ARC
  5
26E
330
1F
100
AcDbEntity
  8
0
  6
Continuous
 62
     7
370
    25
100
AcDbCircle
 10
532.1008155499
 20
569.4791173899
 30
0.0
 40
6.92994638714431
100
AcDbArc
 50
234.8280705831
 51
282.8580809319
  0
LINE
  5
26F
330
1F
100
AcDbEntity
  8
0
  6
Continuous
 62
     7
370
    25
100
AcDbLine
 10
533.6429843079
 20
562.7229444754
 30
0.0
 11
534.0879903128
 21
560.7733929091
 31
0.0
  0
ARC
  5
270
330
1F
100
AcDbEntity
  8
0
  6
Continuous
 62
     7
370
    25
100
AcDbCircle
 10
532.1008155499
 20
569.4791173899
 30
0.0
 40
8.929641777457046
100
AcDbArc
 50
234.8280705831
 51
282.8580809319
  0
LINE
  5
271
330
1F
100
AcDbEntity
  8
0
  6
Continuous
 62
     7
370
    25
100
AcDbLine
 10
528.10894531
 20
563.8143906607
 30
0.0
 11
526.9570569588
 21
562.1797852403
 31
0.0
  0
ARC
  5
272
330
1F
100
AcDbEntity
  8
0
  6
Continuous
 62
     7
370
    25
100
AcDbCircle
 10
508.7672164214
 20
536.3672037437
 30
0.0
 40
33.5775303746404
100
AcDbArc
 50
54.8280705831
 51
55.6099480104
  0
ARC
  5
273
330
1F
100
AcDbEntity
  8
0
  6
Continuous
 62
     7
370
    25
100
AcDbCircle
 10
523.3818513483
 20
607.6765127647
 30
0.0
 40
46.10980537323368
100
AcDbArc
 50
282.8580809319
 51
283.1066633214
  0
ARC
  5
274
330
1F
100
AcDbEntity
  8
0
  6
Continuous
 62
     7
370
    25
100
AcDbCircle
 10
532.1008155499
 20
575.4229063415
 30
0.0
 40
8.999918986501363
100
AcDbArc
 50
77.1419190681
 51
125.1719294169
  0
ARC
  5
275
330
1F
100
AcDbEntity
  8
0
  6
Continuous
 62
     7
370
    25
100
AcDbCircle
 10
532.1008155499
 20
569.4791173899
 30
0.0
 40
8.999918986501244
100
AcDbArc
 50
234.8280705831
 51
282.8580809319
  0
SPLINE
  5
276
330
1F
100
AcDbEntity
  8
0
  6
Continuous
 62
     7
370
    25
100
AcDbSpline
210
0.0
220
0.0
230
1.0
 70
    24
 71
     3
 72
    10
 73
     6
 74
     0
 42
0.00000001
 43
0.00000001
 40
0.0
 40
0.0
 40
0.0
 40
0.0
 40
0.1053768308745374
 40
0.5444843642004865
 40
1.0
 40
1.0
 40
1.0
 40
1.0
 10
540.8475172718682
 20
581.9446777400763
 30
0.0
 10
541.0071299381136
 20
581.9248912937244
 30
0.0
 10
541.8318520366788
 20
581.8226542974866
 30
0.0
 10
543.3711126362699
 20
581.6318392576043
 30
0.0
 10
544.6679578395801
 20
581.4710753367605
 30
0.0
 10
545.3282730289317
 20
581.3892191070717
 30
0.0
  0
ARC
  5
277
330
1F
100
AcDbEntity
  8
0
  6
Continuous
 62
     7
370
    25
100
AcDbCircle
 10
540.2098307551
 20
572.4510118657
 30
0.0
 40
10.30000000000003
100
AcDbArc
 50
45.6642188199
 51
60.2024969667
  0
SPLINE
  5
278
330
1F
100
AcDbEntity
  8
0
  6
Continuous
 62
     7
370
    25
100
AcDbSpline
210
0.0
220
0.0
230
1.0
 70
    24
 71
     3
 72
    11
 73
     7
 74
     0
 42
0.00000001
 43
0.00000001
 40
0.0
 40
0.0
 40
0.0
 40
0.0
 40
0.2431641197380915
 40
0.4936284730588936
 40
0.7421706076863288
 40
1.0
 40
1.0
 40
1.0
 40
1.0
 10
547.4081103737749
 20
579.8181531383967
 30
0.0
 10
547.652629166347
 20
579.2402349740672
 30
0.0
 10
548.1490076548408
 20
578.0670484804418
 30
0.0
 10
548.9364243963322
 20
576.205995458634
 30
0.0
 10
549.7404548140163
 20
574.305676149163
 30
0.0
 10
550.2502127671045
 20
573.1008674005091
 30
0.0
 10
550.5097664273701
 20
572.4874144494789
 30
0.0
  0
ARC
  5
279
330
1F
100
AcDbEntity
  8
0
  6
Continuous
 62
     7
370
    25
100
AcDbCircle
 10
540.2098307551
 20
572.4510118657
 30
0.0
 40
10.30000000000006
100
AcDbArc
 50
345.6642188199
 51
0.2024969667
  0
SPLINE
  5
27A
330
1F
100
AcDbEntity
  8
0
  6
Continuous
 62
     7
370
    25
100
AcDbSpline
210
0.0
220
0.0
230
1.0
 70
    24
 71
     3
 72
    13
 73
     9
 74
     0
 42
0.00000001
 43
0.00000001
 40
0.0
 40
0.0
 40
0.0
 40
0.0
 40
0.0290865078712628
 40
0.2691317361521215
 40
0.5086847447945269
 40
0.7393528760311809
 40
0.9704551097945746
 40
1.0
 40
1.0
 40
1.0
 40
1.0
 10
550.1891020598979
 20
569.9006894887676
 30
0.0
 10
550.1444787935534
 20
569.8416154984687
 30
0.0
 10
549.7315884872559
 20
569.2950154858127
 30
0.0
 10
548.9258554591349
 20
568.2283552212072
 30
0.0
 10
547.7615890138234
 20
566.6870546771253
 30
0.0
 10
546.6138756752429
 20
565.1676677701786
 30
0.0
 10
545.8365399473574
 20
564.1386009400311
 30
0.0
 10
545.4366522505098
 20
563.6092142801263
 30
0.0
 10
545.3913241535872
 20
563.5492072080935
 30
0.0
  0
ARC
  5
27B
330
1F
100
AcDbEntity
  8
0
  6
Continuous
 62
     7
370
    25
100
AcDbCircle
 10
540.2098307551
 20
572.4510118657
 30
0.0
 40
10.29999999999999
100
AcDbArc
 50
285.6642188199
 51
300.2024969667
  0
SPLINE
  5
27C
330
1F
100
AcDbEntity
  8
0
  6
Continuous
 62
     7
370
    25
100
AcDbSpline
210
0.0
220
0.0
230
1.0
 70
    24
 71
     3
 72
     9
 73
     5
 74
     0
 42
0.00000001
 43
0.00000001
 40
0.0
 40
0.0
 40
0.0
 40
0.0
 40
0.8370705797133511
 40
1.0
 40
1.0
 40
1.0
 40
1.0
 10
542.9908224412719
 20
562.5335482160572
 30
0.0
 10
542.3720706388984
 20
562.6102520242873
 30
0.0
 10
541.6328835053771
 20
562.7018856452613
 30
0.0
 10
540.8524551449628
 20
562.7986317509938
 30
0.0
 10
540.7253004046253
 20
562.8143945379157
 30
0.0
  0
SPLINE
  5
27D
330
1F
100
AcDbEntity
  8
0
  6
Continuous
 62
     7
370
    25
100
AcDbSpline
210
0.0
220
0.0
230
1.0
 70
    24
 71
     3
 72
    10
 73
     6
 74
     0
 42
0.00000001
 43
0.00000001
 40
0.0
 40
0.0
 40
0.0
 40
0.0
 40
0.4656290725479507
 40
0.9422476724234304
 40
1.0
 40
1.0
 40
1.0
 40
1.0
 10
641.8400382917739
 20
562.9510118656863
 30
0.0
 10
641.2025346538048
 20
562.9510118656863
 30
0.0
 10
639.9124813593427
 20
562.9510118656863
 30
0.0
 10
638.5889322841174
 20
562.9510118656863
 30
0.0
 10
637.903914542219
 20
562.9510118656863
 30
0.0
 10
637.8298810067224
 20
562.9510118656863
 30
0.0
  0
ARC
  5
27E
330
1F
100
AcDbEntity
  8
0
  6
Continuous
 62
     7
370
    25
100
AcDbCircle
 10
641.8098307551
 20
572.4510118657
 30
0.0
 40
10.30000000000001
100
AcDbArc
 50
232.7308609266
 51
247.2691390734
  0
SPLINE
  5
27F
330
1F
100
AcDbEntity
  8
0
  6
Continuous
 62
     7
370
    25
100
AcDbSpline
210
0.0
220
0.0
230
1.0
 70
    24
 71
     3
 72
    11
 73
     7
 74
     0
 42
0.00000001
 43
0.00000001
 40
0.0
 40
0.0
 40
0.0
 40
0.0
 40
0.243164119738092
 40
0.4936284730588937
 40
0.7421706076863289
 40
1.0
 40
1.0
 40
1.0
 40
1.0
 10
635.57256429341
 20
564.2542742777636
 30
0.0
 10
635.2588052917133
 20
564.7977208100343
 30
0.0
 10
634.6218676666932
 20
565.9009291378211
 30
0.0
 10
633.6114786976867
 20
567.6509741675477
 30
0.0
 10
632.5797715698507
 20
569.4379433314906
 30
0.0
 10
631.9256658269526
 20
570.5708877117128
 30
0.0
 10
631.5926145449835
 20
571.1477494536091
 30
0.0
  0
ARC
  5
280
330
1F
100
AcDbEntity
  8
0
  6
Continuous
 62
     7
370
    25
100
AcDbCircle
 10
641.8098307551
 20
572.4510118657
 30
0.0
 40
10.30000000000007
100
AcDbArc
 50
172.7308609266
 51
187.2691390734
  0
SPLINE
  5
281
330
1F
100
AcDbEntity
  8
0
  6
Continuous
 62
     7
370
    25
100
AcDbSpline
210
0.0
220
0.0
230
1.0
 70
    24
 71
     3
 72
    11
 73
     7
 74
     0
 42
0.00000001
 43
0.00000001
 40
0.0
 40
0.0
 40
0.0
 40
0.0
 40
0.2431641197380916
 40
0.4936284730588936
 40
0.7421706076863288
 40
0.9999999999999999
 40
0.9999999999999999
 40
0.9999999999999999
 40
0.9999999999999999
 10
631.5926145449835
 20
573.7542742777634
 30
0.0
 10
631.9063735466802
 20
574.2977208100344
 30
0.0
 10
632.5433111717001
 20
575.4009291378211
 30
0.0
 10
633.5537001407067
 20
577.1509741675477
 30
0.0
 10
634.5854072685428
 20
578.9379433314905
 30
0.0
 10
635.239513011441
 20
580.0708877117129
 30
0.0
 10
635.57256429341
 20
580.6477494536091
 30
0.0
  0
ARC
  5
282
330
1F
100
AcDbEntity
  8
0
  6
Continuous
 62
     7
370
    25
100
AcDbCircle
 10
641.8098307551
 20
572.4510118657
 30
0.0
 40
10.30000000000002
100
AcDbArc
 50
112.7308609266
 51
127.2691390734
  0
SPLINE
  5
283
330
1F
100
AcDbEntity
  8
0
  6
Continuous
 62
     7
370
    25
100
AcDbSpline
210
0.0
220
0.0
230
1.0
 70
    24
 71
     3
 72
    10
 73
     6
 74
     0
 42
0.00000001
 43
0.00000001
 40
0.0
 40
0.0
 40
0.0
 40
0.0
 40
0.0995738669407975
 40
0.9213374050871765
 40
1.0
 40
1.0
 40
1.0
 40
1.0
 10
637.8298810067224
 20
581.9510118656863
 30
0.0
 10
637.9039387562971
 20
581.9510118656863
 30
0.0
 10
638.5891805462966
 20
581.9510118656863
 30
0.0
 10
639.350325130305
 20
581.9510118656863
 30
0.0
 10
640.0621910178243
 20
581.9510118656863
 30
0.0
 10
640.1243807032256
 20
581.9510118656863
 30
0.0
  0
LINE
  5
284
330
1F
100
AcDbEntity
  8
0
  6
Continuous
 62
     7
370
    25
100
AcDbLine
 10
541.4093119778
 20
582.126948244
 30
0.0
 11
542.7199282051
 21
581.8723658444
 31
0.0
  0
LINE
  5
285
330
1F
100
AcDbEntity
  8
0
  6
Continuous
 62
     7
370
    25
100
AcDbLine
 10
548.4790146495
 20
577.6165803457
 30
0.0
 11
548.6272712765
 21
577.3712959093
 31
0.0
  0
LINE
  5
286
330
1F
100
AcDbEntity
  8
0
  6
Continuous
 62
     7
370
    25
100
AcDbLine
 10
540.6895817477
 20
582.1892015838
 30
0.0
 11
541.4093119778
 21
582.126948244
 31
0.0
  0
LINE
  5
287
330
1F
100
AcDbEntity
  8
0
  6
Continuous
 62
     7
370
    25
100
AcDbLine
 10
538.9088549675
 20
561.9563424092
 30
0.0
 11
538.6742974166
 21
561.9880886429
 31
0.0
  0
ARC
  5
288
330
1F
100
AcDbEntity
  8
0
  6
Continuous
 62
     7
370
    25
100
AcDbCircle
 10
540.2098307551
 20
572.4510118657
 30
0.0
 40
10.57500000000005
100
AcDbArc
 50
262.9333578933
 51
98.3490982393
  0
ARC
  5
289
330
1F
100
AcDbEntity
  8
0
  6
Continuous
 62
     7
370
    25
100
AcDbCircle
 10
540.2098307551
 20
572.4510118657
 30
0.0
 40
14.87499999999993
100
AcDbArc
 50
233.3837470415
 51
262.9333578933
  0
ARC
  5
28A
330
1F
100
AcDbEntity
  8
0
  6
Continuous
 62
     7
370
    25
100
AcDbCircle
 10
540.2098307551
 20
572.4510118657
 30
0.0
 40
14.87500000000002
100
AcDbArc
 50
262.9333578933
 51
126.6156955593
  0
ARC
  5
28B
330
1F
100
AcDbEntity
  8
0
  6
Continuous
 62
     7
370
    25
100
AcDbCircle
 10
540.2098307551
 20
572.4510118657
 30
0.0
 40
16.20000000000004
100
AcDbArc
 50
82.9333578933
 51
136.0742282651
  0
ARC
  5
28C
330
1F
100
AcDbEntity
  8
0
  6
Continuous
 62
     7
370
    25
100
AcDbCircle
 10
540.2098307551
 20
572.4510118657
 30
0.0
 40
16.20000000000001
100
AcDbArc
 50
223.9250761661
 51
82.9333578933
  0
SPLINE
  5
28D
330
1F
100
AcDbEntity
  8
0
  6
Continuous
 62
     7
370
    25
100
AcDbSpline
210
0.0
220
0.0
230
1.0
 70
     8
 71
     3
 72
     9
 73
     5
 74
     0
 42
0.00000001
 43
0.00000001
 40
0.0
 40
0.0
 40
0.0
 40
0.0
 40
0.5850553834534096
 40
1.0
 40
1.0
 40
1.0
 40
1.0
 10
536.3607266444716
 20
589.302551781823
 30
0.0
 10
535.8957099969483
 20
589.3282567018492
 30
0.0
 10
535.1008849928977
 20
589.3721925765597
 30
0.0
 10
534.3143913747891
 20
589.1243061476237
 30
0.0
 10
533.9880400820067
 20
589.0214470084218
 30
0.0
  0
SPLINE
  5
28E
330
1F
100
AcDbEntity
  8
0
  6
Continuous
 62
     7
370
    25
100
AcDbSpline
210
0.0
220
0.0
230
1.0
 70
    24
 71
     3
 72
    11
 73
     7
 74
     0
 42
0.00000001
 43
0.00000001
 40
0.0
 40
0.0
 40
0.0
 40
0.0
 40
0.2379053903768481
 40
0.4814905141303175
 40
0.7366519444348052
 40
1.0
 40
1.0
 40
1.0
 40
1.0
 10
548.0572056078777
 20
587.8525932104951
 30
0.0
 10
547.1506803061792
 20
587.9649709726777
 30
0.0
 10
545.3159873936077
 20
588.192409394331
 30
0.0
 10
542.3857643485162
 20
588.5556556356507
 30
0.0
 10
539.3447745739288
 20
588.9326331177441
 30
0.0
 10
537.3658243487077
 20
589.1779544533588
 30
0.0
 10
536.3607266444716
 20
589.302551781823
 30
0.0
  0
SPLINE
  5
28F
330
1F
100
AcDbEntity
  8
0
  6
Continuous
 62
     7
370
    25
100
AcDbSpline
210
0.0
220
0.0
230
1.0
 70
     8
 71
     3
 72
     9
 73
     5
 74
     0
 42
0.00000001
 43
0.00000001
 40
0.0
 40
0.0
 40
0.0
 40
0.0
 40
0.5841917497409934
 40
1.0
 40
1.0
 40
1.0
 40
1.0
 10
550.2894320231336
 20
587.0006386058622
 30
0.0
 10
549.8719666441649
 20
587.2449347086786
 30
0.0
 10
549.1573632983394
 20
587.6631126492684
 30
0.0
 10
548.3803105510761
 20
587.7969447280065
 30
0.0
 10
548.0572056078777
 20
587.8525932104951
 30
0.0
  0
ARC
  5
290
330
1F
100
AcDbEntity
  8
0
  6
Continuous
 62
     7
370
    25
100
AcDbCircle
 10
540.2098307551
 20
572.4510118657
 30
0.0
 40
17.69999999999999
100
AcDbArc
 50
50.5799214659
 51
55.2867943207
  0
SPLINE
  5
291
330
1F
100
AcDbEntity
  8
0
  6
Continuous
 62
     7
370
    25
100
AcDbSpline
210
0.0
220
0.0
230
1.0
 70
     8
 71
     3
 72
     9
 73
     5
 74
     0
 42
0.00000001
 43
0.00000001
 40
0.0
 40
0.0
 40
0.0
 40
0.0
 40
0.5850553834536202
 40
1.0
 40
1.0
 40
1.0
 40
1.0
 10
552.8791403600715
 20
584.2102037654138
 30
0.0
 10
552.6688931500546
 20
584.6257724553645
 30
0.0
 10
552.3095302316661
 20
585.3360790377901
 30
0.0
 10
551.7016074779003
 20
585.893259276518
 30
0.0
 10
551.449353203949
 20
586.1244582170242
 30
0.0
  0
SPLINE
  5
292
330
1F
100
AcDbEntity
  8
0
  6
Continuous
 62
     7
370
    25
100
AcDbSpline
210
0.0
220
0.0
230
1.0
 70
    24
 71
     3
 72
    11
 73
     7
 74
     0
 42
0.00000001
 43
0.00000001
 40
0.0
 40
0.0
 40
0.0
 40
0.0
 40
0.232871632211147
 40
0.4710265024313224
 40
0.7311421212560292
 40
1.0
 40
1.0
 40
1.0
 40
1.0
 10
557.4716788845701
 20
573.3557765626088
 30
0.0
 10
557.123378606502
 20
574.1789814182326
 30
0.0
 10
556.4188760433665
 20
575.8440674583281
 30
0.0
 10
555.2780784890377
 20
578.540333138092
 30
0.0
 10
554.0751589009806
 20
581.38342373597
 30
0.0
 10
553.2821816760616
 20
583.2576189148348
 30
0.0
 10
552.8791403600715
 20
584.2102037654138
 30
0.0
  0
SPLINE
  5
293
330
1F
100
AcDbEntity
  8
0
  6
Continuous
 62
     7
370
    25
100
AcDbSpline
210
0.0
220
0.0
230
1.0
 70
     8
 71
     3
 72
     9
 73
     5
 74
     0
 42
0.00000001
 43
0.00000001
 40
0.0
 40
0.0
 40
0.0
 40
0.0
 40
0.5841917497409242
 40
1.0
 40
1.0
 40
1.0
 40
1.0
 10
557.849977761715
 20
570.9966344776817
 30
0.0
 10
557.8528117033152
 20
571.4803181524771
 30
0.0
 10
557.8576627502554
 20
572.3082717738865
 30
0.0
 10
557.5850383566521
 20
573.0481352324662
 30
0.0
 10
557.4716788845701
 20
573.3557765626088
 30
0.0
  0
ARC
  5
294
330
1F
100
AcDbEntity
  8
0
  6
Continuous
 62
     7
370
    25
100
AcDbCircle
 10
540.2098307551
 20
572.4510118657
 30
0.0
 40
17.70000000000001
100
AcDbArc
 50
350.5799214659
 51
355.2867943207
  0
SPLINE
  5
295
330
1F
100
AcDbEntity
  8
0
  6
Continuous
 62
     7
370
    25
100
AcDbSpline
210
0.0
220
0.0
230
1.0
 70
     8
 71
     3
 72
     9
 73
     5
 74
     0
 42
0.00000001
 43
0.00000001
 40
0.0
 40
0.0
 40
0.0
 40
0.0
 40
0.585055383453619
 40
0.9999999999999999
 40
0.9999999999999999
 40
0.9999999999999999
 40
0.9999999999999999
 10
556.7282444707504
 20
567.3586638492769
 30
0.0
 10
556.9830139082567
 20
567.7485276192016
 30
0.0
 10
557.4184759939184
 20
568.4148983269171
 30
0.0
 10
557.5970468582605
 20
569.2199649945808
 30
0.0
 10
557.6711438770913
 20
569.5540230742888
 30
0.0
  0
SPLINE
  5
296
330
1F
100
AcDbEntity
  8
0
  6
Continuous
 62
     7
370
    25
100
AcDbSpline
210
0.0
220
0.0
230
1.0
 70
    24
 71
     3
 72
    11
 73
     7
 74
     0
 42
0.00000001
 43
0.00000001
 40
0.0
 40
0.0
 40
0.0
 40
0.0
 40
0.2328716322111486
 40
0.4710265024313255
 40
0.7311421212560308
 40
1.0
 40
1.0
 40
1.0
 40
1.0
 10
549.6243040318416
 20
557.9541952177999
 30
0.0
 10
550.1630702102966
 20
558.667434534564
 30
0.0
 10
551.2528257389384
 20
560.1100946713184
 30
0.0
 10
553.0174615358017
 20
562.4461871738241
 30
0.0
 10
554.8781904247962
 20
564.9094913947306
 30
0.0
 10
556.1048024488838
 20
566.5333274055653
 30
0.0
 10
556.7282444707504
 20
567.3586638492769
 30
0.0
  0
SPLINE
  5
297
330
1F
100
AcDbEntity
  8
0
  6
Continuous
 62
     7
370
    25
100
AcDbSpline
210
0.0
220
0.0
230
1.0
 70
     8
 71
     3
 72
     9
 73
     5
 74
     0
 42
0.00000001
 43
0.00000001
 40
0.0
 40
0.0
 40
0.0
 40
0.0
 40
0.584191749740921
 40
1.0
 40
1.0
 40
1.0
 40
1.0
 10
547.7703764937303
 20
556.4470077375058
 30
0.0
 10
548.1906758142991
 20
556.686395309485
 30
0.0
 10
548.910130207065
 20
557.0961709903044
 30
0.0
 10
549.4145585607251
 20
557.7022023701459
 30
0.0
 10
549.6243040318416
 20
557.9541952177999
 30
0.0
  0
ARC
  5
298
330
1F
100
AcDbEntity
  8
0
  6
Continuous
 62
     7
370
    25
100
AcDbCircle
 10
540.2098307551
 20
572.4510118657
 30
0.0
 40
17.69999999999999
100
AcDbArc
 50
290.5799214659
 51
295.2867943207
  0
SPLINE
  5
299
330
1F
100
AcDbEntity
  8
0
  6
Continuous
 62
     7
370
    25
100
AcDbSpline
210
0.0
220
0.0
230
1.0
 70
     8
 71
     3
 72
     9
 73
     5
 74
     0
 42
0.00000001
 43
0.00000001
 40
0.0
 40
0.0
 40
0.0
 40
0.0
 40
0.585055383453617
 40
1.0
 40
1.0
 40
1.0
 40
1.0
 10
544.0589348658278
 20
555.5994719495494
 30
0.0
 10
544.523951513351
 20
555.5737670295234
 30
0.0
 10
545.3187765174011
 20
555.5298311548131
 30
0.0
 10
546.1052701355092
 20
555.7777175837491
 30
0.0
 10
546.4316214282911
 20
555.8805767229509
 30
0.0
  0
SPLINE
  5
29A
330
1F
100
AcDbEntity
  8
0
  6
Continuous
 62
     7
370
    25
100
AcDbSpline
210
0.0
220
0.0
230
1.0
 70
    24
 71
     3
 72
    11
 73
     7
 74
     0
 42
0.00000001
 43
0.00000001
 40
0.0
 40
0.0
 40
0.0
 40
0.0
 40
0.255627964438097
 40
0.5185037642963863
 40
0.7560467972580102
 40
0.9999999999999999
 40
0.9999999999999999
 40
0.9999999999999999
 40
0.9999999999999999
 10
532.3624559024204
 20
557.0494305208774
 30
0.0
 10
533.3375780703002
 20
556.9285491214551
 30
0.0
 10
535.3154701049451
 20
556.6833589648477
 30
0.0
 10
538.3327960562095
 20
556.3093149778313
 30
0.0
 10
541.2935645518373
 20
555.9422821578362
 30
0.0
 10
543.1289996985871
 20
555.7147517248337
 30
0.0
 10
544.0589348658278
 20
555.5994719495494
 30
0.0
  0
SPLINE
  5
29B
330
1F
100
AcDbEntity
  8
0
  6
Continuous
 62
     7
370
    25
100
AcDbSpline
210
0.0
220
0.0
230
1.0
 70
     8
 71
     3
 72
     9
 73
     5
 74
     0
 42
0.00000001
 43
0.00000001
 40
0.0
 40
0.0
 40
0.0
 40
0.0
 40
0.5841917497409234
 40
1.0
 40
1.0
 40
1.0
 40
1.0
 10
530.1302294871641
 20
557.9013851255105
 30
0.0
 10
530.5476948661328
 20
557.6570890226941
 30
0.0
 10
531.2622982119585
 20
557.2389110821041
 30
0.0
 10
532.0393509592218
 20
557.1050790033661
 30
0.0
 10
532.3624559024204
 20
557.0494305208774
 30
0.0
  0
ARC
  5
29C
330
1F
100
AcDbEntity
  8
0
  6
Continuous
 62
     7
370
    25
100
AcDbCircle
 10
540.2098307551
 20
572.4510118657
 30
0.0
 40
17.69999999999996
100
AcDbArc
 50
230.5799214659
 51
235.2867943207
  0
SPLINE
  5
29D
330
1F
100
AcDbEntity
  8
0
  6
Continuous
 62
     7
370
    25
100
AcDbSpline
210
0.0
220
0.0
230
1.0
 70
     8
 71
     3
 72
     9
 73
     5
 74
     0
 42
0.00000001
 43
0.00000001
 40
0.0
 40
0.0
 40
0.0
 40
0.0
 40
0.5850553834536163
 40
0.9999999999999999
 40
0.9999999999999999
 40
0.9999999999999999
 40
0.9999999999999999
 10
527.5405211502264
 20
560.6918199659589
 30
0.0
 10
527.7507683602431
 20
560.2762512760081
 30
0.0
 10
528.1101312786316
 20
559.5659446935824
 30
0.0
 10
528.7180540323975
 20
559.0087644548546
 30
0.0
 10
528.9703083063487
 20
558.7775655143485
 30
0.0
  0
LINE
  5
29E
330
1F
100
AcDbEntity
  8
0
  6
Continuous
 62
     7
370
    25
100
AcDbLine
 10
526.8881294812
 20
562.2337423345
 30
0.0
 11
527.5405211502
 21
560.691819966
 31
0.0
  0
SPLINE
  5
29F
330
1F
100
AcDbEntity
  8
0
  6
Continuous
 62
     7
370
    25
100
AcDbSpline
210
0.0
220
0.0
230
1.0
 70
    24
 71
     3
 72
     9
 73
     5
 74
     0
 42
0.00000001
 43
0.00000001
 40
0.0
 40
0.0
 40
0.0
 40
0.0
 40
0.6066616312382702
 40
1.0
 40
1.0
 40
1.0
 40
1.0
 10
530.7953574784561
 20
586.9478285135727
 30
0.0
 10
530.2575979507533
 20
586.235921839657
 30
0.0
 10
529.3711737893881
 20
585.0624395601485
 30
0.0
 10
528.445275399982
 20
583.8366997845993
 30
0.0
 10
528.081084037854
 20
583.3545693007584
 30
0.0
  0
SPLINE
  5
2A0
330
1F
100
AcDbEntity
  8
0
  6
Continuous
 62
     7
370
    25
100
AcDbSpline
210
0.0
220
0.0
230
1.0
 70
     8
 71
     3
 72
     9
 73
     5
 74
     0
 42
0.00000001
 43
0.00000001
 40
0.0
 40
0.0
 40
0.0
 40
0.0
 40
0.5841917497409256
 40
1.0
 40
1.0
 40
1.0
 40
1.0
 10
532.6492850165675
 20
588.4550159938668
 30
0.0
 10
532.2289856959987
 20
588.2156284218877
 30
0.0
 10
531.5095313032327
 20
587.8058527410682
 30
0.0
 10
531.0051029495726
 20
587.1998213612268
 30
0.0
 10
530.7953574784561
 20
586.9478285135727
 30
0.0
  0
ARC
  5
2A1
330
1F
100
AcDbEntity
  8
0
  6
Continuous
 62
     7
370
    25
100
AcDbCircle
 10
540.2098307551
 20
572.4510118657
 30
0.0
 40
17.70000000000009
100
AcDbArc
 50
110.5799214659
 51
115.2867943207
  0
LINE
  5
2A2
330
1F
100
AcDbEntity
  8
0
  6
Continuous
 62
     7
370
    25
100
AcDbLine
 10
633.3660830683
 20
567.5760118657
 30
0.0
 11
632.7792578224
 21
568.7752462983
 31
0.0
  0
LINE
  5
2A3
330
1F
100
AcDbEntity
  8
0
  6
Continuous
 62
     7
370
    25
100
AcDbLine
 10
632.7038458755
 20
575.9357700168
 30
0.0
 11
632.810206186
 21
576.2019127728
 31
0.0
  0
LWPOLYLINE
  5
2A4
330
1F
100
AcDbEntity
  8
0
  6
Continuous
 62
     7
370
    25
100
AcDbPolyline
 90
        3
 70
   128
 43
0.0
 10
634.6702590321
 20
565.811055871
 10
634.4412724052
 20
566.0661197097
 10
633.3660830683
 20
567.5760118657
  0
ARC
  5
2A5
330
1F
100
AcDbEntity
  8
0
  6
Continuous
 62
     7
370
    25
100
AcDbCircle
 10
641.8098307551
 20
572.4510118657
 30
0.0
 40
14.87500000000005
100
AcDbArc
 50
55.1611835908
 51
308.4167037132
  0
ARC
  5
2A6
330
1F
100
AcDbEntity
  8
0
  6
Continuous
 62
     7
370
    25
100
AcDbCircle
 10
641.8098307551
 20
572.4510118657
 30
0.0
 40
10.57500000000004
100
AcDbArc
 50
84.5490172093
 51
281.0490866707
  0
SPLINE
  5
2A7
330
1F
100
AcDbEntity
  8
0
  6
Continuous
 62
     7
370
    25
100
AcDbSpline
210
0.0
220
0.0
230
1.0
 70
     8
 71
     3
 72
     9
 73
     5
 74
     0
 42
0.00000001
 43
0.00000001
 40
0.0
 40
0.0
 40
0.0
 40
0.0
 40
0.5850553834534129
 40
1.0
 40
1.0
 40
1.0
 40
1.0
 10
630.6834201072342
 20
559.2225204137501
 30
0.0
 10
630.943195027043
 20
558.8359738881861
 30
0.0
 10
631.3872126827314
 20
558.1752731468608
 30
0.0
 10
632.0590638747642
 20
557.6971143147348
 30
0.0
 10
632.3378449100186
 20
557.4987048814897
 30
0.0
  0
SPLINE
  5
2A8
330
1F
100
AcDbEntity
  8
0
  6
Continuous
 62
     7
370
    25
100
AcDbSpline
210
0.0
220
0.0
230
1.0
 70
    24
 71
     3
 72
    11
 73
     7
 74
     0
 42
0.00000001
 43
0.00000001
 40
0.0
 40
0.0
 40
0.0
 40
0.0
 40
0.2379053903768482
 40
0.4814905141303173
 40
0.7366519444348056
 40
0.9999999999999999
 40
0.9999999999999999
 40
0.9999999999999999
 40
0.9999999999999999
 10
624.7904157800685
 20
569.4295033176242
 30
0.0
 10
625.2471478908437
 20
568.6384200963132
 30
0.0
 10
626.1715160965773
 20
567.0373673990815
 30
0.0
 10
627.647842189097
 20
564.4802955982977
 30
0.0
 10
629.1799755735606
 20
561.8265627324345
 30
0.0
 10
630.177024538207
 20
560.0996232680328
 30
0.0
 10
630.6834201072342
 20
559.2225204137501
 30
0.0
  0
SPLINE
  5
2A9
330
1F
100
AcDbEntity
  8
0
  6
Continuous
 62
     7
370
    25
100
AcDbSpline
210
0.0
220
0.0
230
1.0
 70
     8
 71
     3
 72
     9
 73
     5
 74
     0
 42
0.00000001
 43
0.00000001
 40
0.0
 40
0.0
 40
0.0
 40
0.0
 40
0.5841917497409947
 40
1.0
 40
1.0
 40
1.0
 40
1.0
 10
624.1247601390861
 20
571.7241849916151
 30
0.0
 10
624.1814522874944
 20
571.2438268660488
 30
0.0
 10
624.2784960208803
 20
570.4215658091626
 30
0.0
 10
624.6400702376534
 20
569.7208618180981
 30
0.0
 10
624.7904157800685
 20
569.4295033176242
 30
0.0
  0
ARC
  5
2AA
330
1F
100
AcDbEntity
  8
0
  6
Continuous
 62
     7
370
    25
100
AcDbCircle
 10
641.8098307551
 20
572.4510118657
 30
0.0
 40
17.70000000000003
100
AcDbArc
 50
177.6465635726
 51
182.3534364274
  0
SPLINE
  5
2AB
330
1F
100
AcDbEntity
  8
0
  6
Continuous
 62
     7
370
    25
100
AcDbSpline
210
0.0
220
0.0
230
1.0
 70
     8
 71
     3
 72
     9
 73
     5
 74
     0
 42
0.00000001
 43
0.00000001
 40
0.0
 40
0.0
 40
0.0
 40
0.0
 40
0.585055383453618
 40
1.0
 40
1.0
 40
1.0
 40
1.0
 10
624.7904157800687
 20
575.4725204137487
 30
0.0
 10
624.5855441290903
 20
575.0542754711463
 30
0.0
 10
624.2353693306479
 20
574.339394530929
 30
0.0
 10
624.1571972309994
 20
573.5184749150033
 30
0.0
 10
624.1247601390861
 20
573.1778387397576
 30
0.0
  0
SPLINE
  5
2AC
330
1F
100
AcDbEntity
  8
0
  6
Continuous
 62
     7
370
    25
100
AcDbSpline
210
0.0
220
0.0
230
1.0
 70
    24
 71
     3
 72
    11
 73
     7
 74
     0
 42
0.00000001
 43
0.00000001
 40
0.0
 40
0.0
 40
0.0
 40
0.0
 40
0.2328716322111471
 40
0.4710265024313225
 40
0.7311421212560291
 40
1.0
 40
1.0
 40
1.0
 40
1.0
 10
630.6834201072348
 20
585.6795033176238
 30
0.0
 10
630.2364918920747
 20
584.9054009416303
 30
0.0
 10
629.3324958491651
 20
583.3396338654696
 30
0.0
 10
627.8686594788836
 20
580.8041948981748
 30
0.0
 10
626.3251100236446
 20
578.1306888177057
 30
0.0
 10
625.3075860131515
 20
576.3682855336104
 30
0.0
 10
624.7904157800687
 20
575.4725204137487
 30
0.0
  0
SPLINE
  5
2AD
330
1F
100
AcDbEntity
  8
0
  6
Continuous
 62
     7
370
    25
100
AcDbSpline
210
0.0
220
0.0
230
1.0
 70
     8
 71
     3
 72
     9
 73
     5
 74
     0
 42
0.00000001
 43
0.00000001
 40
0.0
 40
0.0
 40
0.0
 40
0.0
 40
0.5841917497409241
 40
1.0
 40
1.0
 40
1.0
 40
1.0
 10
632.3378449100186
 20
587.4033188498828
 30
0.0
 10
631.950188644568
 20
587.114042946383
 30
0.0
 10
631.2866115474548
 20
586.6188700795495
 30
0.0
 10
630.8605711990464
 20
585.9553856269383
 30
0.0
 10
630.6834201072348
 20
585.6795033176238
 30
0.0
  0
ARC
  5
2AE
330
1F
100
AcDbEntity
  8
0
  6
Continuous
 62
     7
370
    25
100
AcDbCircle
 10
641.8098307551
 20
572.4510118657
 30
0.0
 40
17.70000000000005
100
AcDbArc
 50
117.6465635726
 51
122.3534364274
  0
SPLINE
  5
2AF
330
1F
100
AcDbEntity
  8
0
  6
Continuous
 62
     7
370
    25
100
AcDbSpline
210
0.0
220
0.0
230
1.0
 70
     8
 71
     3
 72
     9
 73
     5
 74
     0
 42
0.00000001
 43
0.00000001
 40
0.0
 40
0.0
 40
0.0
 40
0.0
 40
0.5850553834536188
 40
1.0
 40
1.0
 40
1.0
 40
1.0
 10
635.9168264279826
 20
588.7010118656864
 30
0.0
 10
635.4521798571953
 20
588.6693134486476
 30
0.0
 10
634.6579874030648
 20
588.6151332497551
 30
0.0
 10
633.9079641113839
 20
588.2723724659551
 30
0.0
 10
633.5967459842165
 20
588.130145723954
 30
0.0
  0
SPLINE
  5
2B0
330
1F
100
AcDbEntity
  8
0
  6
Continuous
 62
     7
370
    25
100
AcDbSpline
210
0.0
220
0.0
230
1.0
 70
    24
 71
     3
 72
    11
 73
     7
 74
     0
 42
0.00000001
 43
0.00000001
 40
0.0
 40
0.0
 40
0.0
 40
0.0
 40
0.2328716322111483
 40
0.4710265024313251
 40
0.731142121256031
 40
1.0
 40
1.0
 40
1.0
 40
1.0
 10
647.7028350823152
 20
588.7010118656864
 30
0.0
 10
646.8089786519947
 20
588.7010118656864
 30
0.0
 10
645.0009865661755
 20
588.7010118656864
 30
0.0
 10
642.0733138256124
 20
588.7010118656864
 30
0.0
 10
638.9862149151344
 20
588.7010118656864
 30
0.0
 10
636.9511668941483
 20
588.7010118656864
 30
0.0
 10
635.9168264279826
 20
588.7010118656864
 30
0.0
  0
SPLINE
  5
2B1
330
1F
100
AcDbEntity
  8
0
  6
Continuous
 62
     7
370
    25
100
AcDbSpline
210
0.0
220
0.0
230
1.0
 70
     8
 71
     3
 72
     9
 73
     5
 74
     0
 42
0.00000001
 43
0.00000001
 40
0.0
 40
0.0
 40
0.0
 40
0.0
 40
0.584191749740921
 40
1.0
 40
1.0
 40
1.0
 40
1.0
 10
650.0229155260814
 20
588.130145723954
 30
0.0
 10
649.5785671122227
 20
588.3212279460206
 30
0.0
 10
648.8179462817234
 20
588.6483161360734
 30
0.0
 10
648.0303317165419
 20
588.6855356745266
 30
0.0
 10
647.7028350823152
 20
588.7010118656864
 30
0.0
  0
ARC
  5
2B2
330
1F
100
AcDbEntity
  8
0
  6
Continuous
 62
     7
370
    25
100
AcDbCircle
 10
641.8098307551
 20
572.4510118657
 30
0.0
 40
17.70000000000005
100
AcDbArc
 50
57.6465635726
 51
62.3534364274
  0
SPLINE
  5
2B3
330
1F
100
AcDbEntity
  8
0
  6
Continuous
 62
     7
370
    25
100
AcDbSpline
210
0.0
220
0.0
230
1.0
 70
     8
 71
     3
 72
     9
 73
     5
 74
     0
 42
0.00000001
 43
0.00000001
 40
0.0
 40
0.0
 40
0.0
 40
0.0
 40
0.5850553834536193
 40
1.0
 40
1.0
 40
1.0
 40
1.0
 10
652.9362414030629
 20
585.6795033176238
 30
0.0
 10
652.6764664832541
 20
586.0660498431877
 30
0.0
 10
652.2324488275657
 20
586.7267505845124
 30
0.0
 10
651.5605976355333
 20
587.2049094166382
 30
0.0
 10
651.2818166002793
 20
587.4033188498828
 30
0.0
  0
LINE
  5
2B4
330
1F
100
AcDbEntity
  8
0
  6
Continuous
 62
     7
370
    25
100
AcDbLine
 10
654.2509721327
 20
583.4023228956
 30
0.0
 11
652.9362414031
 21
585.6795033176
 31
0.0
  0
SPLINE
  5
2B5
330
1F
100
AcDbEntity
  8
0
  6
Continuous
 62
     7
370
    25
100
AcDbSpline
210
0.0
220
0.0
230
1.0
 70
    24
 71
     3
 72
     9
 73
     5
 74
     0
 42
0.00000001
 43
0.00000001
 40
0.0
 40
0.0
 40
0.0
 40
0.0
 40
0.7601406116389081
 40
1.0
 40
1.0
 40
1.0
 40
1.0
 10
652.9362414030629
 20
559.2225204137487
 30
0.0
 10
653.3813182531007
 20
559.9934161312871
 30
0.0
 10
653.9668373573601
 20
561.0075649686662
 30
0.0
 10
654.5784903292277
 20
562.0669789925415
 30
0.0
 10
654.7252010369491
 20
562.3210893923296
 30
0.0
  0
SPLINE
  5
2B6
330
1F
100
AcDbEntity
  8
0
  6
Continuous
 62
     7
370
    25
100
AcDbSpline
210
0.0
220
0.0
230
1.0
 70
     8
 71
     3
 72
     9
 73
     5
 74
     0
 42
0.00000001
 43
0.00000001
 40
0.0
 40
0.0
 40
0.0
 40
0.0
 40
0.5841917497409247
 40
1.0
 40
1.0
 40
1.0
 40
1.0
 10
651.2818166002793
 20
557.4987048814897
 30
0.0
 10
651.6694728657299
 20
557.7879807849896
 30
0.0
 10
652.333049962843
 20
558.2831536518231
 30
0.0
 10
652.7590903112515
 20
558.9466381044343
 30
0.0
 10
652.9362414030629
 20
559.2225204137487
 30
0.0
  0
ARC
  5
2B7
330
1F
100
AcDbEntity
  8
0
  6
Continuous
 62
     7
370
    25
100
AcDbCircle
 10
641.8098307551
 20
572.4510118657
 30
0.0
 40
17.70000000000005
100
AcDbArc
 50
297.6465635726
 51
302.3534364274
  0
SPLINE
  5
2B8
330
1F
100
AcDbEntity
  8
0
  6
Continuous
 62
     7
370
    25
100
AcDbSpline
210
0.0
220
0.0
230
1.0
 70
     8
 71
     3
 72
     9
 73
     5
 74
     0
 42
0.00000001
 43
0.00000001
 40
0.0
 40
0.0
 40
0.0
 40
0.0
 40
0.5850553834536198
 40
1.0
 40
1.0
 40
1.0
 40
1.0
 10
647.7028350823152
 20
556.2010118656863
 30
0.0
 10
648.1674816531024
 20
556.232710282725
 30
0.0
 10
648.9616741072331
 20
556.2868904816175
 30
0.0
 10
649.711697398914
 20
556.6296512654176
 30
0.0
 10
650.0229155260814
 20
556.7718780074185
 30
0.0
  0
SPLINE
  5
2B9
330
1F
100
AcDbEntity
  8
0
  6
Continuous
 62
     7
370
    25
100
AcDbSpline
210
0.0
220
0.0
230
1.0
 70
    24
 71
     3
 72
    11
 73
     7
 74
     0
 42
0.00000001
 43
0.00000001
 40
0.0
 40
0.0
 40
0.0
 40
0.0
 40
0.2328716322111492
 40
0.4710265024313262
 40
0.7311421212560313
 40
1.0
 40
1.0
 40
1.0
 40
1.0
 10
635.9168264279826
 20
556.2010118656863
 30
0.0
 10
636.8106828583032
 20
556.2010118656863
 30
0.0
 10
638.6186749441225
 20
556.2010118656863
 30
0.0
 10
641.5463476846854
 20
556.2010118656863
 30
0.0
 10
644.6334465951633
 20
556.2010118656863
 30
0.0
 10
646.6684946161495
 20
556.2010118656863
 30
0.0
 10
647.7028350823152
 20
556.2010118656863
 30
0.0
  0
SPLINE
  5
2BA
330
1F
100
AcDbEntity
  8
0
  6
Continuous
 62
     7
370
    25
100
AcDbSpline
210
0.0
220
0.0
230
1.0
 70
     8
 71
     3
 72
     9
 73
     5
 74
     0
 42
0.00000001
 43
0.00000001
 40
0.0
 40
0.0
 40
0.0
 40
0.0
 40
0.5841917497409255
 40
1.0
 40
1.0
 40
1.0
 40
1.0
 10
633.5967459842165
 20
556.7718780074185
 30
0.0
 10
634.0410943980752
 20
556.580795785352
 30
0.0
 10
634.8017152285744
 20
556.2537075952993
 30
0.0
 10
635.5893297937561
 20
556.216488056846
 30
0.0
 10
635.9168264279826
 20
556.2010118656863
 30
0.0
  0
ARC
  5
2BB
330
1F
100
AcDbEntity
  8
0
  6
Continuous
 62
     7
370
    25
100
AcDbCircle
 10
641.8098307551
 20
572.4510118657
 30
0.0
 40
17.70000000000005
100
AcDbArc
 50
237.6465635726
 51
242.3534364274
  0
ARC
  5
2BC
330
1F
100
AcDbEntity
  8
0
  6
Continuous
 62
     7
370
    25
100
AcDbCircle
 10
641.8098307551
 20
572.4510118657
 30
0.0
 40
16.19999999999998
100
AcDbArc
 50
210.0
 51
318.1420914366
  0
ARC
  5
2BD
330
1F
100
AcDbEntity
  8
0
  6
Continuous
 62
     7
370
    25
100
AcDbCircle
 10
641.8098307551
 20
572.4510118657
 30
0.0
 40
16.19999999999998
100
AcDbArc
 50
45.9729863763
 51
210.0
  0
SPLINE
  5
2BE
330
1F
100
AcDbEntity
  8
0
  6
Continuous
 62
     7
370
    25
100
AcDbSpline
210
0.0
220
0.0
230
1.0
 70
    24
 71
     3
 72
     9
 73
     5
 74
     0
 42
0.00000001
 43
0.00000001
 40
0.0
 40
0.0
 40
0.0
 40
0.0
 40
0.3293813221757084
 40
0.9999999999999999
 40
0.9999999999999999
 40
0.9999999999999999
 40
0.9999999999999999
 10
552.9897003851856
 20
585.1298495844907
 30
0.0
 10
552.6852566665164
 20
585.6571615732711
 30
0.0
 10
551.7609671024989
 20
587.2580780590549
 30
0.0
 10
550.8624159446099
 20
588.8144143177185
 30
0.0
 10
550.259830755149
 20
589.8581224817535
 30
0.0
  0
SPLINE
  5
2BF
330
1F
100
AcDbEntity
  8
0
  6
Continuous
 62
     7
370
    25
100
AcDbSpline
210
0.0
220
0.0
230
1.0
 70
    24
 71
     3
 72
     9
 73
     5
 74
     0
 42
0.00000001
 43
0.00000001
 40
0.0
 40
0.0
 40
0.0
 40
0.0
 40
0.969810901116821
 40
1.0
 40
1.0
 40
1.0
 40
1.0
 10
550.259830755149
 20
555.0439012496191
 30
0.0
 10
551.1276002359547
 20
556.5469220796322
 30
0.0
 10
552.0223823834913
 20
558.0967302208711
 30
0.0
 10
552.9479001713539
 20
559.6997740527582
 30
0.0
 10
552.9758407193699
 20
559.7481685015132
 30
0.0
  0
SPLINE
  5
2C0
330
1F
100
AcDbEntity
  8
0
  6
Continuous
 62
     7
370
    25
100
AcDbSpline
210
0.0
220
0.0
230
1.0
 70
    24
 71
     3
 72
     9
 73
     5
 74
     0
 42
0.00000001
 43
0.00000001
 40
0.0
 40
0.0
 40
0.0
 40
0.0
 40
0.6366655385882559
 40
1.0
 40
1.0
 40
1.0
 40
1.0
 10
530.159830755149
 20
555.0439012496191
 30
0.0
 10
531.9019899278883
 20
555.0439012496191
 30
0.0
 10
534.638370440335
 20
555.0439012496191
 30
0.0
 10
537.4683880580893
 20
555.0439012496191
 30
0.0
 10
538.4966309850217
 20
555.0439012496191
 30
0.0
  0
SPLINE
  5
2C1
330
1F
100
AcDbEntity
  8
0
  6
Continuous
 62
     7
370
    25
100
AcDbSpline
210
0.0
220
0.0
230
1.0
 70
    24
 71
     3
 72
     9
 73
     5
 74
     0
 42
0.00000001
 43
0.00000001
 40
0.0
 40
0.0
 40
0.0
 40
0.0
 40
0.4775686434870995
 40
1.0
 40
1.0
 40
1.0
 40
1.0
 10
541.2470856665414
 20
555.0439012496191
 30
0.0
 10
542.7052924786681
 20
555.0439012496191
 30
0.0
 10
545.7586897902652
 20
555.0439012496191
 30
0.0
 10
548.7152375161302
 20
555.0439012496191
 30
0.0
 10
550.259830755149
 20
555.0439012496191
 30
0.0
  0
SPLINE
  5
2C2
330
1F
100
AcDbEntity
  8
0
  6
Continuous
 62
     7
370
    25
100
AcDbSpline
210
0.0
220
0.0
230
1.0
 70
    24
 71
     3
 72
    10
 73
     6
 74
     0
 42
0.00000001
 43
0.00000001
 40
0.0
 40
0.0
 40
0.0
 40
0.0
 40
0.125482060066582
 40
0.7070243384519399
 40
1.0
 40
1.0
 40
1.0
 40
1.0
 10
525.7434979310596
 20
562.693214084076
 30
0.0
 10
525.9313815814519
 20
562.3677900556848
 30
0.0
 10
526.9900055278082
 20
560.5341995944867
 30
0.0
 10
528.4738295686656
 20
557.9641409662297
 30
0.0
 10
529.7367386608078
 20
555.7767182532988
 30
0.0
 10
530.159830755149
 20
555.0439012496191
 30
0.0
  0
SPLINE
  5
2C3
330
1F
100
AcDbEntity
  8
0
  6
Continuous
 62
     7
370
    25
100
AcDbSpline
210
0.0
220
0.0
230
1.0
 70
    24
 71
     3
 72
     9
 73
     5
 74
     0
 42
0.00000001
 43
0.00000001
 40
0.0
 40
0.0
 40
0.0
 40
0.0
 40
0.5920290837393145
 40
1.0
 40
1.0
 40
1.0
 40
1.0
 10
530.1598307551488
 20
589.8581224817535
 30
0.0
 10
529.288307664549
 20
588.3486002088652
 30
0.0
 10
527.816212602774
 20
585.7988567682994
 30
0.0
 10
526.293769070189
 20
583.1619072182077
 30
0.0
 10
525.6726563872453
 20
582.0861084941236
 30
0.0
  0
SPLINE
  5
2C4
330
1F
100
AcDbEntity
  8
0
  6
Continuous
 62
     7
370
    25
100
AcDbSpline
210
0.0
220
0.0
230
1.0
 70
    24
 71
     3
 72
     9
 73
     5
 74
     0
 42
0.00000001
 43
0.00000001
 40
0.0
 40
0.0
 40
0.0
 40
0.0
 40
0.611590512501479
 40
1.0
 40
1.0
 40
1.0
 40
1.0
 10
550.259830755149
 20
589.8581224817535
 30
0.0
 10
548.5171732955192
 20
589.8581224817535
 30
0.0
 10
545.6677872700525
 20
589.8581224817535
 30
0.0
 10
542.7209250462737
 20
589.8581224817535
 30
0.0
 10
541.5763358002071
 20
589.8581224817535
 30
0.0
  0
SPLINE
  5
2C5
330
1F
100
AcDbEntity
  8
0
  6
Continuous
 62
     7
370
    25
100
AcDbSpline
210
0.0
220
0.0
230
1.0
 70
    24
 71
     3
 72
     9
 73
     5
 74
     0
 42
0.00000001
 43
0.00000001
 40
0.0
 40
0.0
 40
0.0
 40
0.0
 40
0.4587313102637234
 40
1.0
 40
1.0
 40
1.0
 40
1.0
 10
538.8553908288875
 20
589.8581224817535
 30
0.0
 10
537.5037181749742
 20
589.8581224817535
 30
0.0
 10
534.5571727274088
 20
589.8581224817535
 30
0.0
 10
531.7041062883492
 20
589.8581224817535
 30
0.0
 10
530.1598307551488
 20
589.8581224817535
 30
0.0
  0
SPLINE
  5
2C6
330
1F
100
AcDbEntity
  8
0
  6
Continuous
 62
     7
370
    25
100
AcDbSpline
210
0.0
220
0.0
230
1.0
 70
    24
 71
     3
 72
     9
 73
     5
 74
     0
 42
0.00000001
 43
0.00000001
 40
0.0
 40
0.0
 40
0.0
 40
0.0
 40
0.3314405158572417
 40
1.0
 40
1.0
 40
1.0
 40
1.0
 10
629.021446675021
 20
559.7869216070383
 30
0.0
 10
629.3287431211975
 20
559.2546685492753
 30
0.0
 10
630.2558972603999
 20
557.6487904737288
 30
0.0
 10
631.15723371801
 20
556.0876299344341
 30
0.0
 10
631.7598307551489
 20
555.0439012496191
 30
0.0
  0
SPLINE
  5
2C7
330
1F
100
AcDbEntity
  8
0
  6
Continuous
 62
     7
370
    25
100
AcDbSpline
210
0.0
220
0.0
230
1.0
 70
    24
 71
     3
 72
     9
 73
     5
 74
     0
 42
0.00000001
 43
0.00000001
 40
0.0
 40
0.0
 40
0.0
 40
0.0
 40
0.962114945417329
 40
1.0
 40
1.0
 40
1.0
 40
1.0
 10
631.7598307551489
 20
589.8581224817535
 30
0.0
 10
630.8919848079455
 20
588.3549692080545
 30
0.0
 10
629.9899658222339
 20
586.7926264954102
 30
0.0
 10
629.0569653418648
 20
585.1766222599248
 30
0.0
 10
629.0216185677405
 20
585.1153998512576
 30
0.0
  0
SPLINE
  5
2C8
330
1F
100
AcDbEntity
  8
0
  6
Continuous
 62
     7
370
    25
100
AcDbSpline
210
0.0
220
0.0
230
1.0
 70
    24
 71
     3
 72
     9
 73
     5
 74
     0
 42
0.00000001
 43
0.00000001
 40
0.0
 40
0.0
 40
0.0
 40
0.0
 40
0.6107534067667755
 40
1.0
 40
1.0
 40
1.0
 40
1.0
 10
651.8598307551489
 20
589.8581224817535
 30
0.0
 10
650.1171566606885
 20
589.8581224817535
 30
0.0
 10
647.263837996965
 20
589.8581224817535
 30
0.0
 10
644.3129095329163
 20
589.8581224817535
 30
0.0
 10
643.1642706814102
 20
589.8581224817535
 30
0.0
  0
SPLINE
  5
2C9
330
1F
100
AcDbEntity
  8
0
  6
Continuous
 62
     7
370
    25
100
AcDbSpline
210
0.0
220
0.0
230
1.0
 70
    24
 71
     3
 72
     9
 73
     5
 74
     0
 42
0.00000001
 43
0.00000001
 40
0.0
 40
0.0
 40
0.0
 40
0.0
 40
0.4579879179035787
 40
1.0
 40
1.0
 40
1.0
 40
1.0
 10
640.4433257100908
 20
589.8581224817535
 30
0.0
 10
639.0957049613677
 20
589.8581224817535
 30
0.0
 10
636.1532239568647
 20
589.8581224817535
 30
0.0
 10
633.3040937504769
 20
589.8581224817535
 30
0.0
 10
631.7598307551489
 20
589.8581224817535
 30
0.0
  0
SPLINE
  5
2CA
330
1F
100
AcDbEntity
  8
0
  6
Continuous
 62
     7
370
    25
100
AcDbSpline
210
0.0
220
0.0
230
1.0
 70
    24
 71
     3
 72
    10
 73
     6
 74
     0
 42
0.00000001
 43
0.00000001
 40
0.0
 40
0.0
 40
0.0
 40
0.0
 40
0.1065254832549974
 40
0.700673621813144
 40
1.0
 40
1.0
 40
1.0
 40
1.0
 10
656.1809113530032
 20
582.3737913426697
 30
0.0
 10
656.0248069158803
 20
582.6441721590536
 30
0.0
 10
654.9980266751543
 20
584.422607704199
 30
0.0
 10
653.5458579538068
 20
586.937837710735
 30
0.0
 10
652.2829293770925
 20
589.1252941719348
 30
0.0
 10
651.8598307551489
 20
589.8581224817535
 30
0.0
  0
SPLINE
  5
2CB
330
1F
100
AcDbEntity
  8
0
  6
Continuous
 62
     7
370
    25
100
AcDbSpline
210
0.0
220
0.0
230
1.0
 70
    24
 71
     3
 72
     9
 73
     5
 74
     0
 42
0.00000001
 43
0.00000001
 40
0.0
 40
0.0
 40
0.0
 40
0.0
 40
0.6013992218796348
 40
1.0
 40
1.0
 40
1.0
 40
1.0
 10
651.859830755149
 20
555.0439012496191
 30
0.0
 10
652.7312607448088
 20
556.5532622669492
 30
0.0
 10
654.1802649303086
 20
559.0630111366148
 30
0.0
 10
655.678833129124
 20
561.65860739557
 30
0.0
 10
656.2761635792382
 20
562.6932140840759
 30
0.0
  0
SPLINE
  5
2CC
330
1F
100
AcDbEntity
  8
0
  6
Continuous
 62
     7
370
    25
100
AcDbSpline
210
0.0
220
0.0
230
1.0
 70
    24
 71
     3
 72
     9
 73
     5
 74
     0
 42
0.00000001
 43
0.00000001
 40
0.0
 40
0.0
 40
0.0
 40
0.0
 40
0.5895398352725424
 40
1.0
 40
1.0
 40
1.0
 40
1.0
 10
631.7598307551489
 20
555.0439012496191
 30
0.0
 10
633.5029264022943
 20
555.0439012496191
 30
0.0
 10
636.4596318577273
 20
555.0439012496191
 30
0.0
 10
639.5174594333557
 20
555.0439012496191
 30
0.0
 10
640.7725758437564
 20
555.0439012496191
 30
0.0
  0
SPLINE
  5
2CD
330
1F
100
AcDbEntity
  8
0
  6
Continuous
 62
     7
370
    25
100
AcDbSpline
210
0.0
220
0.0
230
1.0
 70
    24
 71
     3
 72
     9
 73
     5
 74
     0
 42
0.00000001
 43
0.00000001
 40
0.0
 40
0.0
 40
0.0
 40
0.0
 40
0.4357180853975516
 40
1.0
 40
1.0
 40
1.0
 40
1.0
 10
643.523030525276
 20
555.0439012496191
 30
0.0
 10
644.7542339087634
 20
555.0439012496191
 30
0.0
 10
647.5799219505253
 20
555.0439012496191
 30
0.0
 10
650.315943357326
 20
555.0439012496191
 30
0.0
 10
651.859830755149
 20
555.0439012496191
 30
0.0
  0
ARC
  5
2CE
330
1F
100
AcDbEntity
  8
0
  6
Continuous
 62
     7
370
    25
100
AcDbCircle
 10
641.8098307551
 20
572.4510118657
 30
0.0
 40
25.80000000000008
100
AcDbArc
 50
12.4115863489
 51
90.0
  0
ARC
  5
2CF
330
1F
100
AcDbEntity
  8
0
  6
Continuous
 62
     7
370
    25
100
AcDbCircle
 10
641.8098307551
 20
572.4510118657
 30
0.0
 40
25.80000000000001
100
AcDbArc
 50
207.7177476896
 51
348.6987726895
  0
ARC
  5
2D0
330
1F
100
AcDbEntity
  8
0
  6
Continuous
 62
     7
370
    25
100
AcDbCircle
 10
641.8098307551
 20
572.4510118657
 30
0.0
 40
25.80000000000007
100
AcDbArc
 50
90.0
 51
152.2822523104
  0
ARC
  5
2D1
330
1F
100
AcDbEntity
  8
0
  6
Continuous
 62
     7
370
    25
100
AcDbCircle
 10
540.2098307551
 20
572.4510118657
 30
0.0
 40
25.79999999999997
100
AcDbArc
 50
191.8878037257
 51
270.0
  0
ARC
  5
2D2
330
1F
100
AcDbEntity
  8
0
  6
Continuous
 62
     7
370
    25
100
AcDbCircle
 10
540.2098307551
 20
572.4510118657
 30
0.0
 40
25.80000000000013
100
AcDbArc
 50
27.7177476896
 51
168.1712227504
  0
ARC
  5
2D3
330
1F
100
AcDbEntity
  8
0
  6
Continuous
 62
     7
370
    25
100
AcDbCircle
 10
540.2098307551
 20
572.4510118657
 30
0.0
 40
25.80000000000008
100
AcDbArc
 50
270.0
 51
332.2822523104
  0
ARC
  5
2D4
330
1F
100
AcDbEntity
  8
0
  6
Continuous
 62
     8
370
    25
100
AcDbCircle
 10
591.0570129488
 20
359.6680022816
 30
0.0
 40
7.852911808525906
100
AcDbArc
 50
269.6557510264
 51
359.7196557283
  0
ARC
  5
2D5
330
1F
100
AcDbEntity
  8
0
  6
Continuous
 62
     8
370
    25
100
AcDbCircle
 10
590.9626485615
 20
359.6680022816
 30
0.0
 40
7.852911808525867
100
AcDbArc
 50
180.2803442717
 51
270.3442489736
  0
ARC
  5
2D6
330
1F
100
AcDbEntity
  8
0
  6
Continuous
 62
     8
370
    25
100
AcDbCircle
 10
591.1054049994
 20
359.1838851509
 30
0.0
 40
9.721901268305128
100
AcDbArc
 50
269.4367265329
 51
36.6048083592
  0
ARC
  5
2D7
330
1F
100
AcDbEntity
  8
0
  6
Continuous
 62
     8
370
    25
100
AcDbCircle
 10
590.9142565109
 20
359.1838851509
 30
0.0
 40
9.721901268305128
100
AcDbArc
 50
143.3951916408
 51
270.5632734671
  0
LINE
  5
2D8
330
1F
100
AcDbEntity
  8
0
  6
Continuous
 62
     8
370
    25
100
AcDbLine
 10
601.3162161746
 20
356.8887280075
 30
0.0
 11
601.571909125
 21
356.8126522887
 31
0.0
  0
SPLINE
  5
2D9
330
1F
100
AcDbEntity
  8
0
  6
Continuous
 62
     8
370
    25
100
AcDbSpline
210
0.0
220
0.0
230
1.0
 70
     8
 71
     3
 72
    16
 73
    12
 74
     0
 42
0.00000001
 43
0.00000001
 40
0.0
 40
0.0
 40
0.0
 40
0.0
 40
0.0813136106776286
 40
0.1605245215906295
 40
0.2399383939261189
 40
0.2485515096895395
 40
0.3627608172497733
 40
0.4772794202588226
 40
0.636260309022655
 40
0.7954727285311637
 40
1.0
 40
1.0
 40
1.0
 40
1.0
 10
569.2294987842837
 20
572.4510118656863
 30
0.0
 10
569.2639228724607
 20
572.9815785864716
 30
0.0
 10
569.331880871617
 20
574.0289920307426
 30
0.0
 10
569.8447684946399
 20
575.4938587493463
 30
0.0
 10
570.3441660769068
 20
576.4178191797513
 30
0.0
 10
571.0335269417346
 20
577.4607561059541
 30
0.0
 10
571.9662855227696
 20
578.5743387840422
 30
0.0
 10
573.7136896032974
 20
580.078775332774
 30
0.0
 10
575.8515058208761
 20
581.4142987194788
 30
0.0
 10
578.5758199070501
 20
582.6791253305134
 30
0.0
 10
580.5663270649223
 20
583.1863290170375
 30
0.0
 10
581.6855697759527
 20
583.4715246903635
 30
0.0
  0
SPLINE
  5
2DA
330
1F
100
AcDbEntity
  8
0
  6
Continuous
 62
     8
370
    25
100
AcDbSpline
210
0.0
220
0.0
230
1.0
 70
     8
 71
     3
 72
    22
 73
    18
 74
     0
 42
0.00000001
 43
0.00000001
 40
0.0
 40
0.0
 40
0.0
 40
0.0
 40
0.0548501486744597
 40
0.1474278671145922
 40
0.239851037725328
 40
0.3011288096395733
 40
0.3622403237677993
 40
0.4412200829098666
 40
0.4976021554364899
 40
0.5190868552186536
 40
0.5842911581687472
 40
0.5987533137389253
 40
0.6509092592258143
 40
0.7032167715925546
 40
0.8180524559654037
 40
0.9334145944752545
 40
1.0
 40
1.0
 40
1.0
 40
1.0
 10
600.504497750761
 20
583.4140888733452
 30
0.0
 10
601.1035363052661
 20
583.2843330092127
 30
0.0
 10
602.7136500158822
 20
582.9355713238394
 30
0.0
 10
605.2381407749828
 20
581.8904476419909
 30
0.0
 10
607.7103408663066
 20
580.5085456882035
 30
0.0
 10
609.6872184369711
 20
578.9348864868797
 30
0.0
 10
611.3185423043599
 20
577.14000712732
 30
0.0
 10
612.5117075369108
 20
574.9410886845685
 30
0.0
 10
612.833192002467
 20
572.901549166271
 30
0.0
 10
612.7249780956395
 20
571.0525182608635
 30
0.0
 10
612.3402047555926
 20
569.7832112992529
 30
0.0
 10
611.5949973277637
 20
568.3171448704976
 30
0.0
 10
610.7581381555227
 20
567.1112150988308
 30
0.0
 10
608.9208568012164
 20
565.235995291196
 30
0.0
 10
606.1705922357123
 20
563.4161115400715
 30
0.0
 10
603.064151263458
 20
562.0652558545896
 30
0.0
 10
601.0784470698069
 20
561.6087575131652
 30
0.0
 10
600.3517600475225
 20
561.4416976754169
 30
0.0
  0
SPLINE
  5
2DB
330
1F
100
AcDbEntity
  8
0
  6
Continuous
 62
     8
370
    25
100
AcDbSpline
210
0.0
220
0.0
230
1.0
 70
     8
 71
     3
 72
    15
 73
    11
 74
     0
 42
0.00000001
 43
0.00000001
 40
0.0
 40
0.0
 40
0.0
 40
0.0
 40
0.1356074283402459
 40
0.33653132119238
 40
0.5369290073916106
 40
0.6510792735929297
 40
0.7648988259617964
 40
0.8428970417417385
 40
0.9207098208557686
 40
1.0
 40
1.0
 40
1.0
 40
1.0
 10
581.5266780248197
 20
561.4853773141043
 30
0.0
 10
580.7894777097108
 20
561.6552973429018
 30
0.0
 10
578.9599983141972
 20
562.0769808191548
 30
0.0
 10
576.1611593043123
 20
563.294449241878
 30
0.0
 10
573.6281069512979
 20
564.8571884335036
 30
0.0
 10
571.7490514427038
 20
566.553614586503
 30
0.0
 10
570.589353448215
 20
568.0109492702287
 30
0.0
 10
569.807915998418
 20
569.496792862431
 30
0.0
 10
569.3251290743549
 20
570.9241117411322
 30
0.0
 10
569.2615747697148
 20
571.9388642384686
 30
0.0
 10
569.2294987842837
 20
572.4510118656863
 30
0.0
  0
SPLINE
  5
2DC
330
1F
100
AcDbEntity
  8
0
  6
Continuous
 62
     8
370
    25
100
AcDbSpline
210
0.0
220
0.0
230
1.0
 70
     8
 71
     3
 72
    13
 73
     9
 74
     0
 42
0.00000001
 43
0.00000001
 40
0.0
 40
0.0
 40
0.0
 40
0.0
 40
0.3086666203666626
 40
0.5142621733706844
 40
0.7190596684657822
 40
0.8855704991864171
 40
0.9383245446192237
 40
0.9999999999999999
 40
0.9999999999999999
 40
0.9999999999999999
 40
0.9999999999999999
 10
562.8231011953131
 20
565.2510118656862
 30
0.0
 10
562.0044352218816
 20
564.43976870796
 30
0.0
 10
560.6404751595289
 20
563.0881756237163
 30
0.0
 10
558.6511913691191
 20
561.7760432906784
 30
0.0
 10
557.2260699765101
 20
560.9604586284081
 30
0.0
 10
556.4757616627008
 20
560.5892311459986
 30
0.0
 10
556.2237578939595
 20
560.4672173961123
 30
0.0
 10
556.2026138535525
 20
560.4571245969008
 30
0.0
 10
556.191217593747
 20
560.451684758546
 30
0.0
  0
SPLINE
  5
2DD
330
1F
100
AcDbEntity
  8
0
  6
Continuous
 62
     8
370
    25
100
AcDbSpline
210
0.0
220
0.0
230
1.0
 70
     8
 71
     3
 72
    14
 73
    10
 74
     0
 42
0.00000001
 43
0.00000001
 40
0.0
 40
0.0
 40
0.0
 40
0.0
 40
0.0338798349213868
 40
0.1227421508784748
 40
0.2393281591277285
 40
0.3605356821029859
 40
0.5545781384082168
 40
0.7532638884838184
 40
1.0
 40
1.0
 40
1.0
 40
1.0
 10
556.2418512023814
 20
584.425906716802
 30
0.0
 10
556.2252795281582
 20
584.4339109506982
 30
0.0
 10
556.1652425491551
 20
584.4629092290787
 30
0.0
 10
556.4184821662606
 20
584.3412707427724
 30
0.0
 10
556.9189078608747
 20
584.09185948068
 30
0.0
 10
557.8800124935489
 20
583.5790914808779
 30
0.0
 10
559.2186620026392
 20
582.7663497968531
 30
0.0
 10
560.9980212805617
 20
581.5036584161181
 30
0.0
 10
562.1725082109485
 20
580.3114316305838
 30
0.0
 10
562.823101195304
 20
579.6510118656963
 30
0.0
  0
SPLINE
  5
2DE
330
1F
100
AcDbEntity
  8
0
  6
Continuous
 62
     8
370
    25
100
AcDbSpline
210
0.0
220
0.0
230
1.0
 70
     8
 71
     3
 72
    13
 73
     9
 74
     0
 42
0.00000001
 43
0.00000001
 40
0.0
 40
0.0
 40
0.0
 40
0.0
 40
0.0616922022216504
 40
0.2371793411625724
 40
0.2807256766604107
 40
0.4874081997787608
 40
0.6949077770689956
 40
1.0
 40
1.0
 40
1.0
 40
1.0
 10
625.8284432061222
 20
560.4516851001624
 30
0.0
 10
625.8163369011884
 20
560.4574741248842
 30
0.0
 10
625.7697934917348
 20
560.4797303747836
 30
0.0
 10
625.3377909086963
 20
560.6890163316474
 30
0.0
 10
624.4862661565608
 20
561.1353875248426
 30
0.0
 10
623.3543763598665
 20
561.7846093892658
 30
0.0
 10
621.3634643012554
 20
563.1006181801203
 30
0.0
 10
620.0050701248019
 20
564.4486623380816
 30
0.0
 10
619.1965603149847
 20
565.2510118656863
 30
0.0
  0
SPLINE
  5
2DF
330
1F
100
AcDbEntity
  8
0
  6
Continuous
 62
     8
370
    25
100
AcDbSpline
210
0.0
220
0.0
230
1.0
 70
     8
 71
     3
 72
    13
 73
     9
 74
     0
 42
0.00000001
 43
0.00000001
 40
0.0
 40
0.0
 40
0.0
 40
0.0
 40
0.2468401447522193
 40
0.4413214184201102
 40
0.6397303158264488
 40
0.7568699325279541
 40
0.8776157042435766
 40
1.0
 40
1.0
 40
1.0
 40
1.0
 10
619.1965603149847
 20
579.6510118656863
 30
0.0
 10
619.8473919585127
 20
580.3116278635132
 30
0.0
 10
621.0110031059731
 20
581.4927322964434
 30
0.0
 10
622.7867561643891
 20
582.7575173148608
 30
0.0
 10
624.1259734930806
 20
583.5706431241678
 30
0.0
 10
625.078249130469
 20
584.0808876580955
 30
0.0
 10
625.7028615297215
 20
584.3909278575208
 30
0.0
 10
625.7687333898308
 20
584.4218924936429
 30
0.0
 10
625.8018912846705
 20
584.4374791515355
 30
0.0
  0
ARC
  5
2E0
330
1F
100
AcDbEntity
  8
0
  6
Continuous
 62
     8
370
    25
100
AcDbCircle
 10
591.0098307551
 20
572.4510118657
 30
0.0
 40
11.05993649053887
100
AcDbArc
 50
182.3675813795
 51
224.4149728023
  0
ARC
  5
2E1
330
1F
100
AcDbEntity
  8
0
  6
Continuous
 62
     8
370
    25
100
AcDbCircle
 10
591.0098307551
 20
572.4510118657
 30
0.0
 40
11.05993649053903
100
AcDbArc
 50
315.5850271977
 51
182.3675813795
  0
ARC
  5
2E2
330
1F
100
AcDbEntity
  8
0
  6
Continuous
 62
     8
370
    25
100
AcDbCircle
 10
591.0098307551
 20
572.4510118657
 30
0.0
 40
11.30993649053903
100
AcDbArc
 50
314.3068486059
 51
182.3675813795
  0
ARC
  5
2E3
330
1F
100
AcDbEntity
  8
0
  6
Continuous
 62
     8
370
    25
100
AcDbCircle
 10
591.0098307551
 20
572.4510118657
 30
0.0
 40
11.30993649053887
100
AcDbArc
 50
182.3675813795
 51
225.6931513941
  0
SPLINE
  5
2E4
330
1F
100
AcDbEntity
  8
0
  6
Continuous
 62
     8
370
    25
100
AcDbSpline
210
0.0
220
0.0
230
1.0
 70
     8
 71
     3
 72
     9
 73
     5
 74
     0
 42
0.00000001
 43
0.00000001
 40
0.0
 40
0.0
 40
0.0
 40
0.0
 40
0.5050734883508607
 40
1.0
 40
1.0
 40
1.0
 40
1.0
 10
581.4362636783951
 20
561.604012598222
 30
0.0
 10
581.7112344883537
 20
561.4152139001767
 30
0.0
 10
582.2556519173035
 20
561.0414094887399
 30
0.0
 10
582.8270370865336
 20
560.7094725297419
 30
0.0
 10
583.1098307551487
 20
560.5451881285377
 30
0.0
  0
SPLINE
  5
2E5
330
1F
100
AcDbEntity
  8
0
  6
Continuous
 62
     8
370
    25
100
AcDbSpline
210
0.0
220
0.0
230
1.0
 70
     8
 71
     3
 72
     9
 73
     5
 74
     0
 42
0.00000001
 43
0.00000001
 40
0.0
 40
0.0
 40
0.0
 40
0.0
 40
0.1103590486141665
 40
1.0
 40
1.0
 40
1.0
 40
1.0
 10
598.9098307551487
 20
560.5819043499071
 30
0.0
 10
599.0077576467103
 20
560.6431899982921
 30
0.0
 10
599.8951057417819
 20
561.1985196169742
 30
0.0
 10
600.7159166635657
 20
561.8509260920323
 30
0.0
 10
601.4461436729293
 20
562.4313336091933
 30
0.0
  0
ARC
  5
2E6
330
1F
100
AcDbEntity
  8
0
  6
Continuous
 62
     8
370
    25
100
AcDbCircle
 10
591.0098307551
 20
572.4510118657
 30
0.0
 40
9.374999999999927
100
AcDbArc
 50
119.4063269879
 51
212.5772063232
  0
ARC
  5
2E7
330
1F
100
AcDbEntity
  8
0
  6
Continuous
 62
     8
370
    25
100
AcDbCircle
 10
591.0098307551
 20
572.4510118657
 30
0.0
 40
9.375000000000025
100
AcDbArc
 50
327.4227936768
 51
119.4063269879
  0
ARC
  5
2E8
330
1F
100
AcDbEntity
  8
0
  6
Continuous
 62
     8
370
    25
100
AcDbCircle
 10
641.8098307551
 20
572.4510118657
 30
0.0
 40
24.80000000000007
100
AcDbArc
 50
90.0
 51
151.0614722598
  0
ARC
  5
2E9
330
1F
100
AcDbEntity
  8
0
  6
Continuous
 62
     8
370
    25
100
AcDbCircle
 10
641.8098307551
 20
572.4510118657
 30
0.0
 40
24.80000000000003
100
AcDbArc
 50
208.9385277402
 51
347.9392347295
  0
ARC
  5
2EA
330
1F
100
AcDbEntity
  8
0
  6
Continuous
 62
     8
370
    25
100
AcDbCircle
 10
641.8098307551
 20
572.4510118657
 30
0.0
 40
24.80000000000007
100
AcDbArc
 50
13.3628686068
 51
90.0
  0
ARC
  5
2EB
330
1F
100
AcDbEntity
  8
0
  6
Continuous
 62
     8
370
    25
100
AcDbCircle
 10
540.2098307551
 20
572.4510118657
 30
0.0
 40
24.79999999999996
100
AcDbArc
 50
270.0
 51
331.0614722598
  0
ARC
  5
2EC
330
1F
100
AcDbEntity
  8
0
  6
Continuous
 62
     8
370
    25
100
AcDbCircle
 10
540.2098307551
 20
572.4510118657
 30
0.0
 40
24.80000000000001
100
AcDbArc
 50
28.9385277402
 51
167.2873382907
  0
ARC
  5
2ED
330
1F
100
AcDbEntity
  8
0
  6
Continuous
 62
     8
370
    25
100
AcDbCircle
 10
540.2098307551
 20
572.4510118657
 30
0.0
 40
24.79999999999997
100
AcDbArc
 50
192.7661704488
 51
270.0
  0
ENDSEC
  0
SECTION
  2
OBJECTS
  0
DICTIONARY
  5
C
330
0
100
AcDbDictionary
281
     1
  3
ACAD_GROUP
350
D
  3
ACAD_LAYOUT
350
1A
  3
ACAD_MLINESTYLE
350
17
  3
ACAD_PLOTSETTINGS
350
19
  3
ACAD_PLOTSTYLENAME
350
E
  3
ACAD_SCALELIST
350
47
  3
DWGPROPS
350
2EE
  0
DICTIONARY
  5
D
102
{ACAD_REACTORS
330
C
102
}
330
C
100
AcDbDictionary
281
     1
  0
DICTIONARY
  5
1A
102
{ACAD_REACTORS
330
C
102
}
330
C
100
AcDbDictionary
281
     1
  3
Layout1
350
1E
  3
Layout2
350
26
  3
Model
350
22
  0
DICTIONARY
  5
17
102
{ACAD_REACTORS
330
C
102
}
330
C
100
AcDbDictionary
281
     1
  3
Standard
350
18
  0
DICTIONARY
  5
19
102
{ACAD_REACTORS
330
C
102
}
330
C
100
AcDbDictionary
281
     1
  0
ACDBDICTIONARYWDFLT
  5
E
102
{ACAD_REACTORS
330
C
102
}
330
C
100
AcDbDictionary
281
     1
  3
Normal
350
F
100
AcDbDictionaryWithDefault
340
F
  0
DICTIONARY
  5
47
102
{ACAD_REACTORS
330
C
102
}
330
C
100
AcDbDictionary
281
     1
  3
A0
350
48
  3
A1
350
49
  3
A2
350
4A
  3
A3
350
4B
  3
A4
350
4C
  3
A5
350
4D
  3
A6
350
4E
  3
A7
350
4F
  3
A8
350
50
  3
A9
350
51
  3
B0
350
52
  3
B1
350
53
  3
B2
350
54
  3
B3
350
55
  3
B4
350
56
  3
B5
350
57
  3
B6
350
58
  3
B7
350
59
  3
B8
350
5A
  3
B9
350
5B
  3
C0
350
5C
  3
C1
350
5D
  3
C2
350
5E
  3
C3
350
5F
  3
C4
350
60
  3
C5
350
61
  3
C6
350
62
  3
C7
350
63
  3
C8
350
64
  3
C9
350
65
  3
D0
350
66
  3
D1
350
67
  3
D2
350
68
  0
XRECORD
  5
2EE
102
{ACAD_REACTORS
330
C
102
}
330
C
100
AcDbXrecord
280
     1
  1
DWGPROPS COOKIE
  2

  3

  4

  6

  7

  8
designer5
  9

300
=
301
=
302
=
303
=
304
=
305
=
306
=
307
=
308
=
309
=
 40
0.0
 41
2460383.241152408
 42
2460383.241153125
  1

 90
        0
  0
LAYOUT
  5
1E
102
{ACAD_REACTORS
330
1A
102
}
330
1A
100
AcDbPlotSettings
  1

  2
none_device
  4

  6

 40
0.0
 41
0.0
 42
0.0
 43
0.0
 44
0.0
 45
0.0
 46
0.0
 47
0.0
 48
0.0
 49
0.0
140
0.0
141
0.0
142
1.0
143
1.0
 70
   688
 72
     1
 73
     0
 74
     5
  7

 75
    16
147
1.0
148
0.0
149
0.0
100
AcDbLayout
  1
Layout1
 70
     1
 71
     1
 10
0.0
 20
0.0
 11
420.0
 21
297.0
 12
0.0
 22
0.0
 32
0.0
 14
1.0000000000E+20
 24
1.0000000000E+20
 34
1.0000000000E+20
 15
-1.0000000000E+20
 25
-1.0000000000E+20
 35
-1.0000000000E+20
146
0.0
 13
0.0
 23
0.0
 33
0.0
 16
1.0
 26
0.0
 36
0.0
 17
0.0
 27
1.0
 37
0.0
 76
     0
330
1B
  0
LAYOUT
  5
26
102
{ACAD_REACTORS
330
1A
102
}
330
1A
100
AcDbPlotSettings
  1

  2
none_device
  4

  6

 40
0.0
 41
0.0
 42
0.0
 43
0.0
 44
0.0
 45
0.0
 46
0.0
 47
0.0
 48
0.0
 49
0.0
140
0.0
141
0.0
142
1.0
143
1.0
 70
   688
 72
     1
 73
     0
 74
     5
  7

 75
    16
147
1.0
148
0.0
149
0.0
100
AcDbLayout
  1
Layout2
 70
     1
 71
     2
 10
0.0
 20
0.0
 11
0.0
 21
0.0
 12
0.0
 22
0.0
 32
0.0
 14
0.0
 24
0.0
 34
0.0
 15
0.0
 25
0.0
 35
0.0
146
0.0
 13
0.0
 23
0.0
 33
0.0
 16
1.0
 26
0.0
 36
0.0
 17
0.0
 27
1.0
 37
0.0
 76
     0
330
23
  0
LAYOUT
  5
22
102
{ACAD_REACTORS
330
1A
102
}
330
1A
100
AcDbPlotSettings
  1

  2
none_device
  4
Letter_(8.50_x_11.00_Inches)
  6

 40
6.35
 41
6.35
 42
6.35000508
 43
6.35000508
 44
215.9
 45
279.4
 46
0.0
 47
0.0
 48
0.0
 49
0.0
140
0.0
141
0.0
142
1.0
143
1.0
 70
  1712
 72
     1
 73
     0
 74
     0
  7

 75
     0
147
1.0
148
0.0
149
0.0
100
AcDbLayout
  1
Model
 70
     1
 71
     0
 10
0.0
 20
0.0
 11
1189.0
 21
841.0
 12
0.0
 22
0.0
 32
0.0
 14
0.0
 24
0.0
 34
0.0
 15
1189.0
 25
841.0
 35
0.0
146
0.0
 13
0.0
 23
0.0
 33
0.0
 16
1.0
 26
0.0
 36
0.0
 17
0.0
 27
1.0
 37
0.0
 76
     0
330
1F
331
29
  0
MLINESTYLE
  5
18
102
{ACAD_REACTORS
330
17
102
}
330
17
100
AcDbMlineStyle
  2
Standard
 70
     0
  3

 62
   256
 51
90.0
 52
90.0
 71
     2
 49
0.5
 62
   256
  6
BYLAYER
 49
-0.5
 62
   256
  6
BYLAYER
  0
ACDBPLACEHOLDER
  5
F
102
{ACAD_REACTORS
330
E
102
}
330
E
  0
SCALE
  5
48
102
{ACAD_REACTORS
330
47
102
}
330
47
100
AcDbScale
 70
     0
300
1:1
140
1.0
141
1.0
290
     1
  0
SCALE
  5
49
102
{ACAD_REACTORS
330
47
102
}
330
47
100
AcDbScale
 70
     0
300
1:2
140
1.0
141
2.0
290
     0
  0
SCALE
  5
4A
102
{ACAD_REACTORS
330
47
102
}
330
47
100
AcDbScale
 70
     0
300
1:4
140
1.0
141
4.0
290
     0
  0
SCALE
  5
4B
102
{ACAD_REACTORS
330
47
102
}
330
47
100
AcDbScale
 70
     0
300
1:5
140
1.0
141
5.0
290
     0
  0
SCALE
  5
4C
102
{ACAD_REACTORS
330
47
102
}
330
47
100
AcDbScale
 70
     0
300
1:8
140
1.0
141
8.0
290
     0
  0
SCALE
  5
4D
102
{ACAD_REACTORS
330
47
102
}
330
47
100
AcDbScale
 70
     0
300
1:10
140
1.0
141
10.0
290
     0
  0
SCALE
  5
4E
102
{ACAD_REACTORS
330
47
102
}
330
47
100
AcDbScale
 70
     0
300
1:16
140
1.0
141
16.0
290
     0
  0
SCALE
  5
4F
102
{ACAD_REACTORS
330
47
102
}
330
47
100
AcDbScale
 70
     0
300
1:20
140
1.0
141
20.0
290
     0
  0
SCALE
  5
50
102
{ACAD_REACTORS
330
47
102
}
330
47
100
AcDbScale
 70
     0
300
1:30
140
1.0
141
30.0
290
     0
  0
SCALE
  5
51
102
{ACAD_REACTORS
330
47
102
}
330
47
100
AcDbScale
 70
     0
300
1:40
140
1.0
141
40.0
290
     0
  0
SCALE
  5
52
102
{ACAD_REACTORS
330
47
102
}
330
47
100
AcDbScale
 70
     0
300
1:50
140
1.0
141
50.0
290
     0
  0
SCALE
  5
53
102
{ACAD_REACTORS
330
47
102
}
330
47
100
AcDbScale
 70
     0
300
1:100
140
1.0
141
100.0
290
     0
  0
SCALE
  5
54
102
{ACAD_REACTORS
330
47
102
}
330
47
100
AcDbScale
 70
     0
300
2:1
140
2.0
141
1.0
290
     0
  0
SCALE
  5
55
102
{ACAD_REACTORS
330
47
102
}
330
47
100
AcDbScale
 70
     0
300
4:1
140
4.0
141
1.0
290
     0
  0
SCALE
  5
56
102
{ACAD_REACTORS
330
47
102
}
330
47
100
AcDbScale
 70
     0
300
8:1
140
8.0
141
1.0
290
     0
  0
SCALE
  5
57
102
{ACAD_REACTORS
330
47
102
}
330
47
100
AcDbScale
 70
     0
300
10:1
140
10.0
141
1.0
290
     0
  0
SCALE
  5
58
102
{ACAD_REACTORS
330
47
102
}
330
47
100
AcDbScale
 70
     0
300
100:1
140
100.0
141
1.0
290
     0
  0
SCALE
  5
59
102
{ACAD_REACTORS
330
47
102
}
330
47
100
AcDbScale
 70
     0
300
1/128" = 1'-0"
140
0.0078125
141
12.0
290
     0
  0
SCALE
  5
5A
102
{ACAD_REACTORS
330
47
102
}
330
47
100
AcDbScale
 70
     0
300
1/64" = 1'-0"
140
0.015625
141
12.0
290
     0
  0
SCALE
  5
5B
102
{ACAD_REACTORS
330
47
102
}
330
47
100
AcDbScale
 70
     0
300
1/32" = 1'-0"
140
0.03125
141
12.0
290
     0
  0
SCALE
  5
5C
102
{ACAD_REACTORS
330
47
102
}
330
47
100
AcDbScale
 70
     0
300
1/16" = 1'-0"
140
0.0625
141
12.0
290
     0
  0
SCALE
  5
5D
102
{ACAD_REACTORS
330
47
102
}
330
47
100
AcDbScale
 70
     0
300
3/32" = 1'-0"
140
0.09375
141
12.0
290
     0
  0
SCALE
  5
5E
102
{ACAD_REACTORS
330
47
102
}
330
47
100
AcDbScale
 70
     0
300
1/8" = 1'-0"
140
0.125
141
12.0
290
     0
  0
SCALE
  5
5F
102
{ACAD_REACTORS
330
47
102
}
330
47
100
AcDbScale
 70
     0
300
3/16" = 1'-0"
140
0.1875
141
12.0
290
     0
  0
SCALE
  5
60
102
{ACAD_REACTORS
330
47
102
}
330
47
100
AcDbScale
 70
     0
300
1/4" = 1'-0"
140
0.25
141
12.0
290
     0
  0
SCALE
  5
61
102
{ACAD_REACTORS
330
47
102
}
330
47
100
AcDbScale
 70
     0
300
3/8" = 1'-0"
140
0.375
141
12.0
290
     0
  0
SCALE
  5
62
102
{ACAD_REACTORS
330
47
102
}
330
47
100
AcDbScale
 70
     0
300
1/2" = 1'-0"
140
0.5
141
12.0
290
     0
  0
SCALE
  5
63
102
{ACAD_REACTORS
330
47
102
}
330
47
100
AcDbScale
 70
     0
300
3/4" = 1'-0"
140
0.75
141
12.0
290
     0
  0
SCALE
  5
64
102
{ACAD_REACTORS
330
47
102
}
330
47
100
AcDbScale
 70
     0
300
1" = 1'-0"
140
1.0
141
12.0
290
     0
  0
SCALE
  5
65
102
{ACAD_REACTORS
330
47
102
}
330
47
100
AcDbScale
 70
     0
300
1-1/2" = 1'-0"
140
1.5
141
12.0
290
     0
  0
SCALE
  5
66
102
{ACAD_REACTORS
330
47
102
}
330
47
100
AcDbScale
 70
     0
300
3" = 1'-0"
140
3.0
141
12.0
290
     0
  0
SCALE
  5
67
102
{ACAD_REACTORS
330
47
102
}
330
47
100
AcDbScale
 70
     0
300
6" = 1'-0"
140
6.0
141
12.0
290
     0
  0
SCALE
  5
68
102
{ACAD_REACTORS
330
47
102
}
330
47
100
AcDbScale
 70
     0
300
1'-0" = 1'-0"
140
12.0
141
12.0
290
     0
  0
ENDSEC
  0
EOF
