  0
SECTION
  2
HEADER
  9
$ACADVER
  1
AC1015
  9
$ACADMAINTVER
 70
     6
  9
$DWGCODEPAGE
  3
ANSI_1252
  9
$INSBASE
 10
0.0
 20
0.0
 30
0.0
  9
$EXTMIN
 10
0.0
 20
0.0
 30
0.0
  9
$EXTMAX
 10
1189.0
 20
841.0
 30
0.0
  9
$LIMMIN
 10
0.0
 20
0.0
  9
$LIMMAX
 10
1189.0
 20
841.0
  9
$ORTHOMODE
 70
     0
  9
$REGENMODE
 70
     1
  9
$FILLMODE
 70
     1
  9
$QTEXTMODE
 70
     0
  9
$MIRRTEXT
 70
     1
  9
$LTSCALE
 40
1.0
  9
$ATTMODE
 70
     1
  9
$TEXTSIZE
 40
3.5
  9
$TRACEWID
 40
1.0
  9
$TEXTSTYLE
  7
Standard
  9
$CLAYER
  8
0
  9
$CELTYPE
  6
ByLayer
  9
$CECOLOR
 62
   256
  9
$CELTSCALE
 40
1.0
  9
$DISPSILH
 70
     0
  9
$DIMSCALE
 40
1.0
  9
$DIMASZ
 40
3.302
  9
$DIMEXO
 40
1.0
  9
$DIMDLI
 40
3.75
  9
$DIMRND
 40
0.0
  9
$DIMDLE
 40
0.0
  9
$DIMEXE
 40
1.0
  9
$DIMTP
 40
0.0
  9
$DIMTM
 40
0.0
  9
$DIMTXT
 40
3.5
  9
$DIMCEN
 40
2.5
  9
$DIMTSZ
 40
0.0
  9
$DIMTOL
 70
     0
  9
$DIMLIM
 70
     0
  9
$DIMTIH
 70
     1
  9
$DIMTOH
 70
     1
  9
$DIMSE1
 70
     0
  9
$DIMSE2
 70
     0
  9
$DIMTAD
 70
     1
  9
$DIMZIN
 70
     1
  9
$DIMBLK
  1

  9
$DIMASO
 70
     1
  9
$DIMSHO
 70
     1
  9
$DIMPOST
  1

  9
$DIMAPOST
  1

  9
$DIMALT
 70
     0
  9
$DIMALTD
 70
     3
  9
$DIMALTF
 40
0.0393700787
  9
$DIMLFAC
 40
1.0
  9
$DIMTOFL
 70
     1
  9
$DIMTVP
 40
0.0
  9
$DIMTIX
 70
     0
  9
$DIMSOXD
 70
     0
  9
$DIMSAH
 70
     0
  9
$DIMBLK1
  1

  9
$DIMBLK2
  1

  9
$DIMSTYLE
  2
ISO-25
  9
$DIMCLRD
 70
     0
  9
$DIMCLRE
 70
     0
  9
$DIMCLRT
 70
     0
  9
$DIMTFAC
 40
1.0
  9
$DIMGAP
 40
1.524
  9
$DIMJUST
 70
     0
  9
$DIMSD1
 70
     0
  9
$DIMSD2
 70
     0
  9
$DIMTOLJ
 70
     0
  9
$DIMTZIN
 70
     1
  9
$DIMALTZ
 70
     0
  9
$DIMALTTZ
 70
     0
  9
$DIMUPT
 70
     0
  9
$DIMDEC
 70
     2
  9
$DIMTDEC
 70
     2
  9
$DIMALTU
 70
     2
  9
$DIMALTTD
 70
     3
  9
$DIMTXSTY
  7
Standard
  9
$DIMAUNIT
 70
     0
  9
$DIMADEC
 70
     2
  9
$DIMALTRND
 40
0.0
  9
$DIMAZIN
 70
     0
  9
$DIMDSEP
 70
    44
  9
$DIMATFIT
 70
     3
  9
$DIMFRAC
 70
     0
  9
$DIMLDRBLK
  1

  9
$DIMLUNIT
 70
     2
  9
$DIMLWD
 70
    -2
  9
$DIMLWE
 70
    -2
  9
$DIMTMOVE
 70
     0
  9
$LUNITS
 70
     2
  9
$LUPREC
 70
     2
  9
$SKETCHINC
 40
1.0
  9
$FILLETRAD
 40
10.0
  9
$AUNITS
 70
     0
  9
$AUPREC
 70
     2
  9
$MENU
  1
.
  9
$ELEVATION
 40
0.0
  9
$PELEVATION
 40
0.0
  9
$THICKNESS
 40
0.0
  9
$LIMCHECK
 70
     0
  9
$CHAMFERA
 40
0.0
  9
$CHAMFERB
 40
0.0
  9
$CHAMFERC
 40
0.0
  9
$CHAMFERD
 40
0.0
  9
$SKPOLY
 70
     0
  9
$TDCREATE
 40
2460383.447526817
  9
$TDUCREATE
 40
2460383.21836015
  9
$TDUPDATE
 40
2460383.447527361
  9
$TDUUPDATE
 40
2460383.218360695
  9
$TDINDWG
 40
0.0000000116
  9
$TDUSRTIMER
 40
0.0000000116
  9
$USRTIMER
 70
     1
  9
$ANGBASE
 50
0.0
  9
$ANGDIR
 70
     0
  9
$PDMODE
 70
     0
  9
$PDSIZE
 40
-1.0
  9
$PLINEWID
 40
0.0
  9
$SPLFRAME
 70
     0
  9
$SPLINETYPE
 70
     6
  9
$SPLINESEGS
 70
     8
  9
$HANDSEED
  5
2D9
  9
$SURFTAB1
 70
     6
  9
$SURFTAB2
 70
     6
  9
$SURFTYPE
 70
     6
  9
$SURFU
 70
     6
  9
$SURFV
 70
     6
  9
$UCSBASE
  2

  9
$UCSNAME
  2

  9
$UCSORG
 10
0.0
 20
0.0
 30
0.0
  9
$UCSXDIR
 10
1.0
 20
0.0
 30
0.0
  9
$UCSYDIR
 10
0.0
 20
1.0
 30
0.0
  9
$UCSORTHOREF
  2

  9
$UCSORTHOVIEW
 70
     0
  9
$UCSORGTOP
 10
0.0
 20
0.0
 30
0.0
  9
$UCSORGBOTTOM
 10
0.0
 20
0.0
 30
0.0
  9
$UCSORGLEFT
 10
0.0
 20
0.0
 30
0.0
  9
$UCSORGRIGHT
 10
0.0
 20
0.0
 30
0.0
  9
$UCSORGFRONT
 10
0.0
 20
0.0
 30
0.0
  9
$UCSORGBACK
 10
0.0
 20
0.0
 30
0.0
  9
$PUCSBASE
  2

  9
$PUCSNAME
  2

  9
$PUCSORG
 10
0.0
 20
0.0
 30
0.0
  9
$PUCSXDIR
 10
1.0
 20
0.0
 30
0.0
  9
$PUCSYDIR
 10
0.0
 20
1.0
 30
0.0
  9
$PUCSORTHOREF
  2

  9
$PUCSORTHOVIEW
 70
     0
  9
$PUCSORGTOP
 10
0.0
 20
0.0
 30
0.0
  9
$PUCSORGBOTTOM
 10
0.0
 20
0.0
 30
0.0
  9
$PUCSORGLEFT
 10
0.0
 20
0.0
 30
0.0
  9
$PUCSORGRIGHT
 10
0.0
 20
0.0
 30
0.0
  9
$PUCSORGFRONT
 10
0.0
 20
0.0
 30
0.0
  9
$PUCSORGBACK
 10
0.0
 20
0.0
 30
0.0
  9
$USERI1
 70
     0
  9
$USERI2
 70
     0
  9
$USERI3
 70
     0
  9
$USERI4
 70
     0
  9
$USERI5
 70
     0
  9
$USERR1
 40
0.0
  9
$USERR2
 40
0.0
  9
$USERR3
 40
0.0
  9
$USERR4
 40
0.0
  9
$USERR5
 40
0.0
  9
$WORLDVIEW
 70
     1
  9
$SHADEDGE
 70
     3
  9
$SHADEDIF
 70
    70
  9
$TILEMODE
 70
     1
  9
$MAXACTVP
 70
    64
  9
$PINSBASE
 10
0.0
 20
0.0
 30
0.0
  9
$PLIMCHECK
 70
     0
  9
$PEXTMIN
 10
1.0000000000E+20
 20
1.0000000000E+20
 30
1.0000000000E+20
  9
$PEXTMAX
 10
-1.0000000000E+20
 20
-1.0000000000E+20
 30
-1.0000000000E+20
  9
$PLIMMIN
 10
0.0
 20
0.0
  9
$PLIMMAX
 10
420.0
 20
297.0
  9
$UNITMODE
 70
     0
  9
$VISRETAIN
 70
     1
  9
$PLINEGEN
 70
     0
  9
$PSLTSCALE
 70
     1
  9
$TREEDEPTH
 70
  3020
  9
$CMLSTYLE
  2
Standard
  9
$CMLJUST
 70
     0
  9
$CMLSCALE
 40
20.0
  9
$PROXYGRAPHICS
 70
     1
  9
$MEASUREMENT
 70
     1
  9
$CELWEIGHT
370
    -1
  9
$ENDCAPS
280
     0
  9
$JOINSTYLE
280
     0
  9
$LWDISPLAY
290
     1
  9
$INSUNITS
 70
     4
  9
$HYPERLINKBASE
  1

  9
$STYLESHEET
  1

  9
$XEDIT
290
     1
  9
$CEPSNTYPE
380
     0
  9
$PSTYLEMODE
290
     1
  9
$FINGERPRINTGUID
  2
{9a6a2078-917c-48df-8c5c-6713c6ea112c}
  9
$VERSIONGUID
  2
{FAEB1C32-E019-11D5-929B-00C0DF256EC4}
  9
$EXTNAMES
290
     1
  9
$PSVPSCALE
 40
0.0
  9
$OLESTARTUP
290
     0
  0
ENDSEC
  0
SECTION
  2
CLASSES
  0
CLASS
  1
ACDBDICTIONARYWDFLT
  2
AcDbDictionaryWithDefault
  3
ObjectDBX Classes
 90
        0
280
     0
281
     0
  0
CLASS
  1
VISUALSTYLE
  2
AcDbVisualStyle
  3
ObjectDBX Classes
 90
     4095
280
     0
281
     0
  0
CLASS
  1
MATERIAL
  2
AcDbMaterial
  3
ObjectDBX Classes
 90
     1153
280
     0
281
     0
  0
CLASS
  1
SCALE
  2
AcDbScale
  3
ObjectDBX Classes
 90
     1153
280
     0
281
     0
  0
CLASS
  1
TABLESTYLE
  2
AcDbTableStyle
  3
ObjectDBX Classes
 90
     4095
280
     0
281
     0
  0
CLASS
  1
MLEADERSTYLE
  2
AcDbMLeaderStyle
  3
ACDB_MLEADERSTYLE_CLASS
 90
     4095
280
     0
281
     0
  0
CLASS
  1
SUN
  2
AcDbSun
  3
SCENEOE
 90
     1153
280
     0
281
     0
  0
CLASS
  1
ACDBPLACEHOLDER
  2
AcDbPlaceHolder
  3
ObjectDBX Classes
 90
        0
280
     0
281
     0
  0
CLASS
  1
LAYOUT
  2
AcDbLayout
  3
ObjectDBX Classes
 90
        0
280
     0
281
     0
  0
ENDSEC
  0
SECTION
  2
TABLES
  0
TABLE
  2
VPORT
  5
8
330
0
100
AcDbSymbolTable
 70
     1
  0
VPORT
  5
29
330
8
100
AcDbSymbolTableRecord
100
AcDbViewportTableRecord
  2
*Active
 70
     0
 10
0.0
 20
0.0
 11
1.0
 21
1.0
 12
594.5
 22
420.5
 13
0.0
 23
0.0
 14
10.0
 24
10.0
 15
10.0
 25
10.0
 16
0.0
 26
0.0
 36
1.0
 17
0.0
 27
0.0
 37
0.0
 40
841.0
 41
1.4137931034
 42
50.0
 43
0.0
 44
0.0
 50
0.0
 51
0.0
 71
     0
 72
  2000
 73
     1
 74
     3
 75
     0
 76
     0
 77
     0
 78
     0
281
     0
 65
     1
110
0.0
120
0.0
130
0.0
111
1.0
121
0.0
131
0.0
112
0.0
122
1.0
132
0.0
 79
     0
146
0.0
  0
ENDTAB
  0
TABLE
  2
LTYPE
  5
5
330
0
100
AcDbSymbolTable
 70
     6
  0
LTYPE
  5
14
330
5
100
AcDbSymbolTableRecord
100
AcDbLinetypeTableRecord
  2
ByBlock
 70
     0
  3

 72
    65
 73
     0
 40
0.0
  0
LTYPE
  5
15
330
5
100
AcDbSymbolTableRecord
100
AcDbLinetypeTableRecord
  2
ByLayer
 70
     0
  3

 72
    65
 73
     0
 40
0.0
  0
LTYPE
  5
16
330
5
100
AcDbSymbolTableRecord
100
AcDbLinetypeTableRecord
  2
Continuous
 70
     0
  3
Solid line
 72
    65
 73
     0
 40
0.0
  0
LTYPE
  5
6E
330
5
100
AcDbSymbolTableRecord
100
AcDbLinetypeTableRecord
  2
HIDDEN
 70
     0
  3
Hidden __ __ __ __ __ __ __ __ __ __ __ __ __ __
 72
    65
 73
     2
 40
1.905
 49
1.27
 74
     0
 49
-0.635
 74
     0
  0
LTYPE
  5
6F
330
5
100
AcDbSymbolTableRecord
100
AcDbLinetypeTableRecord
  2
PHANTOM
 70
     0
  3
Phantom ______  __  __  ______  __  __  ______
 72
    65
 73
     6
 40
12.7
 49
6.35
 74
     0
 49
-1.27
 74
     0
 49
1.27
 74
     0
 49
-1.27
 74
     0
 49
1.27
 74
     0
 49
-1.27
 74
     0
  0
LTYPE
  5
70
330
5
100
AcDbSymbolTableRecord
100
AcDbLinetypeTableRecord
  2
CENTER
 70
     0
  3
Center ____ _ ____ _ ____ _ ____ _ ____ _ ____
 72
    65
 73
     4
 40
10.16
 49
6.35
 74
     0
 49
-1.27
 74
     0
 49
1.27
 74
     0
 49
-1.27
 74
     0
  0
LTYPE
  5
71
330
5
100
AcDbSymbolTableRecord
100
AcDbLinetypeTableRecord
  2
CENTERX2
 70
     0
  3
Center (2x) ________  __  ________  __  _____
 72
    65
 73
     4
 40
20.32
 49
12.7
 74
     0
 49
-2.54
 74
     0
 49
2.54
 74
     0
 49
-2.54
 74
     0
  0
LTYPE
  5
72
330
5
100
AcDbSymbolTableRecord
100
AcDbLinetypeTableRecord
  2
DOT2
 70
     0
  3
Dot (.5x) ........................................
 72
    65
 73
     2
 40
0.635
 49
0.0
 74
     0
 49
-0.635
 74
     0
  0
ENDTAB
  0
TABLE
  2
LAYER
  5
2
330
0
100
AcDbSymbolTable
 70
     1
  0
LAYER
  5
10
330
2
100
AcDbSymbolTableRecord
100
AcDbLayerTableRecord
  2
0
 70
     0
 62
     7
  6
Continuous
370
    -3
390
F
  0
ENDTAB
  0
TABLE
  2
STYLE
  5
3
330
0
100
AcDbSymbolTable
 70
     1
  0
STYLE
  5
11
330
3
100
AcDbSymbolTableRecord
100
AcDbTextStyleTableRecord
  2
Standard
 70
     0
 40
0.0
 41
1.0
 50
0.0
 71
     0
 42
3.5
  3
txt
  4

  0
ENDTAB
  0
TABLE
  2
VIEW
  5
6
330
0
100
AcDbSymbolTable
 70
     0
  0
ENDTAB
  0
TABLE
  2
UCS
  5
7
330
0
100
AcDbSymbolTable
 70
     0
  0
ENDTAB
  0
TABLE
  2
APPID
  5
9
330
0
100
AcDbSymbolTable
 70
     1
  0
APPID
  5
12
330
9
100
AcDbSymbolTableRecord
100
AcDbRegAppTableRecord
  2
ACAD
 70
     0
  0
ENDTAB
  0
TABLE
  2
DIMSTYLE
  5
A
330
0
100
AcDbSymbolTable
 70
     1
100
AcDbDimStyleTable
  0
DIMSTYLE
105
27
330
A
100
AcDbSymbolTableRecord
100
AcDbDimStyleTableRecord
  2
ISO-25
 70
     0
 41
2.5
 42
0.625
 43
3.75
 44
1.25
 73
     0
 74
     0
 77
     1
 78
     8
140
2.5
141
2.5
143
0.0393700787
147
0.625
171
     3
172
     1
178
     0
271
     2
272
     2
274
     3
278
    44
283
     0
284
     8
340
11
  0
ENDTAB
  0
TABLE
  2
BLOCK_RECORD
  5
1
330
0
100
AcDbSymbolTable
 70
     1
  0
BLOCK_RECORD
  5
1F
330
1
100
AcDbSymbolTableRecord
100
AcDbBlockTableRecord
  2
*Model_Space
340
22
  0
BLOCK_RECORD
  5
1B
330
1
100
AcDbSymbolTableRecord
100
AcDbBlockTableRecord
  2
*Paper_Space
340
1E
  0
BLOCK_RECORD
  5
23
330
1
100
AcDbSymbolTableRecord
100
AcDbBlockTableRecord
  2
*Paper_Space0
340
26
  0
ENDTAB
  0
ENDSEC
  0
SECTION
  2
BLOCKS
  0
BLOCK
  5
20
330
1F
100
AcDbEntity
  8
0
100
AcDbBlockBegin
  2
*Model_Space
 70
     0
 10
0.0
 20
0.0
 30
0.0
  3
*Model_Space
  1

  0
ENDBLK
  5
21
330
1F
100
AcDbEntity
  8
0
100
AcDbBlockEnd
  0
BLOCK
  5
1C
330
1B
100
AcDbEntity
 67
     1
  8
0
100
AcDbBlockBegin
  2
*Paper_Space
 70
     0
 10
0.0
 20
0.0
 30
0.0
  3
*Paper_Space
  1

  0
ENDBLK
  5
1D
330
1B
100
AcDbEntity
 67
     1
  8
0
100
AcDbBlockEnd
  0
BLOCK
  5
24
330
23
100
AcDbEntity
  8
0
100
AcDbBlockBegin
  2
*Paper_Space0
 70
     0
 10
0.0
 20
0.0
 30
0.0
  3
*Paper_Space0
  1

  0
ENDBLK
  5
25
330
23
100
AcDbEntity
  8
0
100
AcDbBlockEnd
  0
ENDSEC
  0
SECTION
  2
ENTITIES
  0
LINE
  5
73
330
1F
100
AcDbEntity
  8
0
  6
Continuous
 62
     7
370
    25
100
AcDbLine
 10
602.9990154231
 20
518.5213406738
 30
0.0
 11
602.9990154231
 21
471.1943287622
 31
0.0
  0
LINE
  5
74
330
1F
100
AcDbEntity
  8
0
  6
Continuous
 62
     7
370
    25
100
AcDbLine
 10
618.7990154231
 20
471.1943287622
 30
0.0
 11
618.7990154231
 21
518.5213406738
 31
0.0
  0
LINE
  5
75
330
1F
100
AcDbEntity
  8
0
  6
Continuous
 62
     7
370
    25
100
AcDbLine
 10
618.7990154231
 20
518.5213406738
 30
0.0
 11
618.7990154231
 21
651.7213406738
 31
0.0
  0
LINE
  5
76
330
1F
100
AcDbEntity
  8
0
  6
Continuous
 62
     7
370
    25
100
AcDbLine
 10
602.9990154231
 20
651.7213406738
 30
0.0
 11
602.9990154231
 21
518.5213406738
 31
0.0
  0
LINE
  5
77
330
1F
100
AcDbEntity
  8
0
  6
Continuous
 62
     7
370
    25
100
AcDbLine
 10
602.9990154231
 20
674.3943287622
 30
0.0
 11
602.9990154231
 21
651.7213406738
 31
0.0
  0
LINE
  5
78
330
1F
100
AcDbEntity
  8
0
  6
Continuous
 62
     7
370
    25
100
AcDbLine
 10
618.7990154231
 20
651.7213406738
 30
0.0
 11
618.7990154231
 21
674.3943287622
 31
0.0
  0
SPLINE
  5
79
330
1F
100
AcDbEntity
  8
0
  6
Continuous
 62
     7
370
    25
100
AcDbSpline
210
0.0
220
0.0
230
1.0
 70
     8
 71
     3
 72
    17
 73
    13
 74
     0
 42
0.00000001
 43
0.00000001
 40
0.0
 40
0.0
 40
0.0
 40
0.0
 40
0.0757898376062656
 40
0.1939535143298111
 40
0.2924858678009877
 40
0.3760506893606423
 40
0.4440922433101924
 40
0.4939133930738828
 40
0.5385232930730179
 40
0.6031958579210274
 40
0.75695950817628
 40
1.0
 40
1.0
 40
1.0
 40
1.0
 10
502.6779063537427
 20
671.5805185606218
 30
0.0
 10
502.6797261378209
 20
671.5485699496339
 30
0.0
 10
502.6843831410337
 20
671.4668103684713
 30
0.0
 10
502.745764921048
 20
671.3561591319864
 30
0.0
 10
502.8283928690821
 20
671.2614356881294
 30
0.0
 10
502.9138136698776
 20
671.2012800128389
 30
0.0
 10
502.9877022332243
 20
671.1675664303681
 30
0.0
 10
503.0402049985586
 20
671.1514639156393
 30
0.0
 10
503.0772084097993
 20
671.1429840925837
 30
0.0
 10
503.1200002841236
 20
671.1355634448955
 30
0.0
 10
503.1726978035369
 20
671.1284522126275
 30
0.0
 10
503.2631654693229
 20
671.1209312959645
 30
0.0
 10
503.3185764483302
 20
671.1163247732726
 30
0.0
  0
SPLINE
  5
7A
330
1F
100
AcDbEntity
  8
0
  6
Continuous
 62
     7
370
    25
100
AcDbSpline
210
0.0
220
0.0
230
1.0
 70
     8
 71
     3
 72
    17
 73
    13
 74
     0
 42
0.00000001
 43
0.00000001
 40
0.0
 40
0.0
 40
0.0
 40
0.0
 40
0.160772204309243
 40
0.4578378510193071
 40
0.5829226845333924
 40
0.6276842140587947
 40
0.6629531825368616
 40
0.7144157634371001
 40
0.7798361004027856
 40
0.8629858141954451
 40
0.9534875184510476
 40
1.0
 40
1.0
 40
1.0
 40
1.0
 10
503.681473704462
 20
677.701065812555
 30
0.0
 10
503.6041866194082
 20
677.6955608873316
 30
0.0
 10
503.3840928968359
 20
677.6798842774027
 30
0.0
 10
503.2009656133237
 20
677.6631230155298
 30
0.0
 10
503.116012400193
 20
677.6529681442003
 30
0.0
 10
503.0562903560499
 20
677.6414868350281
 30
0.0
 10
502.9932142559301
 20
677.6235483781744
 30
0.0
 10
502.9055692479121
 20
677.5840811137952
 30
0.0
 10
502.80179038517
 20
677.5053402336417
 30
0.0
 10
502.7107465939951
 20
677.3782580683101
 30
0.0
 10
502.6606023020486
 20
677.2380199189183
 30
0.0
 10
502.6712391392871
 20
677.1490847323712
 30
0.0
 10
502.6748500478429
 20
677.1188937255129
 30
0.0
  0
LINE
  5
7B
330
1F
100
AcDbEntity
  8
0
  6
Continuous
 62
     7
370
    25
100
AcDbLine
 10
507.1647943953
 20
677.9432333409
 30
0.0
 11
503.6814737045
 21
677.7010658126
 31
0.0
  0
LINE
  5
7C
330
1F
100
AcDbEntity
  8
0
  6
Continuous
 62
     7
370
    25
100
AcDbLine
 10
503.6814737045
 20
671.0875917119
 30
0.0
 11
507.1647943953
 21
670.8454241835
 31
0.0
  0
ARC
  5
7D
330
1F
100
AcDbEntity
  8
0
  6
Continuous
 62
     7
370
    25
100
AcDbCircle
 10
551.9900002179
 20
677.366223238
 30
0.0
 40
8.999995138923168
100
AcDbArc
 50
77.1419190681
 51
90.0
  0
ARC
  5
7E
330
1F
100
AcDbEntity
  8
0
  6
Continuous
 62
     7
370
    25
100
AcDbCircle
 10
551.9900002179
 20
677.366223238
 30
0.0
 40
8.999995138923168
100
AcDbArc
 50
90.0
 51
125.1719294169
  0
SPLINE
  5
7F
330
1F
100
AcDbEntity
  8
0
  6
Continuous
 62
     7
370
    25
100
AcDbSpline
210
0.0
220
0.0
230
1.0
 70
     8
 71
     3
 72
    17
 73
    13
 74
     0
 42
0.00000001
 43
0.00000001
 40
0.0
 40
0.0
 40
0.0
 40
0.0
 40
0.1607722043092475
 40
0.4578378510193204
 40
0.5829226845334053
 40
0.6276842140588014
 40
0.6629531825368683
 40
0.7144157634371064
 40
0.7798361004027862
 40
0.8629858141954495
 40
0.9534875184510477
 40
0.9999999999999999
 40
0.9999999999999999
 40
0.9999999999999999
 40
0.9999999999999999
 10
718.1165571418084
 20
671.3330130006921
 30
0.0
 10
718.1938442268622
 20
671.3385179259154
 30
0.0
 10
718.4139379494346
 20
671.3541945358443
 30
0.0
 10
718.5970652329466
 20
671.3709557977172
 30
0.0
 10
718.6820184460773
 20
671.3811106690467
 30
0.0
 10
718.7417404902204
 20
671.3925919782189
 30
0.0
 10
718.8048165903402
 20
671.4105304350726
 30
0.0
 10
718.8924615983583
 20
671.4499976994518
 30
0.0
 10
718.9962404611003
 20
671.5287385796053
 30
0.0
 10
719.0872842522753
 20
671.6558207449369
 30
0.0
 10
719.1374285442217
 20
671.7960588943287
 30
0.0
 10
719.1267917069832
 20
671.8849940808758
 30
0.0
 10
719.1231807984274
 20
671.9151850877341
 30
0.0
  0
SPLINE
  5
80
330
1F
100
AcDbEntity
  8
0
  6
Continuous
 62
     7
370
    25
100
AcDbSpline
210
0.0
220
0.0
230
1.0
 70
     8
 71
     3
 72
    17
 73
    13
 74
     0
 42
0.00000001
 43
0.00000001
 40
0.0
 40
0.0
 40
0.0
 40
0.0
 40
0.0757898376062636
 40
0.1939535143298191
 40
0.2924858678009944
 40
0.3760506893606591
 40
0.4440922433102008
 40
0.493913393073885
 40
0.5385232930730234
 40
0.6031958579210481
 40
0.7569595081762922
 40
1.0
 40
1.0
 40
1.0
 40
1.0
 10
719.1201244925275
 20
677.4535602526252
 30
0.0
 10
719.1183047084496
 20
677.4855088636132
 30
0.0
 10
719.1136477052366
 20
677.5672684447758
 30
0.0
 10
719.0522659252223
 20
677.6779196812607
 30
0.0
 10
718.9696379771883
 20
677.7726431251176
 30
0.0
 10
718.8842171763928
 20
677.8327988004081
 30
0.0
 10
718.8103286130462
 20
677.8665123828789
 30
0.0
 10
718.7578258477117
 20
677.8826148976078
 30
0.0
 10
718.7208224364712
 20
677.8910947206633
 30
0.0
 10
718.6780305621468
 20
677.8985153683515
 30
0.0
 10
718.6253330427335
 20
677.9056266006195
 30
0.0
 10
718.5348653769474
 20
677.9131475172825
 30
0.0
 10
718.47945439794
 20
677.9177540399744
 30
0.0
  0
LINE
  5
81
330
1F
100
AcDbEntity
  8
0
  6
Continuous
 62
     7
370
    25
100
AcDbLine
 10
714.6332364509
 20
671.0908454723
 30
0.0
 11
718.1165571418
 21
671.3330130007
 31
0.0
  0
LINE
  5
82
330
1F
100
AcDbEntity
  8
0
  6
Continuous
 62
     7
370
    25
100
AcDbLine
 10
718.1165571418
 20
677.9464871014
 30
0.0
 11
714.6332364509
 21
678.1886546298
 31
0.0
  0
ARC
  5
83
330
1F
100
AcDbEntity
  8
0
  6
Continuous
 62
     7
370
    25
100
AcDbCircle
 10
669.8080306284
 20
671.6678555752
 30
0.0
 40
8.999995138923122
100
AcDbArc
 50
257.1419190681
 51
270.0
  0
ARC
  5
84
330
1F
100
AcDbEntity
  8
0
  6
Continuous
 62
     7
370
    25
100
AcDbCircle
 10
669.8080306284
 20
671.6678555752
 30
0.0
 40
8.999995138923058
100
AcDbArc
 50
270.0
 51
305.1719294169
  0
SPLINE
  5
85
330
1F
100
AcDbEntity
  8
0
  6
Continuous
 62
     7
370
    25
100
AcDbSpline
210
0.0
220
0.0
230
1.0
 70
     8
 71
     3
 72
    14
 73
    10
 74
     0
 42
0.00000001
 43
0.00000001
 40
0.0
 40
0.0
 40
0.0
 40
0.0
 40
0.1590404324490581
 40
0.3605547201639455
 40
0.5451952562128631
 40
0.7102181043081389
 40
0.8517011200800906
 40
0.9625378658642995
 40
1.0
 40
1.0
 40
1.0
 40
1.0
 10
576.1322605806845
 20
686.4069424314341
 30
0.0
 10
575.8830488867953
 20
686.4069449962183
 30
0.0
 10
575.3180702133341
 20
686.4069508107463
 30
0.0
 10
574.4717755325039
 20
686.5422214994819
 30
0.0
 10
573.6367198605511
 20
686.7610958728436
 30
0.0
 10
572.9156203160393
 20
687.0347573109681
 30
0.0
 10
572.3313869773409
 20
687.3191860889599
 30
0.0
 10
571.9322984873598
 20
687.5483176995839
 30
0.0
 10
571.7505766884035
 20
687.6682661846517
 30
0.0
 10
571.7046715108893
 20
687.6985666578543
 30
0.0
  0
SPLINE
  5
86
330
1F
100
AcDbEntity
  8
0
  6
Continuous
 62
     7
370
    25
100
AcDbSpline
210
0.0
220
0.0
230
1.0
 70
     8
 71
     3
 72
    14
 73
    10
 74
     0
 42
0.00000001
 43
0.00000001
 40
0.0
 40
0.0
 40
0.0
 40
0.0
 40
0.0385684078044029
 40
0.0966405615207536
 40
0.2004461465340223
 40
0.3679631137823448
 40
0.5834999022422938
 40
0.8587111420288647
 40
1.0
 40
1.0
 40
1.0
 40
1.0
 10
571.3202650034967
 20
660.8187999472012
 30
0.0
 10
571.3484146565199
 20
660.8398301400233
 30
0.0
 10
571.4189490246633
 20
660.8925253317334
 30
0.0
 10
571.6770167270956
 20
661.0741595937076
 30
0.0
 10
572.1589154834585
 20
661.3772202187592
 30
0.0
 10
572.920304014068
 20
661.7670271453201
 30
0.0
 10
574.0097950390075
 20
662.1543301476246
 30
0.0
 10
575.1062361124048
 20
662.3814112202593
 30
0.0
 10
575.8379243831647
 20
662.3788618408347
 30
0.0
 10
576.0861341692442
 20
662.3779970177305
 30
0.0
  0
SPLINE
  5
87
330
1F
100
AcDbEntity
  8
0
  6
Continuous
 62
     7
370
    25
100
AcDbSpline
210
0.0
220
0.0
230
1.0
 70
     8
 71
     3
 72
    15
 73
    11
 74
     0
 42
0.00000001
 43
0.00000001
 40
0.0
 40
0.0
 40
0.0
 40
0.0
 40
0.0370448243640694
 40
0.074567305621758
 40
0.1147268593527253
 40
0.2167520284858835
 40
0.4254430133459967
 40
0.5863176737935742
 40
0.8395179004898736
 40
1.0
 40
1.0
 40
1.0
 40
1.0
 10
650.4623795157311
 20
687.9536197229315
 30
0.0
 10
650.452862354749
 20
687.9464321199254
 30
0.0
 10
650.4337053182726
 20
687.9319642367795
 30
0.0
 10
650.3407748380747
 20
687.864678954055
 30
0.0
 10
650.1209807212007
 20
687.7116619505114
 30
0.0
 10
649.5750635535271
 20
687.3669723933133
 30
0.0
 10
648.8160753644607
 20
686.9951771878609
 30
0.0
 10
647.7501275356515
 20
686.6317334024432
 30
0.0
 10
646.7278828868347
 20
686.4155929351328
 30
0.0
 10
645.9804734083207
 20
686.4140950150978
 30
0.0
 10
645.6905266672896
 20
686.4135139185972
 30
0.0
  0
SPLINE
  5
88
330
1F
100
AcDbEntity
  8
0
  6
Continuous
 62
     7
370
    25
100
AcDbSpline
210
0.0
220
0.0
230
1.0
 70
     8
 71
     3
 72
    16
 73
    12
 74
     0
 42
0.00000001
 43
0.00000001
 40
0.0
 40
0.0
 40
0.0
 40
0.0
 40
0.1595058213960258
 40
0.3406476635117223
 40
0.5069076748527663
 40
0.6557801738919111
 40
0.7831079714101578
 40
0.8800733175215093
 40
0.9439219502056699
 40
0.9881604011830392
 40
1.0
 40
1.0
 40
1.0
 40
1.0
 10
645.7117153184004
 20
662.388535194632
 30
0.0
 10
645.9919074895146
 20
662.3838107752541
 30
0.0
 10
646.5902982415826
 20
662.3737210969686
 30
0.0
 10
647.4696078765601
 20
662.2175184805803
 30
0.0
 10
648.3080317768771
 20
661.9791671576199
 30
0.0
 10
649.0290455801098
 20
661.6877140429842
 30
0.0
 10
649.6098240849389
 20
661.3898463680155
 30
0.0
 10
650.0388563116747
 20
661.1278187088499
 30
0.0
 10
650.3108743262355
 20
660.941548382724
 30
0.0
 10
650.4372885833276
 20
660.8494841351525
 30
0.0
 10
650.4708758840748
 20
660.8241566029128
 30
0.0
 10
650.4779670751494
 20
660.8188092732208
 30
0.0
  0
LINE
  5
89
330
1F
100
AcDbEntity
  8
0
  6
Continuous
 62
     7
370
    25
100
AcDbLine
 10
600.3160101789
 20
686.3943287622
 30
0.0
 11
576.1306032187
 21
686.3943287622
 31
0.0
  0
LINE
  5
8A
330
1F
100
AcDbEntity
  8
0
  6
Continuous
 62
     7
370
    25
100
AcDbLine
 10
645.6901654732
 20
686.3943287622
 30
0.0
 11
619.2453124489
 21
686.3943287622
 31
0.0
  0
LINE
  5
8B
330
1F
100
AcDbEntity
  8
0
  6
Continuous
 62
     7
370
    25
100
AcDbLine
 10
621.4820206674
 20
662.3943287622
 30
0.0
 11
645.7190279388
 21
662.3943287622
 31
0.0
  0
LINE
  5
8C
330
1F
100
AcDbEntity
  8
0
  6
Continuous
 62
     7
370
    25
100
AcDbLine
 10
576.0790029075
 20
662.3943287622
 30
0.0
 11
602.5527183974
 21
662.3943287622
 31
0.0
  0
ARC
  5
8D
330
1F
100
AcDbEntity
  8
0
  6
Continuous
 62
     7
370
    25
100
AcDbCircle
 10
610.8990154231
 20
471.1943287622
 30
0.0
 40
7.899999999999977
100
AcDbArc
 50
180.0
 51
0.0
  0
ARC
  5
8E
330
1F
100
AcDbEntity
  8
0
  6
Continuous
 62
     7
370
    25
100
AcDbCircle
 10
610.8990154231
 20
674.3943287622
 30
0.0
 40
7.900000000000091
100
AcDbArc
 50
0.0
 51
180.0
  0
ARC
  5
8F
330
1F
100
AcDbEntity
  8
0
  6
Continuous
 62
     7
370
    25
100
AcDbCircle
 10
610.8990154231
 20
471.1943287622
 30
0.0
 40
10.82500000000005
100
AcDbArc
 50
136.8689719021
 51
180.0
  0
ARC
  5
90
330
1F
100
AcDbEntity
  8
0
  6
Continuous
 62
     7
370
    25
100
AcDbCircle
 10
610.8990154231
 20
471.1943287622
 30
0.0
 40
10.82500000000005
100
AcDbArc
 50
180.0
 51
43.1310280979
  0
LINE
  5
91
330
1F
100
AcDbEntity
  8
0
  6
Continuous
 62
     7
370
    25
100
AcDbLine
 10
616.8786063532
 20
679.5503784985
 30
0.0
 11
617.0279840843
 21
679.3788792083
 31
0.0
  0
ARC
  5
92
330
1F
100
AcDbEntity
  8
0
  6
Continuous
 62
     7
370
    25
100
AcDbCircle
 10
610.8990154231
 20
471.1943287622
 30
0.0
 40
11.55000000000007
100
AcDbArc
 50
133.1556534408
 51
274.9657006069
  0
ARC
  5
93
330
1F
100
AcDbEntity
  8
0
  6
Continuous
 62
     7
370
    25
100
AcDbCircle
 10
610.8990154231
 20
471.1943287622
 30
0.0
 40
11.55000000000007
100
AcDbArc
 50
274.9657006069
 51
46.8443465592
  0
ARC
  5
94
330
1F
100
AcDbEntity
  8
0
  6
Continuous
 62
     7
370
    25
100
AcDbCircle
 10
602.876036366
 20
668.8540844491
 30
0.0
 40
0.1000000000000637
100
AcDbArc
 50
34.6269032223
 51
109.8647129029
  0
ARC
  5
95
330
1F
100
AcDbEntity
  8
0
  6
Continuous
 62
     7
370
    25
100
AcDbCircle
 10
610.8990154231
 20
674.3943287622
 30
0.0
 40
9.650000000000064
100
AcDbArc
 50
324.9501653321
 51
211.6883360596
  0
ARC
  5
96
330
1F
100
AcDbEntity
  8
0
  6
Continuous
 62
     7
370
    25
100
AcDbCircle
 10
602.6025642967
 20
669.2726690012
 30
0.0
 40
0.0999999999999948
100
AcDbArc
 50
316.450526379
 51
31.6883360596
  0
ARC
  5
97
330
1F
100
AcDbEntity
  8
0
  6
Continuous
 62
     7
370
    25
100
AcDbCircle
 10
610.8990154231
 20
674.3943287622
 30
0.0
 40
9.725000000000138
100
AcDbArc
 50
324.3251241983
 51
215.6748758017
  0
ARC
  5
98
330
1F
100
AcDbEntity
  8
0
  6
Continuous
 62
     7
370
    25
100
AcDbCircle
 10
610.8990154231
 20
674.3943287622
 30
0.0
 40
9.925000000000068
100
AcDbArc
 50
322.7469493593
 51
217.2530506407
  0
ARC
  5
99
330
1F
100
AcDbEntity
  8
0
  6
Continuous
 62
     7
370
    25
100
AcDbCircle
 10
610.8990154231
 20
674.3943287622
 30
0.0
 40
14.22500000000008
100
AcDbArc
 50
303.7355336397
 51
223.2235523034
  0
LWPOLYLINE
  5
9A
330
1F
100
AcDbEntity
  8
0
  6
Continuous
 62
     7
370
    25
100
AcDbPolyline
 90
        3
 70
   128
 43
0.0
 10
602.9990154231
 20
662.5646785138
 10
601.9901340626
 20
663.3045831428
 10
600.5334403969
 20
664.6523844298
  0
LINE
  5
9B
330
1F
100
AcDbEntity
  8
0
  6
Continuous
 62
     7
370
    25
100
AcDbLine
 10
596.4509729773
 20
675.1457601732
 30
0.0
 11
596.6932155006
 21
675.1331613286
 31
0.0
  0
SPLINE
  5
9C
330
1F
100
AcDbEntity
  8
0
  6
Continuous
 62
     7
370
    25
100
AcDbSpline
210
0.0
220
0.0
230
1.0
 70
     8
 71
     3
 72
    11
 73
     7
 74
     0
 42
0.00000001
 43
0.00000001
 40
0.0
 40
0.0
 40
0.0
 40
0.0
 40
0.1446702591042557
 40
0.3907520209323619
 40
0.5962314811354645
 40
1.0
 40
1.0
 40
1.0
 40
1.0
 10
598.443043674157
 20
681.7536322258609
 30
0.0
 10
598.3109425935979
 20
681.447442089133
 30
0.0
 10
597.9541397198394
 20
680.6204275012225
 30
0.0
 10
597.4897803270238
 20
679.325133338421
 30
0.0
 10
596.9083519129174
 20
677.4389051908402
 30
0.0
 10
596.6332752554794
 20
676.0597628268481
 30
0.0
 10
596.4509729773201
 20
675.1457601731756
 30
0.0
  0
LINE
  5
9D
330
1F
100
AcDbEntity
  8
0
  6
Continuous
 62
     7
370
    25
100
AcDbLine
 10
598.4430436742
 20
681.7536322259
 30
0.0
 11
598.6518862241
 21
681.63024276
 31
0.0
  0
LINE
  5
9E
330
1F
100
AcDbEntity
  8
0
  6
Continuous
 62
     7
370
    25
100
AcDbLine
 10
604.3257528913
 20
687.2824162607
 30
0.0
 11
604.4359632335
 21
687.0663286594
 31
0.0
  0
SPLINE
  5
9F
330
1F
100
AcDbEntity
  8
0
  6
Continuous
 62
     7
370
    25
100
AcDbSpline
210
0.0
220
0.0
230
1.0
 70
     8
 71
     3
 72
    11
 73
     7
 74
     0
 42
0.00000001
 43
0.00000001
 40
0.0
 40
0.0
 40
0.0
 40
0.0
 40
0.1446702591042559
 40
0.3907520209323659
 40
0.5962314811354595
 40
1.0
 40
1.0
 40
1.0
 40
1.0
 10
611.0443733023275
 20
688.8611684574713
 30
0.0
 10
610.7131543252533
 20
688.8224762807388
 30
0.0
 10
609.8185372459432
 20
688.7179693396017
 30
0.0
 10
608.4645998991756
 20
688.4724692888653
 30
0.0
 10
606.5403641989842
 20
688.0328869921731
 30
0.0
 10
605.2084535476126
 20
687.5815391835066
 30
0.0
 10
604.3257528913263
 20
687.2824162607241
 30
0.0
  0
LINE
  5
A0
330
1F
100
AcDbEntity
  8
0
  6
Continuous
 62
     7
370
    25
100
AcDbLine
 10
611.0443733023
 20
688.8611684575
 30
0.0
 11
611.0419361653
 21
688.6186107709
 31
0.0
  0
LINE
  5
A1
330
1F
100
AcDbEntity
  8
0
  6
Continuous
 62
     7
370
    25
100
AcDbLine
 10
618.7737953371
 20
686.5309848498
 30
0.0
 11
618.641763156
 21
686.327496093
 31
0.0
  0
SPLINE
  5
A2
330
1F
100
AcDbEntity
  8
0
  6
Continuous
 62
     7
370
    25
100
AcDbSpline
210
0.0
220
0.0
230
1.0
 70
     8
 71
     3
 72
    11
 73
     7
 74
     0
 42
0.00000001
 43
0.00000001
 40
0.0
 40
0.0
 40
0.0
 40
0.0
 40
0.1446702591042557
 40
0.3907520209323694
 40
0.5962314811354859
 40
0.9999999999999999
 40
0.9999999999999999
 40
0.9999999999999999
 40
0.9999999999999999
 10
623.5003450513055
 20
681.5018649938194
 30
0.0
 10
623.3012271547905
 20
681.7693629538148
 30
0.0
 10
622.7634129492388
 20
682.4918706005884
 30
0.0
 10
621.8738349952868
 20
683.5416647126534
 30
0.0
 10
620.5310277092019
 20
684.9883105635421
 30
0.0
 10
619.4741937152685
 20
685.9161051188676
 30
0.0
 10
618.7737953371415
 20
686.5309848497575
 30
0.0
  0
LINE
  5
A3
330
1F
100
AcDbEntity
  8
0
  6
Continuous
 62
     7
370
    25
100
AcDbLine
 10
623.2890653643
 20
681.3826967731
 30
0.0
 11
623.5003450513
 21
681.5018649938
 31
0.0
  0
SPLINE
  5
A4
330
1F
100
AcDbEntity
  8
0
  6
Continuous
 62
     7
370
    25
100
AcDbSpline
210
0.0
220
0.0
230
1.0
 70
     8
 71
     3
 72
    11
 73
     7
 74
     0
 42
0.00000001
 43
0.00000001
 40
0.0
 40
0.0
 40
0.0
 40
0.0
 40
0.144670259104254
 40
0.3907520209323653
 40
0.5962314811354789
 40
0.9999999999999999
 40
0.9999999999999999
 40
0.9999999999999999
 40
0.9999999999999999
 10
598.2976857949648
 20
667.2867925305986
 30
0.0
 10
598.49680369148
 20
667.0192945706032
 30
0.0
 10
599.0346178970315
 20
666.2967869238297
 30
0.0
 10
599.9241958509834
 20
665.2469928117646
 30
0.0
 10
601.2670031370685
 20
663.800346960876
 30
0.0
 10
602.3238371310019
 20
662.8725524055504
 30
0.0
 10
603.024235509129
 20
662.2576726746605
 30
0.0
  0
LINE
  5
A5
330
1F
100
AcDbEntity
  8
0
  6
Continuous
 62
     7
370
    25
100
AcDbLine
 10
598.297685795
 20
667.2867925306
 30
0.0
 11
598.508965482
 21
667.4059607513
 31
0.0
  0
LINE
  5
A6
330
1F
100
AcDbEntity
  8
0
  6
Continuous
 62
     7
370
    25
100
AcDbLine
 10
625.1048153457
 20
673.6554961958
 30
0.0
 11
625.347057869
 21
673.6428973512
 31
0.0
  0
SPLINE
  5
A7
330
1F
100
AcDbEntity
  8
0
  6
Continuous
 62
     7
370
    25
100
AcDbSpline
210
0.0
220
0.0
230
1.0
 70
     8
 71
     3
 72
    11
 73
     7
 74
     0
 42
0.00000001
 43
0.00000001
 40
0.0
 40
0.0
 40
0.0
 40
0.0
 40
0.1446702591042546
 40
0.3907520209323575
 40
0.5962314811354746
 40
1.0
 40
1.0
 40
1.0
 40
1.0
 10
623.3549871721134
 20
667.0350252985571
 30
0.0
 10
623.4870882526724
 20
667.3412154352851
 30
0.0
 10
623.8438911264309
 20
668.1682300231957
 30
0.0
 10
624.3082505192466
 20
669.4635241859972
 30
0.0
 10
624.889678933353
 20
671.349752333578
 30
0.0
 10
625.1647555907911
 20
672.72889469757
 30
0.0
 10
625.3470578689503
 20
673.6428973512424
 30
0.0
  0
LINE
  5
A8
330
1F
100
AcDbEntity
  8
0
  6
Continuous
 62
     7
370
    25
100
AcDbLine
 10
623.1461446221
 20
667.1584147645
 30
0.0
 11
623.3549871721
 21
667.0350252986
 31
0.0
  0
SPLINE
  5
A9
330
1F
100
AcDbEntity
  8
0
  6
Continuous
 62
     7
370
    25
100
AcDbSpline
210
0.0
220
0.0
230
1.0
 70
     8
 71
     3
 72
     9
 73
     5
 74
     0
 42
0.00000001
 43
0.00000001
 40
0.0
 40
0.0
 40
0.0
 40
0.0
 40
0.5862283062032672
 40
1.0
 40
1.0
 40
1.0
 40
1.0
 10
596.4509729773201
 20
675.1457601731756
 30
0.0
 10
596.3967203400641
 20
674.8174343181598
 30
0.0
 10
596.3041751035379
 20
674.2573694909559
 30
0.0
 10
596.2331214883402
 20
673.6929926304215
 30
0.0
 10
596.2037215136296
 20
673.4594694608985
 30
0.0
  0
SPLINE
  5
AA
330
1F
100
AcDbEntity
  8
0
  6
Continuous
 62
     7
370
    25
100
AcDbSpline
210
0.0
220
0.0
230
1.0
 70
     8
 71
     3
 72
     9
 73
     5
 74
     0
 42
0.00000001
 43
0.00000001
 40
0.0
 40
0.0
 40
0.0
 40
0.0
 40
0.5863847898283634
 40
1.0
 40
1.0
 40
1.0
 40
1.0
 10
597.3252845179718
 20
668.6864872862907
 30
0.0
 10
597.5105573880962
 20
668.4091132272331
 30
0.0
 10
597.8265152255748
 20
667.9360892609416
 30
0.0
 10
598.1598241529263
 20
667.4767728036264
 30
0.0
 10
598.2976857949648
 20
667.2867925305986
 30
0.0
  0
ARC
  5
AB
330
1F
100
AcDbEntity
  8
0
  6
Continuous
 62
     7
370
    25
100
AcDbCircle
 10
610.8990154231
 20
674.3943287622
 30
0.0
 40
14.72500000000008
100
AcDbArc
 50
183.6400367407
 51
202.8070678661
  0
SPLINE
  5
AC
330
1F
100
AcDbEntity
  8
0
  6
Continuous
 62
     7
370
    25
100
AcDbSpline
210
0.0
220
0.0
230
1.0
 70
     8
 71
     3
 72
     9
 73
     5
 74
     0
 42
0.00000001
 43
0.00000001
 40
0.0
 40
0.0
 40
0.0
 40
0.0
 40
0.5862283062032703
 40
1.0
 40
1.0
 40
1.0
 40
1.0
 10
604.3257528913263
 20
687.2824162607241
 30
0.0
 10
604.0142880415353
 20
687.1652374953021
 30
0.0
 10
603.4829850551475
 20
686.9653516075311
 30
0.0
 10
602.9586935490178
 20
686.7446974130557
 30
0.0
 10
602.7417565644832
 20
686.6533969532643
 30
0.0
  0
SPLINE
  5
AD
330
1F
100
AcDbEntity
  8
0
  6
Continuous
 62
     7
370
    25
100
AcDbSpline
210
0.0
220
0.0
230
1.0
 70
     8
 71
     3
 72
     9
 73
     5
 74
     0
 42
0.00000001
 43
0.00000001
 40
0.0
 40
0.0
 40
0.0
 40
0.0
 40
0.5863847898283651
 40
0.9999999999999999
 40
0.9999999999999999
 40
0.9999999999999999
 40
0.9999999999999999
 10
599.1690142516337
 20
683.2956038122553
 30
0.0
 10
599.0214377052014
 20
682.9964657705666
 30
0.0
 10
598.7697658525333
 20
682.4863262736399
 30
0.0
 10
598.5386405957977
 20
681.9680140465875
 30
0.0
 10
598.443043674157
 20
681.7536322258609
 30
0.0
  0
ARC
  5
AE
330
1F
100
AcDbEntity
  8
0
  6
Continuous
 62
     7
370
    25
100
AcDbCircle
 10
610.8990154231
 20
674.3943287622
 30
0.0
 40
14.72500000000008
100
AcDbArc
 50
123.6400367407
 51
142.8070678661
  0
SPLINE
  5
AF
330
1F
100
AcDbEntity
  8
0
  6
Continuous
 62
     7
370
    25
100
AcDbSpline
210
0.0
220
0.0
230
1.0
 70
     8
 71
     3
 72
     9
 73
     5
 74
     0
 42
0.00000001
 43
0.00000001
 40
0.0
 40
0.0
 40
0.0
 40
0.0
 40
0.5862283062032715
 40
1.0
 40
1.0
 40
1.0
 40
1.0
 10
618.7737953371415
 20
686.5309848497575
 30
0.0
 10
618.5165831246064
 20
686.7421319393513
 30
0.0
 10
618.0778253747447
 20
687.1023108787842
 30
0.0
 10
617.6245874838128
 20
687.4460335448433
 30
0.0
 10
617.4370504739888
 20
687.5882562545748
 30
0.0
  0
SPLINE
  5
B0
330
1F
100
AcDbEntity
  8
0
  6
Continuous
 62
     7
370
    25
100
AcDbSpline
210
0.0
220
0.0
230
1.0
 70
     8
 71
     3
 72
     9
 73
     5
 74
     0
 42
0.00000001
 43
0.00000001
 40
0.0
 40
0.0
 40
0.0
 40
0.0
 40
0.586384789828363
 40
0.9999999999999999
 40
0.9999999999999999
 40
0.9999999999999999
 40
0.9999999999999999
 10
612.7427451567971
 20
689.0034452881736
 30
0.0
 10
612.4098957402401
 20
688.9816813055426
 30
0.0
 10
611.8422660500937
 20
688.9445657749071
 30
0.0
 10
611.2778318660067
 20
688.8855700051703
 30
0.0
 10
611.0443733023275
 20
688.8611684574713
 30
0.0
  0
ARC
  5
B1
330
1F
100
AcDbEntity
  8
0
  6
Continuous
 62
     7
370
    25
100
AcDbCircle
 10
610.8990154231
 20
674.3943287622
 30
0.0
 40
14.72499999999994
100
AcDbArc
 50
63.6400367407
 51
82.8070678661
  0
SPLINE
  5
B2
330
1F
100
AcDbEntity
  8
0
  6
Continuous
 62
     7
370
    25
100
AcDbSpline
210
0.0
220
0.0
230
1.0
 70
     8
 71
     3
 72
     9
 73
     5
 74
     0
 42
0.00000001
 43
0.00000001
 40
0.0
 40
0.0
 40
0.0
 40
0.0
 40
0.5863847898283576
 40
1.0
 40
1.0
 40
1.0
 40
1.0
 10
622.6290165946366
 20
665.4930537121627
 30
0.0
 10
622.776593141069
 20
665.7921917538514
 30
0.0
 10
623.0282649937371
 20
666.3023312507784
 30
0.0
 10
623.2593902504726
 20
666.8206434778305
 30
0.0
 10
623.3549871721134
 20
667.0350252985571
 30
0.0
  0
ARC
  5
B3
330
1F
100
AcDbEntity
  8
0
  6
Continuous
 62
     7
370
    25
100
AcDbCircle
 10
610.8990154231
 20
674.3943287622
 30
0.0
 40
14.72500000000006
100
AcDbArc
 50
303.6400367407
 51
322.8070678661
  0
SPLINE
  5
B4
330
1F
100
AcDbEntity
  8
0
  6
Continuous
 62
     7
370
    25
100
AcDbSpline
210
0.0
220
0.0
230
1.0
 70
     8
 71
     3
 72
     9
 73
     5
 74
     0
 42
0.00000001
 43
0.00000001
 40
0.0
 40
0.0
 40
0.0
 40
0.0
 40
0.586228306203287
 40
1.0
 40
1.0
 40
1.0
 40
1.0
 10
625.3470578689503
 20
673.6428973512424
 30
0.0
 10
625.4013105062063
 20
673.9712232062583
 30
0.0
 10
625.4938557427325
 20
674.5312880334621
 30
0.0
 10
625.5649093579301
 20
675.0956648939965
 30
0.0
 10
625.5943093326408
 20
675.3291880635195
 30
0.0
  0
SPLINE
  5
B5
330
1F
100
AcDbEntity
  8
0
  6
Continuous
 62
     7
370
    25
100
AcDbSpline
210
0.0
220
0.0
230
1.0
 70
     8
 71
     3
 72
     9
 73
     5
 74
     0
 42
0.00000001
 43
0.00000001
 40
0.0
 40
0.0
 40
0.0
 40
0.0
 40
0.5863847898283612
 40
1.0
 40
1.0
 40
1.0
 40
1.0
 10
624.4727463282985
 20
680.1021702381273
 30
0.0
 10
624.2874734581742
 20
680.3795442971849
 30
0.0
 10
623.9715156206956
 20
680.8525682634764
 30
0.0
 10
623.6382066933442
 20
681.3118847207917
 30
0.0
 10
623.5003450513055
 20
681.5018649938194
 30
0.0
  0
ARC
  5
B6
330
1F
100
AcDbEntity
  8
0
  6
Continuous
 62
     7
370
    25
100
AcDbCircle
 10
610.8990154231
 20
674.3943287622
 30
0.0
 40
14.72499999999997
100
AcDbArc
 50
3.6400367407
 51
22.8070678661
  0
SPLINE
  5
B7
330
1F
100
AcDbEntity
  8
0
  6
Continuous
 62
     7
370
    25
100
AcDbSpline
210
0.0
220
0.0
230
1.0
 70
    24
 71
     3
 72
    12
 73
     8
 74
     0
 42
0.00000001
 43
0.00000001
 40
0.0
 40
0.0
 40
0.0
 40
0.0
 40
0.3013828945620946
 40
0.4108442493795587
 40
0.6247185195336505
 40
0.6986171054378636
 40
0.9999999999999999
 40
0.9999999999999999
 40
0.9999999999999999
 40
0.9999999999999999
 10
602.8000125620085
 20
662.1312040584396
 30
0.0
 10
602.3349091101671
 20
662.6260811138341
 30
0.0
 10
601.700881492796
 20
663.3006960174239
 30
0.0
 10
600.7321655442612
 20
664.3314243300746
 30
0.0
 10
600.1150407393125
 20
664.988054387484
 30
0.0
 10
599.2017905127914
 20
665.9597663392008
 30
0.0
 10
598.622657855115
 20
666.5759721815332
 30
0.0
 10
598.1575651559253
 20
667.0708377959447
 30
0.0
  0
ARC
  5
B8
330
1F
100
AcDbEntity
  8
0
  6
Continuous
 62
     7
370
    25
100
AcDbCircle
 10
598.5357309649
 20
666.9789031857
 30
0.0
 40
0.3891803587981321
100
AcDbArc
 50
127.7094634934
 51
166.3360839425
  0
SPLINE
  5
B9
330
1F
100
AcDbEntity
  8
0
  6
Continuous
 62
     7
370
    25
100
AcDbSpline
210
0.0
220
0.0
230
1.0
 70
    24
 71
     3
 72
    12
 73
     8
 74
     0
 42
0.00000001
 43
0.00000001
 40
0.0
 40
0.0
 40
0.0
 40
0.0
 40
0.3013828945620993
 40
0.4108442493795573
 40
0.6247185195336495
 40
0.6986171054378605
 40
0.9999999999999999
 40
0.9999999999999999
 40
0.9999999999999999
 40
0.9999999999999999
 10
625.5686943769393
 20
673.5119488910352
 30
0.0
 10
625.3726700011384
 20
672.8617189586555
 30
0.0
 10
625.1054501655435
 20
671.9753274835163
 30
0.0
 10
624.6971712366555
 20
670.6210307067087
 30
0.0
 10
624.437075328525
 20
669.7582699196129
 30
0.0
 10
624.0521732064378
 20
668.4815160475754
 30
0.0
 10
623.8080896218557
 20
667.6718695327002
 30
0.0
 10
623.6120697779108
 20
667.0216546328816
 30
0.0
  0
ARC
  5
BA
330
1F
100
AcDbEntity
  8
0
  6
Continuous
 62
     7
370
    25
100
AcDbCircle
 10
623.5026045814
 20
667.3951231355
 30
0.0
 40
0.3891803587942197
100
AcDbArc
 50
247.7094634933
 51
286.3360839427
  0
ARC
  5
BB
330
1F
100
AcDbEntity
  8
0
  6
Continuous
 62
     7
370
    25
100
AcDbCircle
 10
625.2710502148
 20
673.2612113701
 30
0.0
 40
0.389180358798726
100
AcDbArc
 50
40.1110206645
 51
78.7376411134
  0
ARC
  5
BC
330
1F
100
AcDbEntity
  8
0
  6
Continuous
 62
     7
370
    25
100
AcDbCircle
 10
596.5269806315
 20
675.5274461543
 30
0.0
 40
0.3891803588374549
100
AcDbArc
 50
220.1110206664
 51
258.7376411114
  0
SPLINE
  5
BD
330
1F
100
AcDbEntity
  8
0
  6
Continuous
 62
     7
370
    25
100
AcDbSpline
210
0.0
220
0.0
230
1.0
 70
    24
 71
     3
 72
    12
 73
     8
 74
     0
 42
0.00000001
 43
0.00000001
 40
0.0
 40
0.0
 40
0.0
 40
0.0
 40
0.3013828945621505
 40
0.4108442493795786
 40
0.6247185195336595
 40
0.6986171054378616
 40
0.9999999999999999
 40
0.9999999999999999
 40
0.9999999999999999
 40
0.9999999999999999
 10
596.2293364693311
 20
675.276708633383
 30
0.0
 10
596.425360845132
 20
675.9269385657627
 30
0.0
 10
596.6925806807269
 20
676.8133300409021
 30
0.0
 10
597.1008596096149
 20
678.1676268177096
 30
0.0
 10
597.3609555177454
 20
679.0303876048052
 30
0.0
 10
597.7458576398326
 20
680.3071414768428
 30
0.0
 10
597.9899412244147
 20
681.116787991718
 30
0.0
 10
598.1859610683596
 20
681.7670028915365
 30
0.0
  0
ARC
  5
BE
330
1F
100
AcDbEntity
  8
0
  6
Continuous
 62
     7
370
    25
100
AcDbCircle
 10
598.2954262649
 20
681.3935343889
 30
0.0
 40
0.3891803587953239
100
AcDbArc
 50
67.7094634933
 51
106.3360839426
  0
ARC
  5
BF
330
1F
100
AcDbEntity
  8
0
  6
Continuous
 62
     7
370
    25
100
AcDbCircle
 10
604.6943064744
 20
687.4074346919
 30
0.0
 40
0.3891803588394936
100
AcDbArc
 50
160.1110206665
 51
198.7376411113
  0
SPLINE
  5
C0
330
1F
100
AcDbEntity
  8
0
  6
Continuous
 62
     7
370
    25
100
AcDbSpline
210
0.0
220
0.0
230
1.0
 70
    24
 71
     3
 72
    12
 73
     8
 74
     0
 42
0.00000001
 43
0.00000001
 40
0.0
 40
0.0
 40
0.0
 40
0.0
 40
0.3013828945621499
 40
0.4108442493795587
 40
0.6247185195336379
 40
0.6986171054378638
 40
1.0
 40
1.0
 40
1.0
 40
1.0
 10
604.3283393304578
 20
687.5398333371523
 30
0.0
 10
604.9894671581002
 20
687.6951862141376
 30
0.0
 10
605.8907146110662
 20
687.9069627856869
 30
0.0
 10
607.2677094884889
 20
688.2305312498438
 30
0.0
 10
608.1449302015682
 20
688.4366619795302
 30
0.0
 10
609.4430825501762
 20
688.741703899851
 30
0.0
 10
610.2662987924348
 20
688.9351445723938
 30
0.0
 10
610.9274113355693
 20
689.0904938578009
 30
0.0
  0
ARC
  5
C1
330
1F
100
AcDbEntity
  8
0
  6
Continuous
 62
     7
370
    25
100
AcDbCircle
 10
610.6587107231
 20
688.8089599655
 30
0.0
 40
0.3891803587961628
100
AcDbArc
 50
7.7094634934
 51
46.3360839426
  0
SPLINE
  5
C2
330
1F
100
AcDbEntity
  8
0
  6
Continuous
 62
     7
370
    25
100
AcDbSpline
210
0.0
220
0.0
230
1.0
 70
    24
 71
     3
 72
    12
 73
     8
 74
     0
 42
0.00000001
 43
0.00000001
 40
0.0
 40
0.0
 40
0.0
 40
0.0
 40
0.3013828945621527
 40
0.4108442493795541
 40
0.6247185195336461
 40
0.6986171054378585
 40
1.0
 40
1.0
 40
1.0
 40
1.0
 10
618.9980182842619
 20
686.6574534659783
 30
0.0
 10
619.4631217361034
 20
686.1625764105838
 30
0.0
 10
620.0971493534744
 20
685.487961506994
 30
0.0
 10
621.0658653020091
 20
684.4572331943433
 30
0.0
 10
621.6829901069578
 20
683.800603136934
 30
0.0
 10
622.5962403334789
 20
682.8288911852172
 30
0.0
 10
623.1753729911553
 20
682.2126853428849
 30
0.0
 10
623.640465690345
 20
681.7178197284734
 30
0.0
  0
ARC
  5
C3
330
1F
100
AcDbEntity
  8
0
  6
Continuous
 62
     7
370
    25
100
AcDbCircle
 10
623.2622998813
 20
681.8097543388
 30
0.0
 40
0.3891803587954185
100
AcDbArc
 50
307.7094634933
 51
346.3360839426
  0
ARC
  5
C4
330
1F
100
AcDbEntity
  8
0
  6
Continuous
 62
     7
370
    25
100
AcDbCircle
 10
619.066341266
 20
686.2743172998
 30
0.0
 40
0.3891803587984781
100
AcDbArc
 50
100.1110206644
 51
138.7376411134
  0
LINE
  5
C5
330
1F
100
AcDbEntity
  8
0
  6
Continuous
 62
     7
370
    25
100
AcDbLine
 10
598.1575651559
 20
667.0708377959
 30
0.0
 11
596.9609409318
 21
668.3440639354
 31
0.0
  0
LINE
  5
C6
330
1F
100
AcDbEntity
  8
0
  6
Continuous
 62
     7
370
    25
100
AcDbLine
 10
597.325284518
 20
668.6864872863
 30
0.0
 11
596.9609409318
 21
668.3440639354
 31
0.0
  0
LINE
  5
C7
330
1F
100
AcDbEntity
  8
0
  6
Continuous
 62
     7
370
    25
100
AcDbLine
 10
598.1859610684
 20
681.7670028915
 30
0.0
 11
598.6902951378
 21
683.4399229381
 31
0.0
  0
LINE
  5
C8
330
1F
100
AcDbEntity
  8
0
  6
Continuous
 62
     7
370
    25
100
AcDbLine
 10
598.6902951378
 20
683.4399229381
 30
0.0
 11
599.1690142516
 21
683.2956038123
 31
0.0
  0
LINE
  5
C9
330
1F
100
AcDbEntity
  8
0
  6
Continuous
 62
     7
370
    25
100
AcDbLine
 10
610.9274113356
 20
689.0904938578
 30
0.0
 11
612.6283696292
 21
689.4901877649
 31
0.0
  0
LINE
  5
CA
330
1F
100
AcDbEntity
  8
0
  6
Continuous
 62
     7
370
    25
100
AcDbLine
 10
612.6283696292
 20
689.4901877649
 30
0.0
 11
612.7427451568
 21
689.0034452882
 31
0.0
  0
LINE
  5
CB
330
1F
100
AcDbEntity
  8
0
  6
Continuous
 62
     7
370
    25
100
AcDbLine
 10
623.6120697779
 20
667.0216546329
 30
0.0
 11
623.1077357084
 21
665.3487345863
 31
0.0
  0
LINE
  5
CC
330
1F
100
AcDbEntity
  8
0
  6
Continuous
 62
     7
370
    25
100
AcDbLine
 10
623.1077357084
 20
665.3487345863
 30
0.0
 11
622.6290165946
 21
665.4930537122
 31
0.0
  0
LINE
  5
CD
330
1F
100
AcDbEntity
  8
0
  6
Continuous
 62
     7
370
    25
100
AcDbLine
 10
623.6404656903
 20
681.7178197285
 30
0.0
 11
624.8370899145
 21
680.444593589
 31
0.0
  0
LINE
  5
CE
330
1F
100
AcDbEntity
  8
0
  6
Continuous
 62
     7
370
    25
100
AcDbLine
 10
624.8370899145
 20
680.444593589
 30
0.0
 11
624.4727463283
 21
680.1021702381
 31
0.0
  0
LINE
  5
CF
330
1F
100
AcDbEntity
  8
0
  6
Continuous
 62
     7
370
    25
100
AcDbLine
 10
596.2037215136
 20
673.4594694609
 30
0.0
 11
595.7250023998
 21
673.6037885868
 31
0.0
  0
LINE
  5
D0
330
1F
100
AcDbEntity
  8
0
  6
Continuous
 62
     7
370
    25
100
AcDbLine
 10
595.7250023998
 20
673.6037885868
 30
0.0
 11
596.2293364693
 21
675.2767086334
 31
0.0
  0
LINE
  5
D1
330
1F
100
AcDbEntity
  8
0
  6
Continuous
 62
     7
370
    25
100
AcDbLine
 10
602.9990154231
 20
661.9194620266
 30
0.0
 11
602.800012562
 21
662.1312040584
 31
0.0
  0
LINE
  5
D2
330
1F
100
AcDbEntity
  8
0
  6
Continuous
 62
     7
370
    25
100
AcDbLine
 10
602.7417565645
 20
686.6533969533
 30
0.0
 11
602.6273810369
 21
687.14013943
 31
0.0
  0
LINE
  5
D3
330
1F
100
AcDbEntity
  8
0
  6
Continuous
 62
     7
370
    25
100
AcDbLine
 10
602.6273810369
 20
687.14013943
 30
0.0
 11
604.3283393305
 21
687.5398333372
 31
0.0
  0
LINE
  5
D4
330
1F
100
AcDbEntity
  8
0
  6
Continuous
 62
     7
370
    25
100
AcDbLine
 10
619.1706498094
 20
661.6485180944
 30
0.0
 11
618.7990154231
 21
661.5611908504
 31
0.0
  0
LINE
  5
D5
330
1F
100
AcDbEntity
  8
0
  6
Continuous
 62
     7
370
    25
100
AcDbLine
 10
619.1706498094
 20
661.6485180944
 30
0.0
 11
619.0562742818
 21
662.1352605712
 31
0.0
  0
LINE
  5
D6
330
1F
100
AcDbEntity
  8
0
  6
Continuous
 62
     7
370
    25
100
AcDbLine
 10
617.8013940601
 20
687.9306796054
 30
0.0
 11
618.9980182843
 21
686.657453466
 31
0.0
  0
LINE
  5
D7
330
1F
100
AcDbEntity
  8
0
  6
Continuous
 62
     7
370
    25
100
AcDbLine
 10
617.437050474
 20
687.5882562546
 30
0.0
 11
617.8013940601
 21
687.9306796054
 31
0.0
  0
LINE
  5
D8
330
1F
100
AcDbEntity
  8
0
  6
Continuous
 62
     7
370
    25
100
AcDbLine
 10
626.0730284464
 20
675.1848689376
 30
0.0
 11
625.5686943769
 21
673.511948891
 31
0.0
  0
LINE
  5
D9
330
1F
100
AcDbEntity
  8
0
  6
Continuous
 62
     7
370
    25
100
AcDbLine
 10
625.5943093326
 20
675.3291880635
 30
0.0
 11
626.0730284464
 21
675.1848689376
 31
0.0
  0
LINE
  5
DA
330
1F
100
AcDbEntity
  8
0
  6
Continuous
 62
     7
370
    25
100
AcDbLine
 10
596.2037215136
 20
673.4594694609
 30
0.0
 11
595.6492687855
 21
671.6203014573
 31
0.0
  0
LINE
  5
DB
330
1F
100
AcDbEntity
  8
0
  6
Continuous
 62
     7
370
    25
100
AcDbLine
 10
595.6492687855
 20
671.6203014573
 30
0.0
 11
595.1705496717
 21
671.7646205831
 31
0.0
  0
LINE
  5
DC
330
1F
100
AcDbEntity
  8
0
  6
Continuous
 62
     7
370
    25
100
AcDbLine
 10
595.1705496717
 20
671.7646205831
 30
0.0
 11
595.7250023998
 21
673.6037885868
 31
0.0
  0
LINE
  5
DD
330
1F
100
AcDbEntity
  8
0
  6
Continuous
 62
     7
370
    25
100
AcDbLine
 10
596.0097446691
 20
670.0862414358
 30
0.0
 11
597.325284518
 21
668.6864872863
 31
0.0
  0
LINE
  5
DE
330
1F
100
AcDbEntity
  8
0
  6
Continuous
 62
     7
370
    25
100
AcDbLine
 10
596.9609409318
 20
668.3440639354
 30
0.0
 11
595.6454010829
 21
669.743818085
 31
0.0
  0
LINE
  5
DF
330
1F
100
AcDbEntity
  8
0
  6
Continuous
 62
     7
370
    25
100
AcDbLine
 10
596.0097446691
 20
670.0862414358
 30
0.0
 11
595.6454010829
 21
669.743818085
 31
0.0
  0
ARC
  5
E0
330
1F
100
AcDbEntity
  8
0
  6
Continuous
 62
     7
370
    25
100
AcDbCircle
 10
595.6492687855
 20
671.6203014573
 30
0.0
 40
0.5000000000000252
100
AcDbArc
 50
163.2235523034
 51
190.309742062
  0
LINE
  5
E1
330
1F
100
AcDbEntity
  8
0
  6
Continuous
 62
     7
370
    25
100
AcDbLine
 10
595.6492687855
 20
671.6203014573
 30
0.0
 11
595.1573414746
 21
671.5308167055
 31
0.0
  0
ARC
  5
E2
330
1F
100
AcDbEntity
  8
0
  6
Continuous
 62
     7
370
    25
100
AcDbCircle
 10
610.8990154231
 20
674.3943287622
 30
0.0
 40
15.50000000000007
100
AcDbArc
 50
190.309742062
 51
196.1373625449
  0
ARC
  5
E3
330
1F
100
AcDbEntity
  8
0
  6
Continuous
 62
     7
370
    25
100
AcDbCircle
 10
596.0097446691
 20
670.0862414358
 30
0.0
 40
0.5000000000000013
100
AcDbArc
 50
196.1373625448
 51
223.2235523034
  0
LINE
  5
E4
330
1F
100
AcDbEntity
  8
0
  6
Continuous
 62
     7
370
    25
100
AcDbLine
 10
596.0097446691
 20
670.0862414358
 30
0.0
 11
595.5294456125
 21
669.9472708769
 31
0.0
  0
ARC
  5
E5
330
1F
100
AcDbEntity
  8
0
  6
Continuous
 62
     7
370
    25
100
AcDbCircle
 10
610.8990154231
 20
674.3943287622
 30
0.0
 40
16.00000000000009
100
AcDbArc
 50
190.309742062
 51
196.1373625449
  0
LINE
  5
E6
330
1F
100
AcDbEntity
  8
0
  6
Continuous
 62
     7
370
    25
100
AcDbLine
 10
602.7417565645
 20
686.6533969533
 30
0.0
 11
600.8717639875
 21
686.2139830992
 31
0.0
  0
LINE
  5
E7
330
1F
100
AcDbEntity
  8
0
  6
Continuous
 62
     7
370
    25
100
AcDbLine
 10
599.7234669797
 20
685.1347718159
 30
0.0
 11
599.1690142516
 21
683.2956038123
 31
0.0
  0
ARC
  5
E8
330
1F
100
AcDbEntity
  8
0
  6
Continuous
 62
     7
370
    25
100
AcDbCircle
 10
610.8990154231
 20
674.3943287622
 30
0.0
 40
15.50000000000006
100
AcDbArc
 50
130.309742062
 51
136.1373625449
  0
LINE
  5
E9
330
1F
100
AcDbEntity
  8
0
  6
Continuous
 62
     7
370
    25
100
AcDbLine
 10
599.7234669797
 20
685.1347718159
 30
0.0
 11
599.3629654171
 21
685.4812377208
 31
0.0
  0
ARC
  5
EA
330
1F
100
AcDbEntity
  8
0
  6
Continuous
 62
     7
370
    25
100
AcDbCircle
 10
610.8990154231
 20
674.3943287622
 30
0.0
 40
16.00000000000007
100
AcDbArc
 50
130.309742062
 51
136.1373625449
  0
LINE
  5
EB
330
1F
100
AcDbEntity
  8
0
  6
Continuous
 62
     7
370
    25
100
AcDbLine
 10
600.8717639875
 20
686.2139830992
 30
0.0
 11
600.5483042637
 21
686.5952622713
 31
0.0
  0
LINE
  5
EC
330
1F
100
AcDbEntity
  8
0
  6
Continuous
 62
     7
370
    25
100
AcDbLine
 10
598.6902951378
 20
683.4399229381
 30
0.0
 11
599.244747866
 21
685.2790909418
 31
0.0
  0
LINE
  5
ED
330
1F
100
AcDbEntity
  8
0
  6
Continuous
 62
     7
370
    25
100
AcDbLine
 10
599.244747866
 20
685.2790909418
 30
0.0
 11
599.7234669797
 21
685.1347718159
 31
0.0
  0
ARC
  5
EE
330
1F
100
AcDbEntity
  8
0
  6
Continuous
 62
     7
370
    25
100
AcDbCircle
 10
599.7234669797
 20
685.1347718159
 30
0.0
 40
0.5000000000000329
100
AcDbArc
 50
136.1373625448
 51
163.2235523034
  0
ARC
  5
EF
330
1F
100
AcDbEntity
  8
0
  6
Continuous
 62
     7
370
    25
100
AcDbCircle
 10
600.8717639875
 20
686.2139830992
 30
0.0
 40
0.4999999999999111
100
AcDbArc
 50
103.2235523034
 51
130.309742062
  0
LINE
  5
F0
330
1F
100
AcDbEntity
  8
0
  6
Continuous
 62
     7
370
    25
100
AcDbLine
 10
600.8717639875
 20
686.2139830992
 30
0.0
 11
600.7573884598
 21
686.7007255759
 31
0.0
  0
LINE
  5
F1
330
1F
100
AcDbEntity
  8
0
  6
Continuous
 62
     7
370
    25
100
AcDbLine
 10
600.7573884598
 20
686.7007255759
 30
0.0
 11
602.6273810369
 21
687.14013943
 31
0.0
  0
ARC
  5
F2
330
1F
100
AcDbEntity
  8
0
  6
Continuous
 62
     7
370
    25
100
AcDbCircle
 10
610.8990154231
 20
674.3943287622
 30
0.0
 40
16.00000000000002
100
AcDbArc
 50
310.309742062
 51
316.1373625449
  0
LINE
  5
F3
330
1F
100
AcDbEntity
  8
0
  6
Continuous
 62
     7
370
    25
100
AcDbLine
 10
621.2497265825
 20
662.1933952531
 30
0.0
 11
620.9262668588
 21
662.5746744252
 31
0.0
  0
ARC
  5
F4
330
1F
100
AcDbEntity
  8
0
  6
Continuous
 62
     7
370
    25
100
AcDbCircle
 10
610.8990154231
 20
674.3943287622
 30
0.0
 40
15.50000000000006
100
AcDbArc
 50
310.309742062
 51
316.1373625449
  0
LINE
  5
F5
330
1F
100
AcDbEntity
  8
0
  6
Continuous
 62
     7
370
    25
100
AcDbLine
 10
622.4350654292
 20
663.3074198036
 30
0.0
 11
622.0745638665
 21
663.6538857085
 31
0.0
  0
LINE
  5
F6
330
1F
100
AcDbEntity
  8
0
  6
Continuous
 62
     7
370
    25
100
AcDbLine
 10
621.0406423864
 20
662.0879319485
 30
0.0
 11
619.1706498094
 21
661.6485180944
 31
0.0
  0
LINE
  5
F7
330
1F
100
AcDbEntity
  8
0
  6
Continuous
 62
     7
370
    25
100
AcDbLine
 10
619.0562742818
 20
662.1352605712
 30
0.0
 11
620.9262668588
 21
662.5746744252
 31
0.0
  0
LINE
  5
F8
330
1F
100
AcDbEntity
  8
0
  6
Continuous
 62
     7
370
    25
100
AcDbLine
 10
621.0406423864
 20
662.0879319485
 30
0.0
 11
620.9262668588
 21
662.5746744252
 31
0.0
  0
ARC
  5
F9
330
1F
100
AcDbEntity
  8
0
  6
Continuous
 62
     7
370
    25
100
AcDbCircle
 10
620.9262668588
 20
662.5746744252
 30
0.0
 40
0.5000000000000199
100
AcDbArc
 50
283.2235523034
 51
310.309742062
  0
LINE
  5
FA
330
1F
100
AcDbEntity
  8
0
  6
Continuous
 62
     7
370
    25
100
AcDbLine
 10
622.0745638665
 20
663.6538857085
 30
0.0
 11
622.6290165946
 21
665.4930537122
 31
0.0
  0
LINE
  5
FB
330
1F
100
AcDbEntity
  8
0
  6
Continuous
 62
     7
370
    25
100
AcDbLine
 10
612.6283696292
 20
689.4901877649
 30
0.0
 11
614.4983622062
 21
689.929601619
 31
0.0
  0
LINE
  5
FC
330
1F
100
AcDbEntity
  8
0
  6
Continuous
 62
     7
370
    25
100
AcDbLine
 10
614.4983622062
 20
689.929601619
 30
0.0
 11
614.6127377338
 21
689.4428591423
 31
0.0
  0
LINE
  5
FD
330
1F
100
AcDbEntity
  8
0
  6
Continuous
 62
     7
370
    25
100
AcDbLine
 10
614.6127377338
 20
689.4428591423
 30
0.0
 11
612.7427451568
 21
689.0034452882
 31
0.0
  0
LINE
  5
FE
330
1F
100
AcDbEntity
  8
0
  6
Continuous
 62
     7
370
    25
100
AcDbLine
 10
622.5532829803
 20
663.5095665826
 30
0.0
 11
622.0745638665
 21
663.6538857085
 31
0.0
  0
ARC
  5
FF
330
1F
100
AcDbEntity
  8
0
  6
Continuous
 62
     7
370
    25
100
AcDbCircle
 10
622.0745638665
 20
663.6538857085
 30
0.0
 40
0.4999999999999342
100
AcDbArc
 50
316.1373625448
 51
343.2235523034
  0
LINE
  5
100
330
1F
100
AcDbEntity
  8
0
  6
Continuous
 62
     7
370
    25
100
AcDbLine
 10
623.1077357084
 20
665.3487345863
 30
0.0
 11
622.5532829803
 21
663.5095665826
 31
0.0
  0
LINE
  5
101
330
1F
100
AcDbEntity
  8
0
  6
Continuous
 62
     7
370
    25
100
AcDbLine
 10
617.437050474
 20
687.5882562546
 30
0.0
 11
616.1215106251
 21
688.9880104041
 31
0.0
  0
ARC
  5
102
330
1F
100
AcDbEntity
  8
0
  6
Continuous
 62
     7
370
    25
100
AcDbCircle
 10
610.8990154231
 20
674.3943287622
 30
0.0
 40
15.49999999999998
100
AcDbArc
 50
70.309742062
 51
76.1373625448
  0
ARC
  5
103
330
1F
100
AcDbEntity
  8
0
  6
Continuous
 62
     7
370
    25
100
AcDbCircle
 10
610.8990154231
 20
674.3943287622
 30
0.0
 40
15.99999999999998
100
AcDbArc
 50
70.309742062
 51
76.1373625449
  0
LINE
  5
104
330
1F
100
AcDbEntity
  8
0
  6
Continuous
 62
     7
370
    25
100
AcDbLine
 10
616.2899782122
 20
689.4587743281
 30
0.0
 11
616.1215106251
 21
688.9880104041
 31
0.0
  0
LINE
  5
105
330
1F
100
AcDbEntity
  8
0
  6
Continuous
 62
     7
370
    25
100
AcDbLine
 10
614.6127377338
 20
689.4428591423
 30
0.0
 11
614.7325352277
 21
689.9282956061
 31
0.0
  0
ARC
  5
106
330
1F
100
AcDbEntity
  8
0
  6
Continuous
 62
     7
370
    25
100
AcDbCircle
 10
616.1215106251
 20
688.9880104041
 30
0.0
 40
0.5000000000000013
100
AcDbArc
 50
43.2235523034
 51
70.309742062
  0
LINE
  5
107
330
1F
100
AcDbEntity
  8
0
  6
Continuous
 62
     7
370
    25
100
AcDbLine
 10
616.1215106251
 20
688.9880104041
 30
0.0
 11
616.4858542112
 21
689.330433755
 31
0.0
  0
LINE
  5
108
330
1F
100
AcDbEntity
  8
0
  6
Continuous
 62
     7
370
    25
100
AcDbLine
 10
616.4858542112
 20
689.330433755
 30
0.0
 11
617.8013940601
 21
687.9306796054
 31
0.0
  0
ARC
  5
109
330
1F
100
AcDbEntity
  8
0
  6
Continuous
 62
     7
370
    25
100
AcDbCircle
 10
614.6127377338
 20
689.4428591423
 30
0.0
 40
0.5000000000000459
100
AcDbArc
 50
76.1373625449
 51
103.2235523034
  0
LINE
  5
10A
330
1F
100
AcDbEntity
  8
0
  6
Continuous
 62
     7
370
    25
100
AcDbLine
 10
625.5943093326
 20
675.3291880635
 30
0.0
 11
626.1487620607
 21
677.1683560672
 31
0.0
  0
LINE
  5
10B
330
1F
100
AcDbEntity
  8
0
  6
Continuous
 62
     7
370
    25
100
AcDbLine
 10
626.1487620607
 20
677.1683560672
 30
0.0
 11
626.6274811745
 21
677.0240369413
 31
0.0
  0
LINE
  5
10C
330
1F
100
AcDbEntity
  8
0
  6
Continuous
 62
     7
370
    25
100
AcDbLine
 10
626.6274811745
 20
677.0240369413
 30
0.0
 11
626.0730284464
 21
675.1848689376
 31
0.0
  0
LINE
  5
10D
330
1F
100
AcDbEntity
  8
0
  6
Continuous
 62
     7
370
    25
100
AcDbLine
 10
625.7882861772
 20
678.7024160886
 30
0.0
 11
624.4727463283
 21
680.1021702381
 31
0.0
  0
ARC
  5
10E
330
1F
100
AcDbEntity
  8
0
  6
Continuous
 62
     7
370
    25
100
AcDbCircle
 10
610.8990154231
 20
674.3943287622
 30
0.0
 40
15.49999999999994
100
AcDbArc
 50
10.309742062
 51
16.1373625449
  0
ARC
  5
10F
330
1F
100
AcDbEntity
  8
0
  6
Continuous
 62
     7
370
    25
100
AcDbCircle
 10
610.8990154231
 20
674.3943287622
 30
0.0
 40
15.99999999999998
100
AcDbArc
 50
10.309742062
 51
16.1373625448
  0
LINE
  5
110
330
1F
100
AcDbEntity
  8
0
  6
Continuous
 62
     7
370
    25
100
AcDbLine
 10
626.6406893716
 20
677.2578408189
 30
0.0
 11
626.1487620607
 21
677.1683560672
 31
0.0
  0
LINE
  5
111
330
1F
100
AcDbEntity
  8
0
  6
Continuous
 62
     7
370
    25
100
AcDbLine
 10
626.2685852338
 20
678.8413866475
 30
0.0
 11
625.7882861772
 21
678.7024160886
 31
0.0
  0
ARC
  5
112
330
1F
100
AcDbEntity
  8
0
  6
Continuous
 62
     7
370
    25
100
AcDbCircle
 10
626.1487620607
 20
677.1683560672
 30
0.0
 40
0.5000000000000252
100
AcDbArc
 50
343.2235523034
 51
10.309742062
  0
LINE
  5
113
330
1F
100
AcDbEntity
  8
0
  6
Continuous
 62
     7
370
    25
100
AcDbLine
 10
626.1526297634
 20
679.0448394394
 30
0.0
 11
625.7882861772
 21
678.7024160886
 31
0.0
  0
ARC
  5
114
330
1F
100
AcDbEntity
  8
0
  6
Continuous
 62
     7
370
    25
100
AcDbCircle
 10
625.7882861772
 20
678.7024160886
 30
0.0
 40
0.5000000000000842
100
AcDbArc
 50
16.1373625448
 51
43.2235523034
  0
LINE
  5
115
330
1F
100
AcDbEntity
  8
0
  6
Continuous
 62
     7
370
    25
100
AcDbLine
 10
624.8370899145
 20
680.444593589
 30
0.0
 11
626.1526297634
 21
679.0448394394
 31
0.0
  0
ARC
  5
116
330
1F
100
AcDbEntity
  8
0
  6
Continuous
 62
     7
370
    25
100
AcDbCircle
 10
610.8990154231
 20
674.3943287622
 30
0.0
 40
9.574999999999934
100
AcDbArc
 50
325.5951096848
 51
214.4048903152
  0
ARC
  5
117
330
1F
100
AcDbEntity
  8
0
  6
Continuous
 62
     7
370
    25
100
AcDbCircle
 10
610.8990154231
 20
674.3943287622
 30
0.0
 40
8.050000000000008
100
AcDbArc
 50
348.9219835539
 51
191.0780164461
  0
ARC
  5
118
330
1F
100
AcDbEntity
  8
0
  6
Continuous
 62
     7
370
    25
100
AcDbCircle
 10
610.8990154231
 20
674.3943287622
 30
0.0
 40
8.249999999999982
100
AcDbArc
 50
343.2508741362
 51
196.7491258638
  0
CIRCLE
  5
119
330
1F
100
AcDbEntity
  8
0
  6
Continuous
 62
     7
370
    25
100
AcDbCircle
 10
661.6990154231
 20
674.3943287622
 30
0.0
 40
5.32891433662769
  0
CIRCLE
  5
11A
330
1F
100
AcDbEntity
  8
0
  6
Continuous
 62
     7
370
    25
100
AcDbCircle
 10
661.6990154231
 20
674.3943287622
 30
0.0
 40
5.074569253689219
  0
CIRCLE
  5
11B
330
1F
100
AcDbEntity
  8
0
  6
Continuous
 62
     7
370
    25
100
AcDbCircle
 10
661.6990154231
 20
674.3943287622
 30
0.0
 40
5.925127771161328
  0
CIRCLE
  5
11C
330
1F
100
AcDbEntity
  8
0
  6
Continuous
 62
     7
370
    25
100
AcDbCircle
 10
661.6990154231
 20
674.3943287622
 30
0.0
 40
7.149999999999977
  0
LINE
  5
11D
330
1F
100
AcDbEntity
  8
0
  6
Continuous
 62
     7
370
    25
100
AcDbLine
 10
557.7389776999
 20
673.1492496705
 30
0.0
 11
557.432036744
 21
674.3093303787
 31
0.0
  0
LINE
  5
11E
330
1F
100
AcDbEntity
  8
0
  6
Continuous
 62
     7
370
    25
100
AcDbLine
 10
558.9473951043
 20
673.4689798328
 30
0.0
 11
557.7389776999
 21
673.1492496705
 31
0.0
  0
SPLINE
  5
11F
330
1F
100
AcDbEntity
  8
0
  6
Continuous
 62
     7
370
    25
100
AcDbSpline
210
0.0
220
0.0
230
1.0
 70
     8
 71
     3
 72
    12
 73
     8
 74
     0
 42
0.00000001
 43
0.00000001
 40
0.0
 40
0.0
 40
0.0
 40
0.0
 40
0.2133534395476129
 40
0.4267919313634445
 40
0.6383539739091494
 40
0.8490950351927571
 40
1.0
 40
1.0
 40
1.0
 40
1.0
 10
559.8642836443222
 20
672.9357674875229
 30
0.0
 10
559.8350952053721
 20
673.014411514434
 30
0.0
 10
559.7767066916487
 20
673.1717309192994
 30
0.0
 10
559.596289810904
 20
673.3555343241649
 30
0.0
 10
559.3718802146745
 20
673.4710628112233
 30
0.0
 10
559.1442211707729
 20
673.5066775909711
 30
0.0
 10
559.0053445203652
 20
673.4800787848343
 30
0.0
 10
558.9473951042778
 20
673.4689798327806
 30
0.0
  0
LINE
  5
120
330
1F
100
AcDbEntity
  8
0
  6
Continuous
 62
     7
370
    25
100
AcDbLine
 10
560.1840138066
 20
671.7273500831
 30
0.0
 11
559.8642836443
 21
672.9357674875
 31
0.0
  0
LINE
  5
121
330
1F
100
AcDbEntity
  8
0
  6
Continuous
 62
     7
370
    25
100
AcDbLine
 10
561.3440945149
 20
672.0342910389
 30
0.0
 11
560.1840138066
 21
671.7273500831
 31
0.0
  0
LINE
  5
122
330
1F
100
AcDbEntity
  8
0
  6
Continuous
 62
     7
370
    25
100
AcDbLine
 10
561.0243643526
 20
673.2427084434
 30
0.0
 11
561.3440945149
 21
672.0342910389
 31
0.0
  0
SPLINE
  5
123
330
1F
100
AcDbEntity
  8
0
  6
Continuous
 62
     7
370
    25
100
AcDbSpline
210
0.0
220
0.0
230
1.0
 70
     8
 71
     3
 72
    12
 73
     8
 74
     0
 42
0.00000001
 43
0.00000001
 40
0.0
 40
0.0
 40
0.0
 40
0.0
 40
0.2133534395476105
 40
0.4267919313634458
 40
0.6383539739091507
 40
0.8490950351927564
 40
1.0
 40
1.0
 40
1.0
 40
1.0
 10
561.5575766978217
 20
674.1595969833963
 30
0.0
 10
561.4789326709106
 20
674.1304085444463
 30
0.0
 10
561.3216132660451
 20
674.0720200307229
 30
0.0
 10
561.1378098611797
 20
673.8916031499781
 30
0.0
 10
561.0222813741213
 20
673.6671935537487
 30
0.0
 10
560.9866665943734
 20
673.4395345098471
 30
0.0
 10
561.0132654005102
 20
673.3006578594394
 30
0.0
 10
561.0243643525639
 20
673.242708443352
 30
0.0
  0
LINE
  5
124
330
1F
100
AcDbEntity
  8
0
  6
Continuous
 62
     7
370
    25
100
AcDbLine
 10
562.7659941022
 20
674.4793271457
 30
0.0
 11
561.5575766978
 21
674.1595969834
 31
0.0
  0
LINE
  5
125
330
1F
100
AcDbEntity
  8
0
  6
Continuous
 62
     7
370
    25
100
AcDbLine
 10
562.4590531464
 20
675.639407854
 30
0.0
 11
562.7659941022
 21
674.4793271457
 31
0.0
  0
LINE
  5
126
330
1F
100
AcDbEntity
  8
0
  6
Continuous
 62
     7
370
    25
100
AcDbLine
 10
561.250635742
 20
675.3196776916
 30
0.0
 11
562.4590531464
 21
675.639407854
 31
0.0
  0
LINE
  5
127
330
1F
100
AcDbEntity
  8
0
  6
Continuous
 62
     7
370
    25
100
AcDbLine
 10
560.0140170396
 20
677.0613074413
 30
0.0
 11
560.3337472019
 21
675.8528900369
 31
0.0
  0
LINE
  5
128
330
1F
100
AcDbEntity
  8
0
  6
Continuous
 62
     7
370
    25
100
AcDbLine
 10
558.8539363314
 20
676.7543664855
 30
0.0
 11
560.0140170396
 21
677.0613074413
 31
0.0
  0
LINE
  5
129
330
1F
100
AcDbEntity
  8
0
  6
Continuous
 62
     7
370
    25
100
AcDbLine
 10
559.1736664937
 20
675.5459490811
 30
0.0
 11
558.8539363314
 21
676.7543664855
 31
0.0
  0
SPLINE
  5
12A
330
1F
100
AcDbEntity
  8
0
  6
Continuous
 62
     7
370
    25
100
AcDbSpline
210
0.0
220
0.0
230
1.0
 70
     8
 71
     3
 72
    12
 73
     8
 74
     0
 42
0.00000001
 43
0.00000001
 40
0.0
 40
0.0
 40
0.0
 40
0.0
 40
0.2133534395476105
 40
0.4267919313634458
 40
0.6383539739091508
 40
0.8490950351927568
 40
1.0
 40
1.0
 40
1.0
 40
1.0
 10
558.6404541484486
 20
674.6290605410223
 30
0.0
 10
558.7190981753598
 20
674.6582489799724
 30
0.0
 10
558.8764175802252
 20
674.7166374936957
 30
0.0
 10
559.0602209850907
 20
674.8970543744406
 30
0.0
 10
559.175749472149
 20
675.12146397067
 30
0.0
 10
559.2113642518967
 20
675.3491230145715
 30
0.0
 10
559.1847654457601
 20
675.4879996649792
 30
0.0
 10
559.1736664937065
 20
675.5459490810667
 30
0.0
  0
LINE
  5
12B
330
1F
100
AcDbEntity
  8
0
  6
Continuous
 62
     7
370
    25
100
AcDbLine
 10
557.432036744
 20
674.3093303787
 30
0.0
 11
558.6404541484
 21
674.629060541
 31
0.0
  0
CIRCLE
  5
12C
330
1F
100
AcDbEntity
  8
0
  6
Continuous
 62
     7
370
    25
100
AcDbCircle
 10
560.0990154231
 20
674.3943287622
 30
0.0
 40
4.197433366238903
  0
SPLINE
  5
12D
330
1F
100
AcDbEntity
  8
0
  6
Continuous
 62
     7
370
    25
100
AcDbSpline
210
0.0
220
0.0
230
1.0
 70
     8
 71
     3
 72
    12
 73
     8
 74
     0
 42
0.00000001
 43
0.00000001
 40
0.0
 40
0.0
 40
0.0
 40
0.0
 40
0.2133534395476133
 40
0.4267919313634492
 40
0.6383539739091546
 40
0.8490950351927566
 40
1.0
 40
1.0
 40
1.0
 40
1.0
 10
560.3337472019482
 20
675.8528900368958
 30
0.0
 10
560.3629356408983
 20
675.7742460099847
 30
0.0
 10
560.4213241546215
 20
675.6169266051193
 30
0.0
 10
560.6017410353664
 20
675.4331232002538
 30
0.0
 10
560.8261506315959
 20
675.3175947131955
 30
0.0
 10
561.0538096754973
 20
675.2819799334476
 30
0.0
 10
561.192686325905
 20
675.3085787395844
 30
0.0
 10
561.2506357419925
 20
675.319677691638
 30
0.0
  0
CIRCLE
  5
12E
330
1F
100
AcDbEntity
  8
0
  6
Continuous
 62
     7
370
    25
100
AcDbCircle
 10
560.0990154231
 20
674.3943287622
 30
0.0
 40
4.50000000000006
  0
LINE
  5
12F
330
1F
100
AcDbEntity
  8
0
  6
Continuous
 62
     7
370
    25
100
AcDbLine
 10
659.032036744
 20
674.4793271457
 30
0.0
 11
659.3389776999
 21
675.639407854
 31
0.0
  0
LINE
  5
130
330
1F
100
AcDbEntity
  8
0
  6
Continuous
 62
     7
370
    25
100
AcDbLine
 10
660.2404541484
 20
674.1595969834
 30
0.0
 11
659.032036744
 21
674.4793271457
 31
0.0
  0
LINE
  5
131
330
1F
100
AcDbEntity
  8
0
  6
Continuous
 62
     7
370
    25
100
AcDbLine
 10
660.4539363314
 20
672.0342910389
 30
0.0
 11
660.7736664937
 21
673.2427084434
 31
0.0
  0
LINE
  5
132
330
1F
100
AcDbEntity
  8
0
  6
Continuous
 62
     7
370
    25
100
AcDbLine
 10
661.6140170396
 20
671.7273500831
 30
0.0
 11
660.4539363314
 21
672.0342910389
 31
0.0
  0
LINE
  5
133
330
1F
100
AcDbEntity
  8
0
  6
Continuous
 62
     7
370
    25
100
AcDbLine
 10
661.9337472019
 20
672.9357674875
 30
0.0
 11
661.6140170396
 21
671.7273500831
 31
0.0
  0
LINE
  5
134
330
1F
100
AcDbEntity
  8
0
  6
Continuous
 62
     7
370
    25
100
AcDbLine
 10
664.0590531464
 20
673.1492496705
 30
0.0
 11
662.850635742
 21
673.4689798328
 31
0.0
  0
LINE
  5
135
330
1F
100
AcDbEntity
  8
0
  6
Continuous
 62
     7
370
    25
100
AcDbLine
 10
664.3659941022
 20
674.3093303787
 30
0.0
 11
664.0590531464
 21
673.1492496705
 31
0.0
  0
LINE
  5
136
330
1F
100
AcDbEntity
  8
0
  6
Continuous
 62
     7
370
    25
100
AcDbLine
 10
663.1575766978
 20
674.629060541
 30
0.0
 11
664.3659941022
 21
674.3093303787
 31
0.0
  0
LINE
  5
137
330
1F
100
AcDbEntity
  8
0
  6
Continuous
 62
     7
370
    25
100
AcDbLine
 10
662.9440945149
 20
676.7543664855
 30
0.0
 11
662.6243643526
 21
675.5459490811
 31
0.0
  0
LINE
  5
138
330
1F
100
AcDbEntity
  8
0
  6
Continuous
 62
     7
370
    25
100
AcDbLine
 10
661.7840138066
 20
677.0613074413
 30
0.0
 11
662.9440945149
 21
676.7543664855
 31
0.0
  0
LINE
  5
139
330
1F
100
AcDbEntity
  8
0
  6
Continuous
 62
     7
370
    25
100
AcDbLine
 10
661.4642836443
 20
675.8528900369
 30
0.0
 11
661.7840138066
 21
677.0613074413
 31
0.0
  0
SPLINE
  5
13A
330
1F
100
AcDbEntity
  8
0
  6
Continuous
 62
     7
370
    25
100
AcDbSpline
210
0.0
220
0.0
230
1.0
 70
     8
 71
     3
 72
    12
 73
     8
 74
     0
 42
0.00000001
 43
0.00000001
 40
0.0
 40
0.0
 40
0.0
 40
0.0
 40
0.2133534395476116
 40
0.4267919313634462
 40
0.6383539739091479
 40
0.8490950351927574
 40
1.0
 40
1.0
 40
1.0
 40
1.0
 10
660.5473951042778
 20
675.319677691638
 30
0.0
 10
660.6301836321985
 20
675.3061533586834
 30
0.0
 10
660.7957936912672
 20
675.2790993013674
 30
0.0
 10
661.044771467943
 20
675.3450083995214
 30
0.0
 10
661.2561647855993
 20
675.4829191077789
 30
0.0
 10
661.399708203447
 20
675.6631754252807
 30
0.0
 10
661.4452713805557
 20
675.7970343712204
 30
0.0
 10
661.4642836443222
 20
675.8528900368958
 30
0.0
  0
LINE
  5
13B
330
1F
100
AcDbEntity
  8
0
  6
Continuous
 62
     7
370
    25
100
AcDbLine
 10
659.3389776999
 20
675.639407854
 30
0.0
 11
660.5473951043
 21
675.3196776916
 31
0.0
  0
CIRCLE
  5
13C
330
1F
100
AcDbEntity
  8
0
  6
Continuous
 62
     7
370
    25
100
AcDbCircle
 10
661.6990154231
 20
674.3943287622
 30
0.0
 40
4.197433366238931
  0
SPLINE
  5
13D
330
1F
100
AcDbEntity
  8
0
  6
Continuous
 62
     7
370
    25
100
AcDbSpline
210
0.0
220
0.0
230
1.0
 70
     8
 71
     3
 72
    12
 73
     8
 74
     0
 42
0.00000001
 43
0.00000001
 40
0.0
 40
0.0
 40
0.0
 40
0.0
 40
0.2133534395476124
 40
0.4267919313634466
 40
0.6383539739091505
 40
0.8490950351927581
 40
1.0
 40
1.0
 40
1.0
 40
1.0
 10
660.7736664937065
 20
673.242708443352
 30
0.0
 10
660.7871908266611
 20
673.3254969712726
 30
0.0
 10
660.8142448839772
 20
673.4911070303415
 30
0.0
 10
660.7483357858232
 20
673.7400848070171
 30
0.0
 10
660.6104250775657
 20
673.9514781246734
 30
0.0
 10
660.4301687600639
 20
674.0950215425211
 30
0.0
 10
660.2963098141241
 20
674.1405847196299
 30
0.0
 10
660.2404541484486
 20
674.1595969833963
 30
0.0
  0
SPLINE
  5
13E
330
1F
100
AcDbEntity
  8
0
  6
Continuous
 62
     7
370
    25
100
AcDbSpline
210
0.0
220
0.0
230
1.0
 70
     8
 71
     3
 72
    12
 73
     8
 74
     0
 42
0.00000001
 43
0.00000001
 40
0.0
 40
0.0
 40
0.0
 40
0.0
 40
0.2133534395476122
 40
0.4267919313634442
 40
0.6383539739091508
 40
0.8490950351927531
 40
0.9999999999999999
 40
0.9999999999999999
 40
0.9999999999999999
 40
0.9999999999999999
 10
662.6243643525639
 20
675.5459490810667
 30
0.0
 10
662.6108400196093
 20
675.463160553146
 30
0.0
 10
662.5837859622933
 20
675.2975504940772
 30
0.0
 10
662.6496950604472
 20
675.0485727174016
 30
0.0
 10
662.7876057687048
 20
674.8371793997453
 30
0.0
 10
662.9678620862065
 20
674.6936359818976
 30
0.0
 10
663.1017210321463
 20
674.6480728047887
 30
0.0
 10
663.1575766978217
 20
674.6290605410223
 30
0.0
  0
SPLINE
  5
13F
330
1F
100
AcDbEntity
  8
0
  6
Continuous
 62
     7
370
    25
100
AcDbSpline
210
0.0
220
0.0
230
1.0
 70
     8
 71
     3
 72
    12
 73
     8
 74
     0
 42
0.00000001
 43
0.00000001
 40
0.0
 40
0.0
 40
0.0
 40
0.0
 40
0.2133534395476112
 40
0.4267919313634456
 40
0.6383539739091519
 40
0.8490950351927574
 40
1.0
 40
1.0
 40
1.0
 40
1.0
 10
662.8506357419925
 20
673.4689798327806
 30
0.0
 10
662.7678472140719
 20
673.4825041657352
 30
0.0
 10
662.6022371550031
 20
673.5095582230513
 30
0.0
 10
662.3532593783275
 20
673.4436491248973
 30
0.0
 10
662.1418660606712
 20
673.3057384166398
 30
0.0
 10
661.9983226428234
 20
673.125482099138
 30
0.0
 10
661.9527594657146
 20
672.9916231531982
 30
0.0
 10
661.9337472019482
 20
672.9357674875229
 30
0.0
  0
CIRCLE
  5
140
330
1F
100
AcDbEntity
  8
0
  6
Continuous
 62
     7
370
    25
100
AcDbCircle
 10
661.6990154231
 20
674.3943287622
 30
0.0
 40
4.50000000000006
  0
CIRCLE
  5
141
330
1F
100
AcDbEntity
  8
0
  6
Continuous
 62
     7
370
    25
100
AcDbCircle
 10
560.0990154231
 20
674.3943287622
 30
0.0
 40
5.328914336627463
  0
CIRCLE
  5
142
330
1F
100
AcDbEntity
  8
0
  6
Continuous
 62
     7
370
    25
100
AcDbCircle
 10
560.0990154231
 20
674.3943287622
 30
0.0
 40
5.925127771161556
  0
CIRCLE
  5
143
330
1F
100
AcDbEntity
  8
0
  6
Continuous
 62
     7
370
    25
100
AcDbCircle
 10
560.0990154231
 20
674.3943287622
 30
0.0
 40
5.074569253689106
  0
CIRCLE
  5
144
330
1F
100
AcDbEntity
  8
0
  6
Continuous
 62
     7
370
    25
100
AcDbCircle
 10
560.0990154231
 20
674.3943287622
 30
0.0
 40
7.150000000000091
  0
SPLINE
  5
145
330
1F
100
AcDbEntity
  8
0
  6
Continuous
 62
     7
370
    25
100
AcDbSpline
210
0.0
220
0.0
230
1.0
 70
     8
 71
     3
 72
    11
 73
     7
 74
     0
 42
0.00000001
 43
0.00000001
 40
0.0
 40
0.0
 40
0.0
 40
0.0
 40
0.2200386424382248
 40
0.6637869905998172
 40
0.8890365590789576
 40
1.0
 40
1.0
 40
1.0
 40
1.0
 10
553.4214252785433
 20
668.6194317440868
 30
0.0
 10
553.2172038155419
 20
668.8844503553455
 30
0.0
 10
552.6011322526583
 20
669.6839276856504
 30
0.0
 10
552.0775829016411
 20
670.9470969561781
 30
0.0
 10
551.8259537018799
 20
672.1136667695023
 30
0.0
 10
551.8466608966023
 20
672.6249465681616
 30
0.0
 10
551.8534950806284
 20
672.793688895634
 30
0.0
  0
SPLINE
  5
146
330
1F
100
AcDbEntity
  8
0
  6
Continuous
 62
     7
370
    25
100
AcDbSpline
210
0.0
220
0.0
230
1.0
 70
     8
 71
     3
 72
     9
 73
     5
 74
     0
 42
0.00000001
 43
0.00000001
 40
0.0
 40
0.0
 40
0.0
 40
0.0
 40
0.9209630919903058
 40
1.0
 40
1.0
 40
1.0
 40
1.0
 10
551.781382915296
 20
668.9397550197202
 30
0.0
 10
552.2958044531688
 20
668.8829279608016
 30
0.0
 10
552.8543735666835
 20
668.8212240126057
 30
0.0
 10
553.379890078353
 20
668.6342125517177
 30
0.0
 10
553.4214252785433
 20
668.6194317440868
 30
0.0
  0
SPLINE
  5
147
330
1F
100
AcDbEntity
  8
0
  6
Continuous
 62
     7
370
    25
100
AcDbSpline
210
0.0
220
0.0
230
1.0
 70
     8
 71
     3
 72
    10
 73
     6
 74
     0
 42
0.00000001
 43
0.00000001
 40
0.0
 40
0.0
 40
0.0
 40
0.0
 40
0.2596150688488839
 40
0.6297606444810658
 40
1.0
 40
1.0
 40
1.0
 40
1.0
 10
504.6062219613588
 20
671.5313125887094
 30
0.0
 10
508.6840421800818
 20
671.2315584516109
 30
0.0
 10
518.575805013447
 20
670.5044305564468
 30
0.0
 10
534.3053776961203
 20
669.6785836865566
 30
0.0
 10
545.9555559573848
 20
669.186052037291
 30
0.0
 10
551.781382915296
 20
668.9397550197202
 30
0.0
  0
SPLINE
  5
148
330
1F
100
AcDbEntity
  8
0
  6
Continuous
 62
     7
370
    25
100
AcDbSpline
210
0.0
220
0.0
230
1.0
 70
     8
 71
     3
 72
    11
 73
     7
 74
     0
 42
0.00000001
 43
0.00000001
 40
0.0
 40
0.0
 40
0.0
 40
0.0
 40
0.0614641195413919
 40
0.4999988937835378
 40
0.9375097801832796
 40
1.0
 40
1.0
 40
1.0
 40
1.0
 10
504.606221961359
 20
677.2573449357112
 30
0.0
 10
504.5945527651566
 20
677.1408879632593
 30
0.0
 10
504.4996260788873
 20
676.193532695928
 30
0.0
 10
504.415923251621
 20
674.3962884974796
 30
0.0
 10
504.4994931751412
 20
672.597090473239
 30
0.0
 10
504.5943648801864
 20
671.6497156488058
 30
0.0
 10
504.6062219613588
 20
671.5313125887094
 30
0.0
  0
SPLINE
  5
149
330
1F
100
AcDbEntity
  8
0
  6
Continuous
 62
     7
370
    25
100
AcDbSpline
210
0.0
220
0.0
230
1.0
 70
     8
 71
     3
 72
    11
 73
     7
 74
     0
 42
0.00000001
 43
0.00000001
 40
0.0
 40
0.0
 40
0.0
 40
0.0
 40
0.2594589277291888
 40
0.6296002946237422
 40
0.8147836738016292
 40
1.0
 40
1.0
 40
1.0
 40
1.0
 10
551.781382915296
 20
679.8489025046985
 30
0.0
 10
547.6983822659511
 20
679.6834039182776
 30
0.0
 10
537.7906159991466
 20
679.2818067958259
 30
0.0
 10
524.9754790401856
 20
678.6035539798025
 30
0.0
 10
513.3312067739259
 20
677.9261330875904
 30
0.0
 10
507.5147226907933
 20
677.4802875389781
 30
0.0
 10
504.606221961359
 20
677.2573449357112
 30
0.0
  0
SPLINE
  5
14A
330
1F
100
AcDbEntity
  8
0
  6
Continuous
 62
     7
370
    25
100
AcDbSpline
210
0.0
220
0.0
230
1.0
 70
     8
 71
     3
 72
     9
 73
     5
 74
     0
 42
0.00000001
 43
0.00000001
 40
0.0
 40
0.0
 40
0.0
 40
0.0
 40
0.0790369080192175
 40
1.0
 40
1.0
 40
1.0
 40
1.0
 10
553.4214252785425
 20
680.1692257803318
 30
0.0
 10
553.3798900783472
 20
680.154444972699
 30
0.0
 10
552.8543735666779
 20
679.9674335118111
 30
0.0
 10
552.2958044531633
 20
679.9057295636159
 30
0.0
 10
551.781382915296
 20
679.8489025046985
 30
0.0
  0
SPLINE
  5
14B
330
1F
100
AcDbEntity
  8
0
  6
Continuous
 62
     7
370
    25
100
AcDbSpline
210
0.0
220
0.0
230
1.0
 70
     8
 71
     3
 72
    11
 73
     7
 74
     0
 42
0.00000001
 43
0.00000001
 40
0.0
 40
0.0
 40
0.0
 40
0.0
 40
0.0728838064943292
 40
0.4140719411596028
 40
0.9209668754550557
 40
1.0
 40
1.0
 40
1.0
 40
1.0
 10
551.8534950806321
 20
675.9949686287699
 30
0.0
 10
551.8457799314945
 20
676.1054150630089
 30
0.0
 10
551.8019481541298
 20
676.73289010334
 30
0.0
 10
552.1464398655679
 20
678.1158821338049
 30
0.0
 10
552.7861292150543
 20
679.3858136515825
 30
0.0
 10
553.3459179644871
 20
680.0761143177555
 30
0.0
 10
553.4214252785425
 20
680.1692257803318
 30
0.0
  0
SPLINE
  5
14C
330
1F
100
AcDbEntity
  8
0
  6
Continuous
 62
     7
370
    25
100
AcDbSpline
210
0.0
220
0.0
230
1.0
 70
     8
 71
     3
 72
    10
 73
     6
 74
     0
 42
0.00000001
 43
0.00000001
 40
0.0
 40
0.0
 40
0.0
 40
0.0
 40
0.3880207377811387
 40
0.979063776650686
 40
1.0
 40
1.0
 40
1.0
 40
1.0
 10
551.8534950806284
 20
672.793688895634
 30
0.0
 10
551.9268096113877
 20
673.2045287574897
 30
0.0
 10
552.111798696711
 20
674.241170327338
 30
0.0
 10
552.0160917708799
 20
675.3349396489092
 30
0.0
 10
551.8588736196322
 20
675.9731355176287
 30
0.0
 10
551.8534950806321
 20
675.9949686287699
 30
0.0
  0
ARC
  5
14D
330
1F
100
AcDbEntity
  8
0
  6
Continuous
 62
     7
370
    25
100
AcDbCircle
 10
560.0990154231
 20
674.3943287622
 30
0.0
 40
8.399443654264582
100
AcDbArc
 50
190.985757993
 51
169.0142420071
  0
SPLINE
  5
14E
330
1F
100
AcDbEntity
  8
0
  6
Continuous
 62
     7
370
    25
100
AcDbSpline
210
0.0
220
0.0
230
1.0
 70
     8
 71
     3
 72
     9
 73
     5
 74
     0
 42
0.00000001
 43
0.00000001
 40
0.0
 40
0.0
 40
0.0
 40
0.0
 40
0.6817923421274298
 40
1.0
 40
1.0
 40
1.0
 40
1.0
 10
553.4214252785425
 20
680.1692257803318
 30
0.0
 10
553.5636888391856
 20
680.359136135437
 30
0.0
 10
553.772349969346
 20
680.6376818793105
 30
0.0
 10
554.0017758032265
 20
680.8705862522535
 30
0.0
 10
554.0747808604809
 20
680.9446982072759
 30
0.0
  0
ARC
  5
14F
330
1F
100
AcDbEntity
  8
0
  6
Continuous
 62
     7
370
    25
100
AcDbCircle
 10
560.0990154231
 20
674.3943287622
 30
0.0
 40
8.899367501836373
100
AcDbArc
 50
227.3959191961
 51
132.6040808039
  0
LINE
  5
150
330
1F
100
AcDbEntity
  8
0
  6
Continuous
 62
     7
370
    25
100
AcDbLine
 10
554.0747808605
 20
667.8439593171
 30
0.0
 11
553.4214252785
 21
668.6194317441
 31
0.0
  0
SPLINE
  5
151
330
1F
100
AcDbEntity
  8
0
  6
Continuous
 62
     7
370
    25
100
AcDbSpline
210
0.0
220
0.0
230
1.0
 70
     8
 71
     3
 72
    10
 73
     6
 74
     0
 42
0.00000001
 43
0.00000001
 40
0.0
 40
0.0
 40
0.0
 40
0.0
 40
0.3702896688583042
 40
0.7405318123903297
 40
0.9999999999999999
 40
0.9999999999999999
 40
0.9999999999999999
 40
0.9999999999999999
 10
504.5947024981805
 20
677.7002045165444
 30
0.0
 10
510.414766344399
 20
678.0203955310708
 30
0.0
 10
522.0541470529025
 20
678.6607364647763
 30
0.0
 10
537.7730154596774
 20
679.5299707966395
 30
0.0
 10
547.6701892756871
 20
680.0787117982487
 30
0.0
 10
551.7482575961512
 20
680.3048170820806
 30
0.0
  0
ARC
  5
152
330
1F
100
AcDbEntity
  8
0
  6
Continuous
 62
     7
370
    25
100
AcDbCircle
 10
544.5331683887
 20
679.5514307154
 30
0.0
 40
7.254316183376082
100
AcDbArc
 50
2.3501399449
 51
5.9611177313
  0
ARC
  5
153
330
1F
100
AcDbEntity
  8
0
  6
Continuous
 62
     7
370
    25
100
AcDbCircle
 10
508.8552250394
 20
677.5894476925
 30
0.0
 40
4.261961918930201
100
AcDbArc
 50
178.5108705387
 51
184.4691613064
  0
SPLINE
  5
154
330
1F
100
AcDbEntity
  8
0
  6
Continuous
 62
     7
370
    25
100
AcDbSpline
210
0.0
220
0.0
230
1.0
 70
     8
 71
     3
 72
    10
 73
     6
 74
     0
 42
0.00000001
 43
0.00000001
 40
0.0
 40
0.0
 40
0.0
 40
0.0
 40
0.3702717503651156
 40
0.7405122151371748
 40
1.0
 40
1.0
 40
1.0
 40
1.0
 10
551.7482575961512
 20
668.4838404423381
 30
0.0
 10
545.9285855344821
 20
668.806368928006
 30
0.0
 10
534.2897331361852
 20
669.4513986477491
 30
0.0
 10
518.5705935522305
 20
670.3202131352281
 30
0.0
 10
508.6730961285319
 20
670.8642680459949
 30
0.0
 10
504.5947024981839
 20
671.088453007874
 30
0.0
  0
ARC
  5
155
330
1F
100
AcDbEntity
  8
0
  6
Continuous
 62
     7
370
    25
100
AcDbCircle
 10
508.8552250423
 20
671.1992098318
 30
0.0
 40
4.261961921791634
100
AcDbArc
 50
175.530838696
 51
181.4891294598
  0
ARC
  5
156
330
1F
100
AcDbEntity
  8
0
  6
Continuous
 62
     7
370
    25
100
AcDbCircle
 10
544.5331683887
 20
669.237226809
 30
0.0
 40
7.254316183410375
100
AcDbArc
 50
354.0388822687
 51
357.6498600551
  0
SPLINE
  5
157
330
1F
100
AcDbEntity
  8
0
  6
Continuous
 62
     7
370
    25
100
AcDbSpline
210
0.0
220
0.0
230
1.0
 70
     8
 71
     3
 72
    12
 73
     8
 74
     0
 42
0.00000001
 43
0.00000001
 40
0.0
 40
0.0
 40
0.0
 40
0.0
 40
0.1224290494151362
 40
0.3423522449770489
 40
0.5614228816909436
 40
0.7807229538533521
 40
1.0
 40
1.0
 40
1.0
 40
1.0
 10
502.6704945285112
 20
671.6419869583656
 30
0.0
 10
502.6794986043753
 20
671.6396282739247
 30
0.0
 10
502.7046769881064
 20
671.6330326095998
 30
0.0
 10
502.920664671751
 20
671.6160246418607
 30
0.0
 10
503.3565628014801
 20
671.5905136677063
 30
0.0
 10
503.9404884149104
 20
671.5609614851469
 30
0.0
 10
504.3843185464785
 20
671.5411952082679
 30
0.0
 10
504.6062219613588
 20
671.5313125887094
 30
0.0
  0
SPLINE
  5
158
330
1F
100
AcDbEntity
  8
0
  6
Continuous
 62
     7
370
    25
100
AcDbSpline
210
0.0
220
0.0
230
1.0
 70
     8
 71
     3
 72
    11
 73
     7
 74
     0
 42
0.00000001
 43
0.00000001
 40
0.0
 40
0.0
 40
0.0
 40
0.0
 40
0.0800485240044433
 40
0.5000005853538798
 40
0.9209248322279645
 40
1.0
 40
1.0
 40
1.0
 40
1.0
 10
502.6704945285112
 20
671.6419869583656
 30
0.0
 10
502.6707807729254
 20
671.7882313834663
 30
0.0
 10
502.6725687181299
 20
672.7017060422993
 30
0.0
 10
502.6738044149599
 20
674.3961156300578
 30
0.0
 10
502.6725667168651
 20
676.0887424819124
 30
0.0
 10
502.6707774948971
 20
677.0022058575563
 30
0.0
 10
502.6704945285112
 20
677.1466705660476
 30
0.0
  0
SPLINE
  5
159
330
1F
100
AcDbEntity
  8
0
  6
Continuous
 62
     7
370
    25
100
AcDbSpline
210
0.0
220
0.0
230
1.0
 70
     8
 71
     3
 72
    12
 73
     8
 74
     0
 42
0.00000001
 43
0.00000001
 40
0.0
 40
0.0
 40
0.0
 40
0.0
 40
0.1130367476169282
 40
0.3328594693547963
 40
0.5544127937944965
 40
0.7774207483513224
 40
1.0
 40
1.0
 40
1.0
 40
1.0
 10
504.606221961359
 20
677.2573449357112
 30
0.0
 10
504.492151121372
 20
677.2523296900098
 30
0.0
 10
504.1562465587641
 20
677.2375612889541
 30
0.0
 10
503.6221787023695
 20
677.2119690848447
 30
0.0
 10
503.1056530644823
 20
677.1840938219736
 30
0.0
 10
502.7487583473278
 20
677.1606519483831
 30
0.0
 10
502.6965657298094
 20
677.1513280366235
 30
0.0
 10
502.6704945285112
 20
677.1466705660476
 30
0.0
  0
SPLINE
  5
15A
330
1F
100
AcDbEntity
  8
0
  6
Continuous
 62
     7
370
    25
100
AcDbSpline
210
0.0
220
0.0
230
1.0
 70
     8
 71
     3
 72
     9
 73
     5
 74
     0
 42
0.00000001
 43
0.00000001
 40
0.0
 40
0.0
 40
0.0
 40
0.0
 40
0.5000106123815449
 40
1.0
 40
1.0
 40
1.0
 40
1.0
 10
554.5743887093239
 20
667.4121276278964
 30
0.0
 10
554.144667342503
 20
667.6999681659897
 30
0.0
 10
553.2852428499424
 20
668.2756370237412
 30
0.0
 10
552.2605787646642
 20
668.4144402848278
 30
0.0
 10
551.7482575961512
 20
668.4838404423381
 30
0.0
  0
SPLINE
  5
15B
330
1F
100
AcDbEntity
  8
0
  6
Continuous
 62
     7
370
    25
100
AcDbSpline
210
0.0
220
0.0
230
1.0
 70
     8
 71
     3
 72
     9
 73
     5
 74
     0
 42
0.00000001
 43
0.00000001
 40
0.0
 40
0.0
 40
0.0
 40
0.0
 40
0.9838702326459322
 40
1.0
 40
1.0
 40
1.0
 40
1.0
 10
554.0747808604809
 20
667.8439593171428
 30
0.0
 10
554.2361216754152
 20
667.6991269041237
 30
0.0
 10
554.4001075442634
 20
667.5519200792669
 30
0.0
 10
554.571622217546
 20
667.4143466552204
 30
0.0
 10
554.5743887093239
 20
667.4121276278964
 30
0.0
  0
SPLINE
  5
15C
330
1F
100
AcDbEntity
  8
0
  6
Continuous
 62
     7
370
    25
100
AcDbSpline
210
0.0
220
0.0
230
1.0
 70
     8
 71
     3
 72
     9
 73
     5
 74
     0
 42
0.00000001
 43
0.00000001
 40
0.0
 40
0.0
 40
0.0
 40
0.0
 40
0.5055561057107315
 40
1.0
 40
1.0
 40
1.0
 40
1.0
 10
551.7482575961512
 20
680.3048170820806
 30
0.0
 10
552.2663171134843
 20
680.3754731163506
 30
0.0
 10
553.2910491095596
 20
680.515232152928
 30
0.0
 10
554.1497896783212
 20
681.0915654277237
 30
0.0
 10
554.5743887093239
 20
681.3765298965222
 30
0.0
  0
SPLINE
  5
15D
330
1F
100
AcDbEntity
  8
0
  6
Continuous
 62
     7
370
    25
100
AcDbSpline
210
0.0
220
0.0
230
1.0
 70
     8
 71
     3
 72
     9
 73
     5
 74
     0
 42
0.00000001
 43
0.00000001
 40
0.0
 40
0.0
 40
0.0
 40
0.0
 40
0.0161297673533178
 40
1.0
 40
1.0
 40
1.0
 40
1.0
 10
554.5743887093239
 20
681.3765298965222
 30
0.0
 10
554.5716222175461
 20
681.3743108691983
 30
0.0
 10
554.4001075442593
 20
681.2367374451488
 30
0.0
 10
554.2361216754133
 20
681.0895306202934
 30
0.0
 10
554.0747808604809
 20
680.9446982072759
 30
0.0
  0
SPLINE
  5
15E
330
1F
100
AcDbEntity
  8
0
  6
Continuous
 62
     7
370
    25
100
AcDbSpline
210
0.0
220
0.0
230
1.0
 70
     8
 71
     3
 72
    12
 73
     8
 74
     0
 42
0.00000001
 43
0.00000001
 40
0.0
 40
0.0
 40
0.0
 40
0.0
 40
0.2230315344150378
 40
0.4461337558340359
 40
0.6675099896777023
 40
0.8870667292265011
 40
1.0
 40
1.0
 40
1.0
 40
1.0
 10
503.1428487935957
 20
677.6458336370961
 30
0.0
 10
503.1623825797217
 20
677.6439433898013
 30
0.0
 10
503.2014563429582
 20
677.6401622961218
 30
0.0
 10
503.4690455250144
 20
677.6471051323925
 30
0.0
 10
503.8565746088395
 20
677.6626939548825
 30
0.0
 10
504.2572967213025
 20
677.6820312349466
 30
0.0
 10
504.5091561435604
 20
677.6955968361232
 30
0.0
 10
504.5947024981805
 20
677.7002045165444
 30
0.0
  0
ARC
  5
15F
330
1F
100
AcDbEntity
  8
0
  6
Continuous
 62
     7
370
    25
100
AcDbCircle
 10
503.1705944161
 20
677.1465039807
 30
0.0
 40
0.5000999153470742
100
AcDbArc
 50
93.1804119247
 51
179.9809145383
  0
SPLINE
  5
160
330
1F
100
AcDbEntity
  8
0
  6
Continuous
 62
     7
370
    25
100
AcDbSpline
210
0.0
220
0.0
230
1.0
 70
     8
 71
     3
 72
    12
 73
     8
 74
     0
 42
0.00000001
 43
0.00000001
 40
0.0
 40
0.0
 40
0.0
 40
0.0
 40
0.2190444340109337
 40
0.4380981679380299
 40
0.6571027493691836
 40
0.8772791087290026
 40
1.0
 40
1.0
 40
1.0
 40
1.0
 10
504.5947024981839
 20
671.088453007874
 30
0.0
 10
504.4282847574131
 20
671.0972818208237
 30
0.0
 10
504.0954422103139
 20
671.114939821566
 30
0.0
 10
503.6572837676707
 20
671.1344583109751
 30
0.0
 10
503.3303179409113
 20
671.1457640946074
 30
0.0
 10
503.168474063897
 20
671.147587962684
 30
0.0
 10
503.1496027314849
 20
671.1440795333592
 30
0.0
 10
503.1428487935958
 20
671.1428238873226
 30
0.0
  0
ARC
  5
161
330
1F
100
AcDbEntity
  8
0
  6
Continuous
 62
     7
370
    25
100
AcDbCircle
 10
503.1705944161
 20
671.6421535437
 30
0.0
 40
0.5000999153471877
100
AcDbArc
 50
180.0190854624
 51
266.8195880753
  0
LINE
  5
162
330
1F
100
AcDbEntity
  8
0
  6
Continuous
 62
     7
370
    25
100
AcDbLine
 10
551.7482575962
 20
680.3048170821
 30
0.0
 11
551.7212714145
 21
680.3761073574
 31
0.0
  0
LINE
  5
163
330
1F
100
AcDbEntity
  8
0
  6
Continuous
 62
     7
370
    25
100
AcDbLine
 10
503.1381584329
 20
677.6502720902
 30
0.0
 11
503.1428487936
 21
677.6458336371
 31
0.0
  0
ELLIPSE
  5
164
330
1F
100
AcDbEntity
  8
0
  6
Continuous
 62
     7
370
    25
100
AcDbEllipse
 10
504.6379299757
 20
677.7335645402
 30
0.0
 11
1.499999304622747
 21
0.08287263343868288
 31
0.0
210
0.0
220
0.0
230
1.0
 40
0.0174284859
 41
2.255125316694257
 42
3.158083049610823
  0
LINE
  5
165
330
1F
100
AcDbEntity
  8
0
  6
Continuous
 62
     7
370
    25
100
AcDbLine
 10
507.1535446447
 20
677.9423241282
 30
0.0
 11
503.6885814352
 21
677.7014328492
 31
0.0
  0
LINE
  5
166
330
1F
100
AcDbEntity
  8
0
  6
Continuous
 62
     7
370
    25
100
AcDbLine
 10
507.1535446447
 20
677.942225737
 30
0.0
 11
507.1535446447
 21
677.9423241282
 31
0.0
  0
ELLIPSE
  5
167
330
1F
100
AcDbEntity
  8
0
  6
Continuous
 62
     7
370
    25
100
AcDbEllipse
 10
516.6030310656
 20
678.2718717884
 30
0.0
 11
14.49999327802038
 21
0.8011021232406392
 31
0.0
210
0.0
220
0.0
230
1.0
 40
0.0174284859
 41
1.543516838852415
 42
2.279642175408187
  0
ELLIPSE
  5
168
330
1F
100
AcDbEntity
  8
0
  6
Continuous
 62
     7
370
    25
100
AcDbEllipse
 10
517.9240409812
 20
679.2221553377
 30
0.0
 11
35.70262504606012
 21
1.972514619921867
 31
0.0
210
0.0
220
0.0
230
1.0
 40
0.0174284859
 41
4.685109492442219
 42
5.167309992307906
  0
ELLIPSE
  5
169
330
1F
100
AcDbEntity
  8
0
  6
Continuous
 62
     7
370
    25
100
AcDbEllipse
 10
536.9442684532
 20
679.5945513974
 30
0.0
 11
7.499996523113964
 21
0.4143631671935282
 31
0.0
210
0.0
220
0.0
230
1.0
 40
0.0174284859
 41
1.834826681007682
 42
2.025717338717967
  0
LINE
  5
16A
330
1F
100
AcDbEntity
  8
0
  6
Continuous
 62
     7
370
    25
100
AcDbLine
 10
534.9996160522
 20
679.4622069462
 30
0.0
 11
534.9799977948
 21
679.6125974908
 31
0.0
  0
SPLINE
  5
16B
330
1F
100
AcDbEntity
  8
0
  6
Continuous
 62
     7
370
    25
100
AcDbSpline
210
0.0
220
0.0
230
1.0
 70
     8
 71
     3
 72
    10
 73
     6
 74
     0
 42
0.00000001
 43
0.00000001
 40
0.0
 40
0.0
 40
0.0
 40
0.0
 40
0.0186368637457406
 40
0.3939469944633167
 40
1.0
 40
1.0
 40
1.0
 40
1.0
 10
535.1833873378815
 20
679.4626933134846
 30
0.0
 10
535.1809311306328
 20
679.4626055630052
 30
0.0
 10
535.1290116941556
 20
679.4607506888123
 30
0.0
 10
535.0250128456779
 20
679.458070707434
 30
0.0
 10
535.0093121883286
 20
679.4606277888316
 30
0.0
 10
534.999616052185
 20
679.4622069462395
 30
0.0
  0
LINE
  5
16C
330
1F
100
AcDbEntity
  8
0
  6
Continuous
 62
     7
370
    25
100
AcDbLine
 10
551.7212714145
 20
680.3761073574
 30
0.0
 11
535.1833873379
 21
679.4626933135
 31
0.0
  0
LINE
  5
16D
330
1F
100
AcDbEntity
  8
0
  6
Continuous
 62
     7
370
    25
100
AcDbLine
 10
535.181321606
 20
669.3097605621
 30
0.0
 11
551.7152300294
 21
668.3965660999
 31
0.0
  0
SPLINE
  5
16E
330
1F
100
AcDbEntity
  8
0
  6
Continuous
 62
     7
370
    25
100
AcDbSpline
210
0.0
220
0.0
230
1.0
 70
     8
 71
     3
 72
    11
 73
     7
 74
     0
 42
0.00000001
 43
0.00000001
 40
0.0
 40
0.0
 40
0.0
 40
0.0
 40
0.417746929449536
 40
0.8392770662410924
 40
0.9817832068819766
 40
1.0
 40
1.0
 40
1.0
 40
1.0
 10
534.9976161653132
 20
669.3111100073926
 30
0.0
 10
535.002253193345
 20
669.3121931985762
 30
0.0
 10
535.0115692433463
 20
669.3143693905594
 30
0.0
 10
535.0870657090965
 20
669.313167213668
 30
0.0
 10
535.1573259096685
 20
669.3106966863279
 30
0.0
 10
535.1788787463262
 20
669.309855863371
 30
0.0
 10
535.1813216059562
 20
669.3097605621125
 30
0.0
  0
LINE
  5
16F
330
1F
100
AcDbEntity
  8
0
  6
Continuous
 62
     7
370
    25
100
AcDbLine
 10
534.9799977948
 20
669.1760600336
 30
0.0
 11
534.9976161653
 21
669.3111100074
 31
0.0
  0
ELLIPSE
  5
170
330
1F
100
AcDbEntity
  8
0
  6
Continuous
 62
     7
370
    25
100
AcDbEllipse
 10
536.9442684532
 20
669.194106127
 30
0.0
 11
7.499996523113964
 21
-0.4143631671935282
 31
0.0
210
0.0
220
0.0
230
1.0
 40
0.0174284859
 41
4.257467968461774
 42
4.448358626171732
  0
ELLIPSE
  5
171
330
1F
100
AcDbEntity
  8
0
  6
Continuous
 62
     7
370
    25
100
AcDbEllipse
 10
517.9240409812
 20
669.5665021867
 30
0.0
 11
35.70262504606023
 21
-1.972514619921981
 31
0.0
210
0.0
220
0.0
230
1.0
 40
0.0174284859
 41
1.115875314871788
 42
1.598075814737372
  0
ELLIPSE
  5
172
330
1F
100
AcDbEntity
  8
0
  6
Continuous
 62
     7
370
    25
100
AcDbEllipse
 10
516.6030310656
 20
670.516785736
 30
0.0
 11
14.49999327802038
 21
-0.8011021232406392
 31
0.0
210
0.0
220
0.0
230
1.0
 40
0.0174284859
 41
4.003543131771973
 42
4.739668468327159
  0
LINE
  5
173
330
1F
100
AcDbEntity
  8
0
  6
Continuous
 62
     7
370
    25
100
AcDbLine
 10
507.1535446447
 20
670.8463333962
 30
0.0
 11
507.1535446447
 21
670.8464317875
 31
0.0
  0
LINE
  5
174
330
1F
100
AcDbEntity
  8
0
  6
Continuous
 62
     7
370
    25
100
AcDbLine
 10
503.6885814352
 20
671.0872246752
 30
0.0
 11
507.1535446447
 21
670.8463333962
 31
0.0
  0
ELLIPSE
  5
175
330
1F
100
AcDbEntity
  8
0
  6
Continuous
 62
     7
370
    25
100
AcDbEllipse
 10
504.6379299757
 20
671.0550929843
 30
0.0
 11
1.499999304622747
 21
-0.08287263343868288
 31
0.0
210
0.0
220
0.0
230
1.0
 40
0.0174284859
 41
3.628287019362163
 42
4.028059990483584
  0
LINE
  5
176
330
1F
100
AcDbEntity
  8
0
  6
Continuous
 62
     7
370
    25
100
AcDbLine
 10
503.1428487936
 20
671.1428238873
 30
0.0
 11
503.1381584329
 21
671.1383854343
 31
0.0
  0
LINE
  5
177
330
1F
100
AcDbEntity
  8
0
  6
Continuous
 62
     7
370
    25
100
AcDbLine
 10
551.7152300294
 20
668.3965660999
 30
0.0
 11
551.7482575962
 21
668.4838404423
 31
0.0
  0
SPLINE
  5
178
330
1F
100
AcDbEntity
  8
0
  6
Continuous
 62
     7
370
    25
100
AcDbSpline
210
0.0
220
0.0
230
1.0
 70
     8
 71
     3
 72
     9
 73
     5
 74
     0
 42
0.00000001
 43
0.00000001
 40
0.0
 40
0.0
 40
0.0
 40
0.0
 40
0.5001021276704715
 40
0.9999999999999999
 40
0.9999999999999999
 40
0.9999999999999999
 40
0.9999999999999999
 10
554.5411698432684
 20
681.4422213434824
 30
0.0
 10
554.1122220675611
 20
681.1556957093939
 30
0.0
 10
553.2545017101105
 20
680.582761466096
 30
0.0
 10
552.2322785814954
 20
680.444982679642
 30
0.0
 10
551.7212714144547
 20
680.3761073574414
 30
0.0
  0
LINE
  5
179
330
1F
100
AcDbEntity
  8
0
  6
Continuous
 62
     7
370
    25
100
AcDbLine
 10
554.5411698433
 20
681.4422213435
 30
0.0
 11
554.5743887093
 21
681.3765298965
 31
0.0
  0
SPLINE
  5
17A
330
1F
100
AcDbEntity
  8
0
  6
Continuous
 62
     7
370
    25
100
AcDbSpline
210
0.0
220
0.0
230
1.0
 70
     8
 71
     3
 72
     9
 73
     5
 74
     0
 42
0.00000001
 43
0.00000001
 40
0.0
 40
0.0
 40
0.0
 40
0.0
 40
0.4007227371565292
 40
1.0
 40
1.0
 40
1.0
 40
1.0
 10
551.7152300294031
 20
668.396566099898
 30
0.0
 10
552.1239161528123
 20
668.3481588378323
 30
0.0
 10
553.1437887118522
 20
668.2273589490885
 30
0.0
 10
554.012864755678
 20
667.6672516757349
 30
0.0
 10
554.5336822684249
 20
667.3315921220607
 30
0.0
  0
LINE
  5
17B
330
1F
100
AcDbEntity
  8
0
  6
Continuous
 62
     7
370
    25
100
AcDbLine
 10
554.5743887093
 20
667.4121276279
 30
0.0
 11
554.5336822684
 21
667.3315921221
 31
0.0
  0
ARC
  5
17C
330
1F
100
AcDbEntity
  8
0
  6
Continuous
 62
     7
370
    25
100
AcDbCircle
 10
560.0990154231
 20
674.3943287622
 30
0.0
 40
8.975658044222053
100
AcDbArc
 50
65.1648853947
 51
128.2586979829
  0
LWPOLYLINE
  5
17D
330
1F
100
AcDbEntity
  8
0
  6
Continuous
 62
     7
370
    25
100
AcDbPolyline
 90
        3
 70
   128
 43
0.0
 10
564.0343288474
 20
682.6449884855
 10
563.9297472832
 20
682.5787360743
 10
563.8688667405
 20
682.5399201079
  0
ARC
  5
17E
330
1F
100
AcDbEntity
  8
0
  6
Continuous
 62
     7
370
    25
100
AcDbCircle
 10
560.0990154231
 20
674.3943287622
 30
0.0
 40
9.141120151092158
100
AcDbArc
 50
295.4997164176
 51
64.5002794289
  0
LWPOLYLINE
  5
17F
330
1F
100
AcDbEntity
  8
0
  6
Continuous
 62
     7
370
    25
100
AcDbPolyline
 90
        3
 70
   128
 43
0.0
 10
563.885159651
 20
666.2383313458
 10
563.9297472832
 20
666.2099214502
 10
564.0343288477
 20
666.1436690387
  0
ARC
  5
180
330
1F
100
AcDbEntity
  8
0
  6
Continuous
 62
     7
370
    25
100
AcDbCircle
 10
560.0990154231
 20
674.3943287622
 30
0.0
 40
8.991950954660766
100
AcDbArc
 50
231.762407147
 51
294.9014811666
  0
LINE
  5
181
330
1F
100
AcDbEntity
  8
0
  6
Continuous
 62
     7
370
    25
100
AcDbLine
 10
502.6658041678
 20
671.6375485053
 30
0.0
 11
502.6704945285
 21
671.6419869584
 31
0.0
  0
LINE
  5
182
330
1F
100
AcDbEntity
  8
0
  6
Continuous
 62
     7
370
    25
100
AcDbLine
 10
502.6658041678
 20
677.1511090191
 30
0.0
 11
502.6658041678
 21
671.6375485053
 31
0.0
  0
LINE
  5
183
330
1F
100
AcDbEntity
  8
0
  6
Continuous
 62
     7
370
    25
100
AcDbLine
 10
502.6704945285
 20
677.146670566
 30
0.0
 11
502.6658041678
 21
677.1511090191
 31
0.0
  0
ARC
  5
184
330
1F
100
AcDbEntity
  8
0
  6
Continuous
 62
     7
370
    25
100
AcDbCircle
 10
503.1659040554
 20
671.6377150907
 30
0.0
 40
0.5000999153470679
100
AcDbArc
 50
180.0190854617
 51
266.8195880753
  0
ARC
  5
185
330
1F
100
AcDbEntity
  8
0
  6
Continuous
 62
     7
370
    25
100
AcDbCircle
 10
503.1659040554
 20
677.1509424338
 30
0.0
 40
0.5000999153469543
100
AcDbArc
 50
93.1804119247
 51
179.9809145383
  0
LINE
  5
186
330
1F
100
AcDbEntity
  8
0
  6
Continuous
 62
     7
370
    25
100
AcDbLine
 10
503.6885814352
 20
671.0872246752
 30
0.0
 11
503.6814737045
 21
671.0875917119
 31
0.0
  0
LINE
  5
187
330
1F
100
AcDbEntity
  8
0
  6
Continuous
 62
     7
370
    25
100
AcDbLine
 10
503.6885814352
 20
677.7014328492
 30
0.0
 11
503.6814737045
 21
677.7010658126
 31
0.0
  0
SPLINE
  5
188
330
1F
100
AcDbEntity
  8
0
  6
Continuous
 62
     7
370
    25
100
AcDbSpline
210
0.0
220
0.0
230
1.0
 70
     8
 71
     3
 72
    12
 73
     8
 74
     0
 42
0.00000001
 43
0.00000001
 40
0.0
 40
0.0
 40
0.0
 40
0.0
 40
0.1662426524176543
 40
0.3368059756191302
 40
0.6054181071254584
 40
0.8801435087136191
 40
1.0
 40
1.0
 40
1.0
 40
1.0
 10
553.9769561758246
 20
686.0709891438803
 30
0.0
 10
554.6146376963608
 20
685.9155039683973
 30
0.0
 10
555.9065741731614
 20
685.6004925350421
 30
0.0
 10
558.0907605555108
 20
684.9375274300436
 30
0.0
 10
560.4527348990705
 20
684.0853325132381
 30
0.0
 10
562.4182724609631
 20
683.242703834626
 30
0.0
 10
563.5320474457587
 20
682.704845741931
 30
0.0
 10
563.8703629239162
 20
682.5414682911036
 30
0.0
  0
LINE
  5
189
330
1F
100
AcDbEntity
  8
0
  6
Continuous
 62
     7
370
    25
100
AcDbLine
 10
553.9769561758
 20
686.0709891439
 30
0.0
 11
553.9928142528
 21
686.1404626754
 31
0.0
  0
ARC
  5
18A
330
1F
100
AcDbEntity
  8
0
  6
Continuous
 62
     7
370
    25
100
AcDbCircle
 10
543.2710360163
 20
639.1688278632
 30
0.0
 40
48.17977797259062
100
AcDbArc
 50
64.4718479123
 51
77.1419190681
  0
LWPOLYLINE
  5
18B
330
1F
100
AcDbEntity
  8
0
  6
Continuous
 62
     7
370
    25
100
AcDbPolyline
 90
        3
 70
   128
 43
0.0
 10
563.8703629239
 20
682.5414682911
 10
563.9297507743
 20
682.5789919947
 10
564.0343288471
 20
682.6449900246
  0
SPLINE
  5
18C
330
1F
100
AcDbEntity
  8
0
  6
Continuous
 62
     7
370
    25
100
AcDbSpline
210
0.0
220
0.0
230
1.0
 70
     8
 71
     3
 72
    11
 73
     7
 74
     0
 42
0.00000001
 43
0.00000001
 40
0.0
 40
0.0
 40
0.0
 40
0.0
 40
0.1345990676765949
 40
0.4126978815969498
 40
0.6969472592954598
 40
1.0
 40
1.0
 40
1.0
 40
1.0
 10
563.8696453469591
 20
682.5407267250297
 30
0.0
 10
563.4403393267107
 20
682.7316106101908
 30
0.0
 10
562.1240323999866
 20
683.3168849096106
 30
0.0
 10
559.7482223491033
 20
683.9393527936343
 30
0.0
 10
556.6945329642224
 20
684.3158554761346
 30
0.0
 10
554.5035030558616
 20
684.3429968044675
 30
0.0
 10
553.3729135383236
 20
684.3570019539125
 30
0.0
  0
ARC
  5
18D
330
1F
100
AcDbEntity
  8
0
  6
Continuous
 62
     7
370
    25
100
AcDbCircle
 10
557.8654445313
 20
683.7371779093
 30
0.0
 40
4.535087272524855
100
AcDbArc
 50
149.0284626407
 51
172.1446266983
  0
LINE
  5
18E
330
1F
100
AcDbEntity
  8
0
  6
Continuous
 62
     7
370
    25
100
AcDbLine
 10
563.8703629239
 20
682.5414682911
 30
0.0
 11
563.869645347
 21
682.540726725
 31
0.0
  0
LINE
  5
18F
330
1F
100
AcDbEntity
  8
0
  6
Continuous
 62
     7
370
    25
100
AcDbLine
 10
554.5411698433
 20
681.4422213435
 30
0.0
 11
552.3432979231
 21
684.2293382178
 31
0.0
  0
ARC
  5
190
330
1F
100
AcDbEntity
  8
0
  6
Continuous
 62
     7
370
    25
100
AcDbCircle
 10
560.0990154231
 20
674.3943287622
 30
0.0
 40
12.52511736202729
100
AcDbArc
 50
127.8583068702
 51
128.2586979829
  0
LINE
  5
191
330
1F
100
AcDbEntity
  8
0
  6
Continuous
 62
     7
370
    25
100
AcDbLine
 10
553.3729135383
 20
684.3570019539
 30
0.0
 11
552.4122151894
 21
684.2832957002
 31
0.0
  0
LINE
  5
192
330
1F
100
AcDbEntity
  8
0
  6
Continuous
 62
     7
370
    25
100
AcDbLine
 10
563.8688667405
 20
682.5399201079
 30
0.0
 11
563.869645347
 21
682.540726725
 31
0.0
  0
LINE
  5
193
330
1F
100
AcDbEntity
  8
0
  6
Continuous
 62
     7
370
    25
100
AcDbLine
 10
549.4254448627
 20
683.8041742132
 30
0.0
 11
551.5255273787
 21
683.9201651619
 31
0.0
  0
LINE
  5
194
330
1F
100
AcDbEntity
  8
0
  6
Continuous
 62
     7
370
    25
100
AcDbLine
 10
551.7212714145
 20
680.3761073574
 30
0.0
 11
551.5255273787
 21
683.9201651619
 31
0.0
  0
SPLINE
  5
195
330
1F
100
AcDbEntity
  8
0
  6
Continuous
 62
     7
370
    25
100
AcDbSpline
210
0.0
220
0.0
230
1.0
 70
     8
 71
     3
 72
    17
 73
    13
 74
     0
 42
0.00000001
 43
0.00000001
 40
0.0
 40
0.0
 40
0.0
 40
0.0
 40
0.2859834379244693
 40
0.521592264412223
 40
0.7592399016809378
 40
0.8521492405060498
 40
0.926670863383602
 40
0.960505839319536
 40
0.9835417153308589
 40
0.9930790992390832
 40
0.9972256067114875
 40
1.0
 40
1.0
 40
1.0
 40
1.0
 10
547.9847765005757
 20
683.2800305311946
 30
0.0
 10
546.7559983168283
 20
682.748162407174
 30
0.0
 10
544.5148853349976
 20
681.7781121791265
 30
0.0
 10
541.1759366480957
 20
680.7358815083419
 30
0.0
 10
538.6732812813889
 20
680.1180629474152
 30
0.0
 10
536.9029749973528
 20
679.764087638197
 30
0.0
 10
536.0378541620155
 20
679.6093866035842
 30
0.0
 10
535.51226673274
 20
679.5208866127524
 30
0.0
 10
535.2786046190827
 20
679.4817748499299
 30
0.0
 10
535.2009544595934
 20
679.4674550831679
 30
0.0
 10
535.1848728053932
 20
679.4637213308505
 30
0.0
 10
535.1838124174174
 20
679.4629874896556
 30
0.0
 10
535.1833873378815
 20
679.4626933134846
 30
0.0
  0
LINE
  5
196
330
1F
100
AcDbEntity
  8
0
  6
Continuous
 62
     7
370
    25
100
AcDbLine
 10
549.4254448627
 20
683.8041742132
 30
0.0
 11
547.9847765006
 21
683.2800305312
 31
0.0
  0
ARC
  5
197
330
1F
100
AcDbEntity
  8
0
  6
Continuous
 62
     7
370
    25
100
AcDbCircle
 10
542.1813437094
 20
679.6709281504
 30
0.0
 40
6.834138728227298
100
AcDbArc
 50
31.8771071303
 51
46.9488007428
  0
SPLINE
  5
198
330
1F
100
AcDbEntity
  8
0
  6
Continuous
 62
     7
370
    25
100
AcDbSpline
210
0.0
220
0.0
230
1.0
 70
     8
 71
     3
 72
    10
 73
     6
 74
     0
 42
0.00000001
 43
0.00000001
 40
0.0
 40
0.0
 40
0.0
 40
0.0
 40
0.5975855365574454
 40
0.9790563563181981
 40
1.0
 40
1.0
 40
1.0
 40
1.0
 10
535.0733620181937
 20
679.4718202108238
 30
0.0
 10
535.0708428788404
 20
679.4680809130975
 30
0.0
 10
535.0667156380598
 20
679.461954621574
 30
0.0
 10
535.141086764615
 20
679.4615780627174
 30
0.0
 10
535.1812947167195
 20
679.4626381417179
 30
0.0
 10
535.1833873378815
 20
679.4626933134846
 30
0.0
  0
SPLINE
  5
199
330
1F
100
AcDbEntity
  8
0
  6
Continuous
 62
     7
370
    25
100
AcDbSpline
210
0.0
220
0.0
230
1.0
 70
     8
 71
     3
 72
    14
 73
    10
 74
     0
 42
0.00000001
 43
0.00000001
 40
0.0
 40
0.0
 40
0.0
 40
0.0
 40
0.0129036569231464
 40
0.0519665716781148
 40
0.1318891824261205
 40
0.2280032005552168
 40
0.4679440229400844
 40
0.7079115564493632
 40
1.0
 40
1.0
 40
1.0
 40
1.0
 10
535.0733620181937
 20
679.4718202108238
 30
0.0
 10
535.1068305946582
 20
679.4796651848851
 30
0.0
 10
535.2416177474907
 20
679.5112590508177
 30
0.0
 10
535.6808911924833
 20
679.6136410981115
 30
0.0
 10
536.4923186107092
 20
679.8160426069285
 30
0.0
 10
538.1457957925298
 20
680.2830932876947
 30
0.0
 10
540.4900858647735
 20
681.120550347085
 30
0.0
 10
543.6351800412707
 20
682.5654905874353
 30
0.0
 10
545.7084787154631
 20
683.9208614702301
 30
0.0
 10
546.8466795982104
 20
684.6649338773798
 30
0.0
  0
LWPOLYLINE
  5
19A
330
1F
100
AcDbEntity
  8
0
  6
Continuous
 62
     7
370
    25
100
AcDbPolyline
 90
        4
 70
   128
 43
0.0
 10
535.0538352041
 20
679.6229157871
 10
535.0560798398
 20
679.6055576402
 10
535.0650548737
 20
679.5361248941
 10
535.0733620182
 20
679.4718202108
  0
LINE
  5
19B
330
1F
100
AcDbEntity
  8
0
  6
Continuous
 62
     7
370
    25
100
AcDbLine
 10
536.8419594879
 20
680.0524432904
 30
0.0
 11
535.0538352041
 21
679.6229157871
 31
0.0
  0
ARC
  5
19C
330
1F
100
AcDbEntity
  8
0
  6
Continuous
 62
     7
370
    25
100
AcDbCircle
 10
528.6564010893
 20
710.4781368842
 30
0.0
 40
31.5075577752834
100
AcDbArc
 50
285.0579972479
 51
305.1719294169
  0
LINE
  5
19D
330
1F
100
AcDbEntity
  8
0
  6
Continuous
 62
     7
370
    25
100
AcDbLine
 10
546.8466795982
 20
684.6649338774
 30
0.0
 11
546.805759712
 21
684.7230018904
 31
0.0
  0
SPLINE
  5
19E
330
1F
100
AcDbEntity
  8
0
  6
Continuous
 62
     7
370
    25
100
AcDbSpline
210
0.0
220
0.0
230
1.0
 70
     8
 71
     3
 72
     9
 73
     5
 74
     0
 42
0.00000001
 43
0.00000001
 40
0.0
 40
0.0
 40
0.0
 40
0.0
 40
0.4998978730609696
 40
0.9999999999999999
 40
0.9999999999999999
 40
0.9999999999999999
 40
0.9999999999999999
 10
551.5255273787494
 20
683.9201651618853
 30
0.0
 10
551.6737222946451
 20
683.9401314998876
 30
0.0
 10
551.9701726775772
 20
683.9800723339622
 30
0.0
 10
552.2189059063538
 20
684.1462382765328
 30
0.0
 10
552.3432979231054
 20
684.2293382178372
 30
0.0
  0
ARC
  5
19F
330
1F
100
AcDbEntity
  8
0
  6
Continuous
 62
     7
370
    25
100
AcDbCircle
 10
534.9720267033
 20
679.9615216507
 30
0.0
 40
0.5000763404128421
100
AcDbArc
 50
273.1626296402
 51
281.6913635615
  0
SPLINE
  5
1A0
330
1F
100
AcDbEntity
  8
0
  6
Continuous
 62
     7
370
    25
100
AcDbSpline
210
0.0
220
0.0
230
1.0
 70
     8
 71
     3
 72
    13
 73
     9
 74
     0
 42
0.00000001
 43
0.00000001
 40
0.0
 40
0.0
 40
0.0
 40
0.0
 40
0.0460329529079877
 40
0.2492425848193723
 40
0.4775225570272882
 40
0.7051721168687842
 40
0.852680826381466
 40
1.0
 40
1.0
 40
1.0
 40
1.0
 10
563.8863938976065
 20
666.2370570021069
 30
0.0
 10
563.758059245568
 20
666.1745480336702
 30
0.0
 10
563.0631991860824
 20
665.8360970787929
 30
0.0
 10
561.703535951506
 20
665.218119654764
 30
0.0
 10
559.6955633346876
 20
664.4076473280508
 30
0.0
 10
557.6810530727844
 20
663.7150225267861
 30
0.0
 10
555.8187697915389
 20
663.164788725088
 30
0.0
 10
554.7264002283003
 20
662.8972726139821
 30
0.0
 10
554.1805665722933
 20
662.7636005474218
 30
0.0
  0
LINE
  5
1A1
330
1F
100
AcDbEntity
  8
0
  6
Continuous
 62
     7
370
    25
100
AcDbLine
 10
553.7271064944
 20
664.7112030766
 30
0.0
 11
554.1805665723
 21
662.7636005474
 31
0.0
  0
SPLINE
  5
1A2
330
1F
100
AcDbEntity
  8
0
  6
Continuous
 62
     7
370
    25
100
AcDbSpline
210
0.0
220
0.0
230
1.0
 70
     8
 71
     3
 72
    13
 73
     9
 74
     0
 42
0.00000001
 43
0.00000001
 40
0.0
 40
0.0
 40
0.0
 40
0.0
 40
0.2574896950994369
 40
0.4890886589321034
 40
0.7206004760683484
 40
0.9447506334961274
 40
0.9460032291293298
 40
0.9999999999999999
 40
0.9999999999999999
 40
0.9999999999999999
 40
0.9999999999999999
 10
553.7271064944063
 20
664.7112030766358
 30
0.0
 10
554.6458320703942
 20
664.6831401125211
 30
0.0
 10
556.3909048575323
 20
664.6298359308556
 30
0.0
 10
558.8854701034455
 20
664.7944000496936
 30
0.0
 10
561.2011199094472
 20
665.2077740447039
 30
0.0
 10
562.6782285110492
 20
665.7073312312672
 30
0.0
 10
563.5494899555916
 20
666.0815740861972
 30
0.0
 10
563.7195363644144
 20
666.1605545046823
 30
0.0
 10
563.8857275364695
 20
666.237744304857
 30
0.0
  0
LINE
  5
1A3
330
1F
100
AcDbEntity
  8
0
  6
Continuous
 62
     7
370
    25
100
AcDbLine
 10
563.8857275365
 20
666.2377443049
 30
0.0
 11
563.8863938976
 21
666.2370570021
 31
0.0
  0
ARC
  5
1A4
330
1F
100
AcDbEntity
  8
0
  6
Continuous
 62
     7
370
    25
100
AcDbCircle
 10
543.2710360163
 20
709.6198296612
 30
0.0
 40
48.10950076354645
100
AcDbArc
 50
282.8580809319
 51
283.1066633214
  0
LWPOLYLINE
  5
1A5
330
1F
100
AcDbEntity
  8
0
  6
Continuous
 62
     7
370
    25
100
AcDbPolyline
 90
        3
 70
   128
 43
0.0
 10
563.8863938976
 20
666.2370570021
 10
563.9297507743
 20
666.2096655297
 10
564.0343288474
 20
666.1436674997
  0
ARC
  5
1A6
330
1F
100
AcDbEntity
  8
0
  6
Continuous
 62
     7
370
    25
100
AcDbCircle
 10
543.2710360163
 20
709.6198296612
 30
0.0
 40
48.17977797259062
100
AcDbArc
 50
282.8580809319
 51
295.5281512988
  0
LINE
  5
1A7
330
1F
100
AcDbEntity
  8
0
  6
Continuous
 62
     7
370
    25
100
AcDbLine
 10
553.9771749808
 20
662.7167098056
 30
0.0
 11
553.9928142528
 21
662.648194849
 31
0.0
  0
LINE
  5
1A8
330
1F
100
AcDbEntity
  8
0
  6
Continuous
 62
     7
370
    25
100
AcDbLine
 10
547.6217871786
 20
666.0190874841
 30
0.0
 11
546.4923117611
 21
664.3689156945
 31
0.0
  0
SPLINE
  5
1A9
330
1F
100
AcDbEntity
  8
0
  6
Continuous
 62
     7
370
    25
100
AcDbSpline
210
0.0
220
0.0
230
1.0
 70
     8
 71
     3
 72
    15
 73
    11
 74
     0
 42
0.00000001
 43
0.00000001
 40
0.0
 40
0.0
 40
0.0
 40
0.0
 40
0.2255198391625378
 40
0.4515645943751949
 40
0.6337799820516976
 40
0.815879032447355
 40
0.8946729146060263
 40
0.9638048440471929
 40
0.9940832206369724
 40
1.0
 40
1.0
 40
1.0
 40
1.0
 10
546.4923117611376
 20
664.3689156944791
 30
0.0
 10
545.6468632202835
 20
664.9139233638206
 30
0.0
 10
543.9539982872758
 20
666.0052072528631
 30
0.0
 10
541.4776820935963
 20
667.2223106424558
 30
0.0
 10
539.1492711788851
 20
668.1532104508909
 30
0.0
 10
537.4087916890627
 20
668.7090009957044
 30
0.0
 10
536.1511228326931
 20
669.0455538226688
 30
0.0
 10
535.5069899347808
 20
669.2009009289933
 30
0.0
 10
535.1790446446987
 20
669.2764543272607
 30
0.0
 10
535.0865072010745
 20
669.2979750353107
 30
0.0
 10
535.0713802145392
 20
669.3014930000195
 30
0.0
  0
SPLINE
  5
1AA
330
1F
100
AcDbEntity
  8
0
  6
Continuous
 62
     7
370
    25
100
AcDbSpline
210
0.0
220
0.0
230
1.0
 70
     8
 71
     3
 72
    11
 73
     7
 74
     0
 42
0.00000001
 43
0.00000001
 40
0.0
 40
0.0
 40
0.0
 40
0.0
 40
0.0195561212295929
 40
0.1681891996744423
 40
0.5898876540792745
 40
1.0
 40
1.0
 40
1.0
 40
1.0
 10
535.1813216059562
 20
669.3097605621125
 30
0.0
 10
535.1793628928081
 20
669.3098186758283
 30
0.0
 10
535.1625173029855
 20
669.3103184732689
 30
0.0
 10
535.1106167392262
 20
669.3111648906824
 30
0.0
 10
535.0613321071606
 20
669.3090755921604
 30
0.0
 10
535.0680620922371
 20
669.3039969509769
 30
0.0
 10
535.0713802145392
 20
669.3014930000195
 30
0.0
  0
SPLINE
  5
1AB
330
1F
100
AcDbEntity
  8
0
  6
Continuous
 62
     7
370
    25
100
AcDbSpline
210
0.0
220
0.0
230
1.0
 70
     8
 71
     3
 72
    17
 73
    13
 74
     0
 42
0.00000001
 43
0.00000001
 40
0.0
 40
0.0
 40
0.0
 40
0.0
 40
0.0068263121770683
 40
0.008844850729726
 40
0.0223990310416126
 40
0.0309593028397538
 40
0.0563218912149133
 40
0.1198824177066675
 40
0.1957460556357056
 40
0.555862194488003
 40
0.77803360979772
 40
0.9999999999999999
 40
0.9999999999999999
 40
0.9999999999999999
 40
0.9999999999999999
 10
535.1813216059562
 20
669.3097605621125
 30
0.0
 10
535.1849417511178
 20
669.3087223790675
 30
0.0
 10
535.1896323721652
 20
669.3073772055936
 30
0.0
 10
535.2331650848687
 20
669.2997872175188
 30
0.0
 10
535.3076970073009
 20
669.2880357107122
 30
0.0
 10
535.474529252803
 20
669.2623168154889
 30
0.0
 10
535.8561053698704
 20
669.2038022364668
 30
0.0
 10
536.5390063366045
 20
669.0946052518796
 30
0.0
 10
538.6440056535224
 20
668.7274330194555
 30
0.0
 10
541.4569402353085
 20
668.0932553354902
 30
0.0
 10
544.8557244498752
 20
667.0803150436318
 30
0.0
 10
546.700050064639
 20
666.372721122945
 30
0.0
 10
547.6217871786296
 20
666.0190874841179
 30
0.0
  0
LINE
  5
1AC
330
1F
100
AcDbEntity
  8
0
  6
Continuous
 62
     7
370
    25
100
AcDbLine
 10
551.7152300294
 20
668.3965660999
 30
0.0
 11
551.5718682004
 21
665.8009181304
 31
0.0
  0
LINE
  5
1AD
330
1F
100
AcDbEntity
  8
0
  6
Continuous
 62
     7
370
    25
100
AcDbLine
 10
551.5718682004
 20
665.8009181304
 30
0.0
 11
547.6217871786
 21
666.0190874841
 31
0.0
  0
LINE
  5
1AE
330
1F
100
AcDbEntity
  8
0
  6
Continuous
 62
     7
370
    25
100
AcDbLine
 10
554.5336822684
 20
667.3315921221
 30
0.0
 11
552.9247252752
 21
665.2897306211
 31
0.0
  0
LINE
  5
1AF
330
1F
100
AcDbEntity
  8
0
  6
Continuous
 62
     7
370
    25
100
AcDbLine
 10
563.8857275365
 20
666.2377443049
 30
0.0
 11
563.885159651
 21
666.2383313458
 31
0.0
  0
ARC
  5
1B0
330
1F
100
AcDbEntity
  8
0
  6
Continuous
 62
     7
370
    25
100
AcDbCircle
 10
560.0990154231
 20
674.3943287622
 30
0.0
 40
11.59155496206749
100
AcDbArc
 50
231.762407147
 51
236.6533814372
  0
LWPOLYLINE
  5
1B1
330
1F
100
AcDbEntity
  8
0
  6
Continuous
 62
     7
370
    25
100
AcDbPolyline
 90
        4
 70
   128
 43
0.0
 10
535.0713802145
 20
669.301493
 10
535.0691379682
 20
669.284134745
 10
535.0601654854
 20
669.2147018834
 10
535.0538352041
 20
669.1657417373
  0
ARC
  5
1B2
330
1F
100
AcDbEntity
  8
0
  6
Continuous
 62
     7
370
    25
100
AcDbCircle
 10
528.6564010893
 20
638.3105206402
 30
0.0
 40
31.57783498432761
100
AcDbArc
 50
54.8280705831
 51
55.6099480104
  0
LINE
  5
1B3
330
1F
100
AcDbEntity
  8
0
  6
Continuous
 62
     7
370
    25
100
AcDbLine
 10
546.8462416268
 20
664.1231021368
 30
0.0
 11
546.805759712
 21
664.065655634
 31
0.0
  0
ARC
  5
1B4
330
1F
100
AcDbEntity
  8
0
  6
Continuous
 62
     7
370
    25
100
AcDbCircle
 10
528.6564010893
 20
638.3105206402
 30
0.0
 40
31.50755777528349
100
AcDbArc
 50
54.8280705831
 51
74.9420027521
  0
LINE
  5
1B5
330
1F
100
AcDbEntity
  8
0
  6
Continuous
 62
     7
370
    25
100
AcDbLine
 10
535.0538352041
 20
669.1657417373
 30
0.0
 11
536.8419594879
 21
668.736214234
 31
0.0
  0
LINE
  5
1B6
330
1F
100
AcDbEntity
  8
0
  6
Continuous
 62
     7
370
    25
100
AcDbLine
 10
534.9799977948
 20
679.6125974908
 30
0.0
 11
535.0538352041
 21
679.6229157871
 31
0.0
  0
SPLINE
  5
1B7
330
1F
100
AcDbEntity
  8
0
  6
Continuous
 62
     7
370
    25
100
AcDbSpline
210
0.0
220
0.0
230
1.0
 70
     8
 71
     3
 72
    10
 73
     6
 74
     0
 42
0.00000001
 43
0.00000001
 40
0.0
 40
0.0
 40
0.0
 40
0.0
 40
0.0490769085761621
 40
0.5995805843665267
 40
1.0
 40
1.0
 40
1.0
 40
1.0
 10
552.9247252751663
 20
665.2897306210845
 30
0.0
 10
552.9057777367973
 20
665.3043533566859
 30
0.0
 10
552.6742925748905
 20
665.483001698875
 30
0.0
 10
552.2284188000734
 20
665.7170536922962
 30
0.0
 10
551.766412223189
 20
665.7760680653138
 30
0.0
 10
551.5718682004353
 20
665.800918130446
 30
0.0
  0
ARC
  5
1B8
330
1F
100
AcDbEntity
  8
0
  6
Continuous
 62
     7
370
    25
100
AcDbCircle
 10
534.9700268136
 20
668.811795303
 30
0.0
 40
0.500076340527399
100
AcDbArc
 50
78.306520338
 51
86.8373700344
  0
SPLINE
  5
1B9
330
1F
100
AcDbEntity
  8
0
  6
Continuous
 62
     7
370
    25
100
AcDbSpline
210
0.0
220
0.0
230
1.0
 70
     8
 71
     3
 72
     9
 73
     5
 74
     0
 42
0.00000001
 43
0.00000001
 40
0.0
 40
0.0
 40
0.0
 40
0.0
 40
0.8458911907784387
 40
0.9999999999999999
 40
0.9999999999999999
 40
0.9999999999999999
 40
0.9999999999999999
 10
535.0538352041286
 20
669.1657417373332
 30
0.0
 10
535.0329946080176
 20
669.1695565443256
 30
0.0
 10
535.0083571648827
 20
669.1740663524829
 30
0.0
 10
534.9837846377064
 20
669.175793816234
 30
0.0
 10
534.9799977948038
 20
669.1760600336156
 30
0.0
  0
LINE
  5
1BA
330
1F
100
AcDbEntity
  8
0
  6
Continuous
 62
     7
370
    25
100
AcDbLine
 10
516.9845775972
 20
670.2423158869
 30
0.0
 11
516.985035617
 21
670.2422908004
 31
0.0
  0
LINE
  5
1BB
330
1F
100
AcDbEntity
  8
0
  6
Continuous
 62
     7
370
    25
100
AcDbLine
 10
546.8466795982
 20
684.6649338774
 30
0.0
 11
548.6854204475
 21
685.661900113
 31
0.0
  0
LINE
  5
1BC
330
1F
100
AcDbEntity
  8
0
  6
Continuous
 62
     7
370
    25
100
AcDbLine
 10
549.4254448627
 20
683.8041742132
 30
0.0
 11
548.6854204475
 21
685.661900113
 31
0.0
  0
LINE
  5
1BD
330
1F
100
AcDbEntity
  8
0
  6
Continuous
 62
     7
370
    25
100
AcDbLine
 10
552.4122151894
 20
684.2832957002
 30
0.0
 11
552.5340489361
 21
686.2792762091
 31
0.0
  0
LINE
  5
1BE
330
1F
100
AcDbEntity
  8
0
  6
Continuous
 62
     7
370
    25
100
AcDbLine
 10
552.5340489361
 20
686.2792762091
 30
0.0
 11
553.9769561758
 21
686.0709891439
 31
0.0
  0
ARC
  5
1BF
330
1F
100
AcDbEntity
  8
0
  6
Continuous
 62
     7
370
    25
100
AcDbCircle
 10
543.2710360163
 20
709.6198296612
 30
0.0
 40
46.10980537323368
100
AcDbArc
 50
282.8580809319
 51
283.1066633214
  0
LINE
  5
1C0
330
1F
100
AcDbEntity
  8
0
  6
Continuous
 62
     7
370
    25
100
AcDbLine
 10
553.5321689758
 20
664.6662613719
 30
0.0
 11
553.9771749808
 21
662.7167098056
 31
0.0
  0
ARC
  5
1C1
330
1F
100
AcDbEntity
  8
0
  6
Continuous
 62
     7
370
    25
100
AcDbCircle
 10
528.6564010893
 20
638.3105206402
 30
0.0
 40
33.5775303746404
100
AcDbArc
 50
54.8280705831
 51
55.6099480104
  0
ARC
  5
1C2
330
1F
100
AcDbEntity
  8
0
  6
Continuous
 62
     7
370
    25
100
AcDbCircle
 10
551.9900002179
 20
671.4224342864
 30
0.0
 40
6.929946387144395
100
AcDbArc
 50
234.8280705831
 51
282.8580809319
  0
LINE
  5
1C3
330
1F
100
AcDbEntity
  8
0
  6
Continuous
 62
     7
370
    25
100
AcDbLine
 10
547.998129978
 20
665.7577075572
 30
0.0
 11
546.8462416268
 21
664.1231021368
 31
0.0
  0
ARC
  5
1C4
330
1F
100
AcDbEntity
  8
0
  6
Continuous
 62
     7
370
    25
100
AcDbCircle
 10
551.9900002179
 20
671.4224342864
 30
0.0
 40
8.929641777457157
100
AcDbArc
 50
234.8280705831
 51
282.8580809319
  0
ARC
  5
1C5
330
1F
100
AcDbEntity
  8
0
  6
Continuous
 62
     7
370
    25
100
AcDbCircle
 10
551.9900002179
 20
677.366223238
 30
0.0
 40
6.929946387144411
100
AcDbArc
 50
86.5070253286
 51
111.7198462835
  0
ARC
  5
1C6
330
1F
100
AcDbEntity
  8
0
  6
Continuous
 62
     7
370
    25
100
AcDbCircle
 10
551.9900002179
 20
677.366223238
 30
0.0
 40
8.92964177745722
100
AcDbArc
 50
86.5070253286
 51
111.7198462835
  0
ARC
  5
1C7
330
1F
100
AcDbEntity
  8
0
  6
Continuous
 62
     7
370
    25
100
AcDbCircle
 10
551.9900002179
 20
677.366223238
 30
0.0
 40
8.999918986501363
100
AcDbArc
 50
77.1419190681
 51
125.1719294169
  0
ARC
  5
1C8
330
1F
100
AcDbEntity
  8
0
  6
Continuous
 62
     7
370
    25
100
AcDbCircle
 10
551.9900002179
 20
671.4224342864
 30
0.0
 40
8.99991898650133
100
AcDbArc
 50
234.8280705831
 51
282.8580809319
  0
SPLINE
  5
1C9
330
1F
100
AcDbEntity
  8
0
  6
Continuous
 62
     7
370
    25
100
AcDbSpline
210
0.0
220
0.0
230
1.0
 70
     8
 71
     3
 72
    11
 73
     7
 74
     0
 42
0.00000001
 43
0.00000001
 40
0.0
 40
0.0
 40
0.0
 40
0.0
 40
0.2200386424382247
 40
0.6637869905998173
 40
0.8890365590789576
 40
1.0
 40
1.0
 40
1.0
 40
1.0
 10
668.3766055677271
 20
680.4146470691603
 30
0.0
 10
668.5808270307285
 20
680.1496284579015
 30
0.0
 10
669.1968985936121
 20
679.3501511275967
 30
0.0
 10
669.7204479446293
 20
678.086981857069
 30
0.0
 10
669.9720771443905
 20
676.9204120437447
 30
0.0
 10
669.9513699496681
 20
676.4091322450854
 30
0.0
 10
669.9445357656421
 20
676.240389917613
 30
0.0
  0
SPLINE
  5
1CA
330
1F
100
AcDbEntity
  8
0
  6
Continuous
 62
     7
370
    25
100
AcDbSpline
210
0.0
220
0.0
230
1.0
 70
     8
 71
     3
 72
     9
 73
     5
 74
     0
 42
0.00000001
 43
0.00000001
 40
0.0
 40
0.0
 40
0.0
 40
0.0
 40
0.9209630919903095
 40
0.9999999999999999
 40
0.9999999999999999
 40
0.9999999999999999
 40
0.9999999999999999
 10
670.0166479309744
 20
680.0943237935268
 30
0.0
 10
669.5022263931015
 20
680.1511508524454
 30
0.0
 10
668.9436572795867
 20
680.2128548006414
 30
0.0
 10
668.4181407679174
 20
680.3998662615294
 30
0.0
 10
668.3766055677271
 20
680.4146470691603
 30
0.0
  0
SPLINE
  5
1CB
330
1F
100
AcDbEntity
  8
0
  6
Continuous
 62
     7
370
    25
100
AcDbSpline
210
0.0
220
0.0
230
1.0
 70
     8
 71
     3
 72
    10
 73
     6
 74
     0
 42
0.00000001
 43
0.00000001
 40
0.0
 40
0.0
 40
0.0
 40
0.0
 40
0.2596150688488839
 40
0.629760644481066
 40
1.0
 40
1.0
 40
1.0
 40
1.0
 10
717.1918088849117
 20
677.5027662245377
 30
0.0
 10
713.1139886661886
 20
677.8025203616361
 30
0.0
 10
703.2222258328234
 20
678.5296482568003
 30
0.0
 10
687.4926531501501
 20
679.3554951266904
 30
0.0
 10
675.8424748888855
 20
679.8480267759561
 30
0.0
 10
670.0166479309744
 20
680.0943237935268
 30
0.0
  0
SPLINE
  5
1CC
330
1F
100
AcDbEntity
  8
0
  6
Continuous
 62
     7
370
    25
100
AcDbSpline
210
0.0
220
0.0
230
1.0
 70
     8
 71
     3
 72
    11
 73
     7
 74
     0
 42
0.00000001
 43
0.00000001
 40
0.0
 40
0.0
 40
0.0
 40
0.0
 40
0.061464119541392
 40
0.4999988937835378
 40
0.9375097801832794
 40
1.0
 40
1.0
 40
1.0
 40
1.0
 10
717.1918088849114
 20
671.7767338775358
 30
0.0
 10
717.2034780811138
 20
671.8931908499878
 30
0.0
 10
717.2984047673832
 20
672.840546117319
 30
0.0
 10
717.3821075946493
 20
674.6377903157673
 30
0.0
 10
717.2985376711292
 20
676.436988340008
 30
0.0
 10
717.203665966084
 20
677.3843631644413
 30
0.0
 10
717.1918088849117
 20
677.5027662245377
 30
0.0
  0
SPLINE
  5
1CD
330
1F
100
AcDbEntity
  8
0
  6
Continuous
 62
     7
370
    25
100
AcDbSpline
210
0.0
220
0.0
230
1.0
 70
     8
 71
     3
 72
    11
 73
     7
 74
     0
 42
0.00000001
 43
0.00000001
 40
0.0
 40
0.0
 40
0.0
 40
0.0
 40
0.259458927729189
 40
0.6296002946237427
 40
0.8147836738016297
 40
1.0
 40
1.0
 40
1.0
 40
1.0
 10
670.0166479309744
 20
669.1851763085485
 30
0.0
 10
674.0996485803194
 20
669.3506748949694
 30
0.0
 10
684.0074148471238
 20
669.7522720174211
 30
0.0
 10
696.8225518060848
 20
670.4305248334445
 30
0.0
 10
708.4668240723444
 20
671.1079457256566
 30
0.0
 10
714.283308155477
 20
671.5537912742689
 30
0.0
 10
717.1918088849114
 20
671.7767338775358
 30
0.0
  0
SPLINE
  5
1CE
330
1F
100
AcDbEntity
  8
0
  6
Continuous
 62
     7
370
    25
100
AcDbSpline
210
0.0
220
0.0
230
1.0
 70
     8
 71
     3
 72
     9
 73
     5
 74
     0
 42
0.00000001
 43
0.00000001
 40
0.0
 40
0.0
 40
0.0
 40
0.0
 40
0.0790369080192211
 40
1.0
 40
1.0
 40
1.0
 40
1.0
 10
668.3766055677278
 20
668.8648530329152
 30
0.0
 10
668.4181407679232
 20
668.879633840548
 30
0.0
 10
668.9436572795923
 20
669.0666453014359
 30
0.0
 10
669.502226393107
 20
669.1283492496311
 30
0.0
 10
670.0166479309744
 20
669.1851763085485
 30
0.0
  0
SPLINE
  5
1CF
330
1F
100
AcDbEntity
  8
0
  6
Continuous
 62
     7
370
    25
100
AcDbSpline
210
0.0
220
0.0
230
1.0
 70
     8
 71
     3
 72
    11
 73
     7
 74
     0
 42
0.00000001
 43
0.00000001
 40
0.0
 40
0.0
 40
0.0
 40
0.0
 40
0.0728838064943292
 40
0.4140719411596023
 40
0.9209668754550557
 40
1.0
 40
1.0
 40
1.0
 40
1.0
 10
669.9445357656383
 20
673.0391101844772
 30
0.0
 10
669.952250914776
 20
672.9286637502381
 30
0.0
 10
669.9960826921405
 20
672.301188709907
 30
0.0
 10
669.6515909807025
 20
670.9181966794421
 30
0.0
 10
669.011901631216
 20
669.6482651616645
 30
0.0
 10
668.4521128817833
 20
668.9579644954915
 30
0.0
 10
668.3766055677278
 20
668.8648530329152
 30
0.0
  0
SPLINE
  5
1D0
330
1F
100
AcDbEntity
  8
0
  6
Continuous
 62
     7
370
    25
100
AcDbSpline
210
0.0
220
0.0
230
1.0
 70
     8
 71
     3
 72
    10
 73
     6
 74
     0
 42
0.00000001
 43
0.00000001
 40
0.0
 40
0.0
 40
0.0
 40
0.0
 40
0.3880207377811387
 40
0.9790637766506859
 40
1.0
 40
1.0
 40
1.0
 40
1.0
 10
669.9445357656421
 20
676.240389917613
 30
0.0
 10
669.8712212348827
 20
675.8295500557573
 30
0.0
 10
669.6862321495594
 20
674.792908485909
 30
0.0
 10
669.7819390753905
 20
673.6991391643378
 30
0.0
 10
669.9391572266383
 20
673.0609432956182
 30
0.0
 10
669.9445357656383
 20
673.0391101844772
 30
0.0
  0
ARC
  5
1D1
330
1F
100
AcDbEntity
  8
0
  6
Continuous
 62
     7
370
    25
100
AcDbCircle
 10
661.6990154231
 20
674.639750051
 30
0.0
 40
8.39944365426456
100
AcDbArc
 50
10.985757993
 51
349.0142420071
  0
SPLINE
  5
1D2
330
1F
100
AcDbEntity
  8
0
  6
Continuous
 62
     7
370
    25
100
AcDbSpline
210
0.0
220
0.0
230
1.0
 70
     8
 71
     3
 72
     9
 73
     5
 74
     0
 42
0.00000001
 43
0.00000001
 40
0.0
 40
0.0
 40
0.0
 40
0.0
 40
0.6817923421274255
 40
1.0
 40
1.0
 40
1.0
 40
1.0
 10
668.3766055677278
 20
668.8648530329152
 30
0.0
 10
668.2343420070847
 20
668.6749426778101
 30
0.0
 10
668.0256808769244
 20
668.3963969339366
 30
0.0
 10
667.796255043044
 20
668.1634925609936
 30
0.0
 10
667.7232499857895
 20
668.0893806059711
 30
0.0
  0
ARC
  5
1D3
330
1F
100
AcDbEntity
  8
0
  6
Continuous
 62
     7
370
    25
100
AcDbCircle
 10
661.6990154231
 20
674.639750051
 30
0.0
 40
8.899367501836373
100
AcDbArc
 50
47.3959191961
 51
312.6040808039
  0
LINE
  5
1D4
330
1F
100
AcDbEntity
  8
0
  6
Continuous
 62
     7
370
    25
100
AcDbLine
 10
667.7232499858
 20
681.1901194961
 30
0.0
 11
668.3766055677
 21
680.4146470692
 31
0.0
  0
SPLINE
  5
1D5
330
1F
100
AcDbEntity
  8
0
  6
Continuous
 62
     7
370
    25
100
AcDbSpline
210
0.0
220
0.0
230
1.0
 70
     8
 71
     3
 72
    10
 73
     6
 74
     0
 42
0.00000001
 43
0.00000001
 40
0.0
 40
0.0
 40
0.0
 40
0.0
 40
0.3702896688583041
 40
0.7405318123903295
 40
1.0
 40
1.0
 40
1.0
 40
1.0
 10
717.2033283480898
 20
671.3338742967026
 30
0.0
 10
711.3832645018714
 20
671.0136832821762
 30
0.0
 10
699.7438837933678
 20
670.3733423484707
 30
0.0
 10
684.0250153865929
 20
669.5041080166075
 30
0.0
 10
674.1278415705832
 20
668.9553670149983
 30
0.0
 10
670.0497732501192
 20
668.7292617311664
 30
0.0
  0
ARC
  5
1D6
330
1F
100
AcDbEntity
  8
0
  6
Continuous
 62
     7
370
    25
100
AcDbCircle
 10
677.2648624574
 20
669.4826480978
 30
0.0
 40
7.254316183285625
100
AcDbArc
 50
182.3501399448
 51
185.9611177314
  0
ARC
  5
1D7
330
1F
100
AcDbEntity
  8
0
  6
Continuous
 62
     7
370
    25
100
AcDbCircle
 10
712.9428058069
 20
671.4446311207
 30
0.0
 40
4.261961918913478
100
AcDbArc
 50
358.5108705386
 51
4.4691613064
  0
SPLINE
  5
1D8
330
1F
100
AcDbEntity
  8
0
  6
Continuous
 62
     7
370
    25
100
AcDbSpline
210
0.0
220
0.0
230
1.0
 70
     8
 71
     3
 72
    10
 73
     6
 74
     0
 42
0.00000001
 43
0.00000001
 40
0.0
 40
0.0
 40
0.0
 40
0.0
 40
0.3702717503651154
 40
0.740512215137175
 40
1.0
 40
1.0
 40
1.0
 40
1.0
 10
670.0497732501192
 20
680.5502383709089
 30
0.0
 10
675.8694453117882
 20
680.227709885241
 30
0.0
 10
687.5082977100851
 20
679.5826801654979
 30
0.0
 10
703.2274372940398
 20
678.7138656780189
 30
0.0
 10
713.1249347177385
 20
678.1698107672521
 30
0.0
 10
717.2033283480864
 20
677.945625805373
 30
0.0
  0
ARC
  5
1D9
330
1F
100
AcDbEntity
  8
0
  6
Continuous
 62
     7
370
    25
100
AcDbCircle
 10
712.942805804
 20
677.8348689814
 30
0.0
 40
4.261961921762571
100
AcDbArc
 50
355.530838696
 51
1.4891294599
  0
ARC
  5
1DA
330
1F
100
AcDbEntity
  8
0
  6
Continuous
 62
     7
370
    25
100
AcDbCircle
 10
677.2648624575
 20
679.7968520042
 30
0.0
 40
7.254316183308417
100
AcDbArc
 50
174.0388822686
 51
177.6498600552
  0
SPLINE
  5
1DB
330
1F
100
AcDbEntity
  8
0
  6
Continuous
 62
     7
370
    25
100
AcDbSpline
210
0.0
220
0.0
230
1.0
 70
     8
 71
     3
 72
    12
 73
     8
 74
     0
 42
0.00000001
 43
0.00000001
 40
0.0
 40
0.0
 40
0.0
 40
0.0
 40
0.122429049415135
 40
0.3423522449770488
 40
0.5614228816909436
 40
0.7807229538533572
 40
1.0
 40
1.0
 40
1.0
 40
1.0
 10
719.1275363177591
 20
677.3920918548815
 30
0.0
 10
719.1185322418951
 20
677.3944505393223
 30
0.0
 10
719.0933538581639
 20
677.4010462036472
 30
0.0
 10
718.8773661745194
 20
677.4180541713863
 30
0.0
 10
718.4414680447901
 20
677.4435651455408
 30
0.0
 10
717.85754243136
 20
677.4731173281001
 30
0.0
 10
717.4137122997919
 20
677.4928836049792
 30
0.0
 10
717.1918088849117
 20
677.5027662245377
 30
0.0
  0
SPLINE
  5
1DC
330
1F
100
AcDbEntity
  8
0
  6
Continuous
 62
     7
370
    25
100
AcDbSpline
210
0.0
220
0.0
230
1.0
 70
     8
 71
     3
 72
    11
 73
     7
 74
     0
 42
0.00000001
 43
0.00000001
 40
0.0
 40
0.0
 40
0.0
 40
0.0
 40
0.0800485240044433
 40
0.5000005853538798
 40
0.9209248322279645
 40
1.0
 40
1.0
 40
1.0
 40
1.0
 10
719.1275363177591
 20
677.3920918548815
 30
0.0
 10
719.127250073345
 20
677.2458474297808
 30
0.0
 10
719.1254621281403
 20
676.3323727709477
 30
0.0
 10
719.1242264313105
 20
674.6379631831893
 30
0.0
 10
719.1254641294053
 20
672.9453363313346
 30
0.0
 10
719.1272533513733
 20
672.0318729556907
 30
0.0
 10
719.1275363177591
 20
671.8874082471993
 30
0.0
  0
SPLINE
  5
1DD
330
1F
100
AcDbEntity
  8
0
  6
Continuous
 62
     7
370
    25
100
AcDbSpline
210
0.0
220
0.0
230
1.0
 70
     8
 71
     3
 72
    12
 73
     8
 74
     0
 42
0.00000001
 43
0.00000001
 40
0.0
 40
0.0
 40
0.0
 40
0.0
 40
0.1130367476169276
 40
0.3328594693547989
 40
0.5544127937945017
 40
0.7774207483513241
 40
1.0
 40
1.0
 40
1.0
 40
1.0
 10
717.1918088849114
 20
671.7767338775358
 30
0.0
 10
717.3058797248982
 20
671.7817491232372
 30
0.0
 10
717.6417842875061
 20
671.796517524293
 30
0.0
 10
718.1758521439008
 20
671.8221097284023
 30
0.0
 10
718.6923777817882
 20
671.8499849912733
 30
0.0
 10
719.0492724989426
 20
671.8734268648639
 30
0.0
 10
719.101465116461
 20
671.8827507766235
 30
0.0
 10
719.1275363177591
 20
671.8874082471993
 30
0.0
  0
SPLINE
  5
1DE
330
1F
100
AcDbEntity
  8
0
  6
Continuous
 62
     7
370
    25
100
AcDbSpline
210
0.0
220
0.0
230
1.0
 70
     8
 71
     3
 72
     9
 73
     5
 74
     0
 42
0.00000001
 43
0.00000001
 40
0.0
 40
0.0
 40
0.0
 40
0.0
 40
0.500010612381545
 40
1.0
 40
1.0
 40
1.0
 40
1.0
 10
667.2236421369465
 20
681.6219511853507
 30
0.0
 10
667.6533635037673
 20
681.3341106472574
 30
0.0
 10
668.5127879963279
 20
680.7584417895058
 30
0.0
 10
669.5374520816061
 20
680.6196385284192
 30
0.0
 10
670.0497732501192
 20
680.5502383709089
 30
0.0
  0
SPLINE
  5
1DF
330
1F
100
AcDbEntity
  8
0
  6
Continuous
 62
     7
370
    25
100
AcDbSpline
210
0.0
220
0.0
230
1.0
 70
     8
 71
     3
 72
     9
 73
     5
 74
     0
 42
0.00000001
 43
0.00000001
 40
0.0
 40
0.0
 40
0.0
 40
0.0
 40
0.9838702326459388
 40
1.0
 40
1.0
 40
1.0
 40
1.0
 10
667.7232499857895
 20
681.1901194961043
 30
0.0
 10
667.561909170855
 20
681.3349519091232
 30
0.0
 10
667.3979233020068
 20
681.48215873398
 30
0.0
 10
667.2264086287244
 20
681.6197321580266
 30
0.0
 10
667.2236421369465
 20
681.6219511853507
 30
0.0
  0
SPLINE
  5
1E0
330
1F
100
AcDbEntity
  8
0
  6
Continuous
 62
     7
370
    25
100
AcDbSpline
210
0.0
220
0.0
230
1.0
 70
     8
 71
     3
 72
     9
 73
     5
 74
     0
 42
0.00000001
 43
0.00000001
 40
0.0
 40
0.0
 40
0.0
 40
0.0
 40
0.5055561057107295
 40
1.0
 40
1.0
 40
1.0
 40
1.0
 10
670.0497732501192
 20
668.7292617311664
 30
0.0
 10
669.5317137327861
 20
668.6586056968964
 30
0.0
 10
668.5069817367107
 20
668.518846660319
 30
0.0
 10
667.6482411679492
 20
667.9425133855233
 30
0.0
 10
667.2236421369465
 20
667.6575489167247
 30
0.0
  0
SPLINE
  5
1E1
330
1F
100
AcDbEntity
  8
0
  6
Continuous
 62
     7
370
    25
100
AcDbSpline
210
0.0
220
0.0
230
1.0
 70
     8
 71
     3
 72
     9
 73
     5
 74
     0
 42
0.00000001
 43
0.00000001
 40
0.0
 40
0.0
 40
0.0
 40
0.0
 40
0.016129767353325
 40
1.0
 40
1.0
 40
1.0
 40
1.0
 10
667.2236421369465
 20
667.6575489167247
 30
0.0
 10
667.2264086287242
 20
667.6597679440487
 30
0.0
 10
667.3979233020111
 20
667.7973413680982
 30
0.0
 10
667.5619091708571
 20
667.9445481929534
 30
0.0
 10
667.7232499857895
 20
668.0893806059711
 30
0.0
  0
SPLINE
  5
1E2
330
1F
100
AcDbEntity
  8
0
  6
Continuous
 62
     7
370
    25
100
AcDbSpline
210
0.0
220
0.0
230
1.0
 70
     8
 71
     3
 72
    12
 73
     8
 74
     0
 42
0.00000001
 43
0.00000001
 40
0.0
 40
0.0
 40
0.0
 40
0.0
 40
0.2230315344150424
 40
0.446133755834037
 40
0.6675099896776974
 40
0.8870667292264951
 40
1.0
 40
1.0
 40
1.0
 40
1.0
 10
718.6551820526746
 20
671.388245176151
 30
0.0
 10
718.6356482665487
 20
671.3901354234457
 30
0.0
 10
718.5965745033121
 20
671.3939165171251
 30
0.0
 10
718.328985321256
 20
671.3869736808545
 30
0.0
 10
717.9414562374309
 20
671.3713848583645
 30
0.0
 10
717.5407341249678
 20
671.3520475783004
 30
0.0
 10
717.28887470271
 20
671.3384819771239
 30
0.0
 10
717.2033283480898
 20
671.3338742967026
 30
0.0
  0
ARC
  5
1E3
330
1F
100
AcDbEntity
  8
0
  6
Continuous
 62
     7
370
    25
100
AcDbCircle
 10
718.6274364302
 20
671.8875748326
 30
0.0
 40
0.5000999153467998
100
AcDbArc
 50
273.1804119247
 51
359.9809145383
  0
SPLINE
  5
1E4
330
1F
100
AcDbEntity
  8
0
  6
Continuous
 62
     7
370
    25
100
AcDbSpline
210
0.0
220
0.0
230
1.0
 70
     8
 71
     3
 72
    12
 73
     8
 74
     0
 42
0.00000001
 43
0.00000001
 40
0.0
 40
0.0
 40
0.0
 40
0.0
 40
0.2190444340109335
 40
0.4380981679380244
 40
0.6571027493691858
 40
0.8772791087290026
 40
1.0
 40
1.0
 40
1.0
 40
1.0
 10
717.2033283480864
 20
677.945625805373
 30
0.0
 10
717.3697460888573
 20
677.9367969924233
 30
0.0
 10
717.7025886359563
 20
677.9191389916809
 30
0.0
 10
718.1407470785996
 20
677.8996205022719
 30
0.0
 10
718.4677129053591
 20
677.8883147186397
 30
0.0
 10
718.6295567823732
 20
677.886490850563
 30
0.0
 10
718.6484281147855
 20
677.8899992798878
 30
0.0
 10
718.6551820526745
 20
677.8912549259244
 30
0.0
  0
ARC
  5
1E5
330
1F
100
AcDbEntity
  8
0
  6
Continuous
 62
     7
370
    25
100
AcDbCircle
 10
718.6274364302
 20
677.3919252695
 30
0.0
 40
0.5000999153471877
100
AcDbArc
 50
0.0190854624
 51
86.8195880753
  0
LINE
  5
1E6
330
1F
100
AcDbEntity
  8
0
  6
Continuous
 62
     7
370
    25
100
AcDbLine
 10
670.0497732501
 20
668.7292617312
 30
0.0
 11
670.0767594318
 21
668.6579714558
 31
0.0
  0
LINE
  5
1E7
330
1F
100
AcDbEntity
  8
0
  6
Continuous
 62
     7
370
    25
100
AcDbLine
 10
718.6598724133
 20
671.3838067231
 30
0.0
 11
718.6551820527
 21
671.3882451762
 31
0.0
  0
ELLIPSE
  5
1E8
330
1F
100
AcDbEntity
  8
0
  6
Continuous
 62
     7
370
    25
100
AcDbEllipse
 10
717.1601008706
 20
671.3005142731
 30
0.0
 11
1.499999304622861
 21
0.0828726334386829
 31
0.0
210
0.0
220
0.0
230
1.0
 40
0.0174284859
 41
5.396717970281711
 42
6.299675703200027
  0
LINE
  5
1E9
330
1F
100
AcDbEntity
  8
0
  6
Continuous
 62
     7
370
    25
100
AcDbLine
 10
714.6444862016
 20
671.0917546851
 30
0.0
 11
718.109449411
 21
671.3326459641
 31
0.0
  0
LINE
  5
1EA
330
1F
100
AcDbEntity
  8
0
  6
Continuous
 62
     7
370
    25
100
AcDbLine
 10
714.6444862016
 20
671.0918530763
 30
0.0
 11
714.6444862016
 21
671.0917546851
 31
0.0
  0
ELLIPSE
  5
1EB
330
1F
100
AcDbEntity
  8
0
  6
Continuous
 62
     7
370
    25
100
AcDbEllipse
 10
705.1949997806
 20
670.7622070248
 30
0.0
 11
14.49999327802038
 21
0.801102123240753
 31
0.0
210
0.0
220
0.0
230
1.0
 40
0.0174284859
 41
4.685109492442212
 42
5.421234828997918
  0
ELLIPSE
  5
1EC
330
1F
100
AcDbEntity
  8
0
  6
Continuous
 62
     7
370
    25
100
AcDbEllipse
 10
703.8739898651
 20
669.8119234755
 30
0.0
 11
35.70262504606012
 21
1.972514619921867
 31
0.0
210
0.0
220
0.0
230
1.0
 40
0.0174284859
 41
1.543516838852425
 42
2.025717338718033
  0
ELLIPSE
  5
1ED
330
1F
100
AcDbEntity
  8
0
  6
Continuous
 62
     7
370
    25
100
AcDbEllipse
 10
684.853762393
 20
669.4395274158
 30
0.0
 11
7.499996523114078
 21
0.4143631671934145
 31
0.0
210
0.0
220
0.0
230
1.0
 40
0.0174284859
 41
4.976419334597816
 42
5.167309992308083
  0
LINE
  5
1EE
330
1F
100
AcDbEntity
  8
0
  6
Continuous
 62
     7
370
    25
100
AcDbLine
 10
686.7984147941
 20
669.571871867
 30
0.0
 11
686.8180330515
 21
669.4214813224
 31
0.0
  0
SPLINE
  5
1EF
330
1F
100
AcDbEntity
  8
0
  6
Continuous
 62
     7
370
    25
100
AcDbSpline
210
0.0
220
0.0
230
1.0
 70
     8
 71
     3
 72
    10
 73
     6
 74
     0
 42
0.00000001
 43
0.00000001
 40
0.0
 40
0.0
 40
0.0
 40
0.0
 40
0.0186368637457253
 40
0.3939469944633057
 40
1.0
 40
1.0
 40
1.0
 40
1.0
 10
686.6146435083889
 20
669.5713854997625
 30
0.0
 10
686.6170997156376
 20
669.5714732502419
 30
0.0
 10
686.6690191521145
 20
669.5733281244349
 30
0.0
 10
686.7730180005926
 20
669.576008105813
 30
0.0
 10
686.7887186579418
 20
669.5734510244154
 30
0.0
 10
686.7984147940854
 20
669.5718718670075
 30
0.0
  0
LINE
  5
1F0
330
1F
100
AcDbEntity
  8
0
  6
Continuous
 62
     7
370
    25
100
AcDbLine
 10
670.0767594318
 20
668.6579714558
 30
0.0
 11
686.6146435084
 21
669.5713854998
 31
0.0
  0
LINE
  5
1F1
330
1F
100
AcDbEntity
  8
0
  6
Continuous
 62
     7
370
    25
100
AcDbLine
 10
686.6167092403
 20
679.7243182511
 30
0.0
 11
670.0828008169
 21
680.6375127133
 31
0.0
  0
SPLINE
  5
1F2
330
1F
100
AcDbEntity
  8
0
  6
Continuous
 62
     7
370
    25
100
AcDbSpline
210
0.0
220
0.0
230
1.0
 70
     8
 71
     3
 72
    11
 73
     7
 74
     0
 42
0.00000001
 43
0.00000001
 40
0.0
 40
0.0
 40
0.0
 40
0.0
 40
0.4177469294495335
 40
0.8392770662410767
 40
0.9817832068819767
 40
1.0
 40
1.0
 40
1.0
 40
1.0
 10
686.8004146809573
 20
679.7229688058544
 30
0.0
 10
686.7957776529253
 20
679.7218856146708
 30
0.0
 10
686.7864616029239
 20
679.7197094226876
 30
0.0
 10
686.7109651371738
 20
679.720911599579
 30
0.0
 10
686.6407049366018
 20
679.7233821269191
 30
0.0
 10
686.6191520999441
 20
679.724222949876
 30
0.0
 10
686.6167092403141
 20
679.7243182511346
 30
0.0
  0
LINE
  5
1F3
330
1F
100
AcDbEntity
  8
0
  6
Continuous
 62
     7
370
    25
100
AcDbLine
 10
686.8180330515
 20
679.8580187796
 30
0.0
 11
686.800414681
 21
679.7229688059
 31
0.0
  0
ELLIPSE
  5
1F4
330
1F
100
AcDbEntity
  8
0
  6
Continuous
 62
     7
370
    25
100
AcDbEllipse
 10
684.853762393
 20
679.8399726863
 30
0.0
 11
7.499996523114078
 21
-0.4143631671934145
 31
0.0
210
0.0
220
0.0
230
1.0
 40
0.0174284859
 41
1.115875314871638
 42
1.306765972582039
  0
ELLIPSE
  5
1F5
330
1F
100
AcDbEntity
  8
0
  6
Continuous
 62
     7
370
    25
100
AcDbEllipse
 10
703.8739898651
 20
679.4675766265
 30
0.0
 11
35.70262504606001
 21
-1.972514619921981
 31
0.0
210
0.0
220
0.0
230
1.0
 40
0.0174284859
 41
4.257467968461812
 42
4.739668468327164
  0
ELLIPSE
  5
1F6
330
1F
100
AcDbEntity
  8
0
  6
Continuous
 62
     7
370
    25
100
AcDbEllipse
 10
705.1949997806
 20
678.5172930772
 30
0.0
 11
14.49999327802038
 21
-0.801102123240753
 31
0.0
210
0.0
220
0.0
230
1.0
 40
0.0174284859
 41
0.8619504781817952
 42
1.598075814737375
  0
LINE
  5
1F7
330
1F
100
AcDbEntity
  8
0
  6
Continuous
 62
     7
370
    25
100
AcDbLine
 10
714.6444862016
 20
678.187745417
 30
0.0
 11
714.6444862016
 21
678.1876470258
 31
0.0
  0
LINE
  5
1F8
330
1F
100
AcDbEntity
  8
0
  6
Continuous
 62
     7
370
    25
100
AcDbLine
 10
718.109449411
 20
677.946854138
 30
0.0
 11
714.6444862016
 21
678.187745417
 31
0.0
  0
ELLIPSE
  5
1F9
330
1F
100
AcDbEntity
  8
0
  6
Continuous
 62
     7
370
    25
100
AcDbEllipse
 10
717.1601008706
 20
677.978985829
 30
0.0
 11
1.499999304622861
 21
-0.0828726334386829
 31
0.0
210
0.0
220
0.0
230
1.0
 40
0.0174284859
 41
0.4866943657715837
 42
0.8864673368933244
  0
LINE
  5
1FA
330
1F
100
AcDbEntity
  8
0
  6
Continuous
 62
     7
370
    25
100
AcDbLine
 10
718.6551820527
 20
677.8912549259
 30
0.0
 11
718.6598724133
 21
677.895693379
 31
0.0
  0
LINE
  5
1FB
330
1F
100
AcDbEntity
  8
0
  6
Continuous
 62
     7
370
    25
100
AcDbLine
 10
670.0828008169
 20
680.6375127133
 30
0.0
 11
670.0497732501
 21
680.5502383709
 31
0.0
  0
SPLINE
  5
1FC
330
1F
100
AcDbEntity
  8
0
  6
Continuous
 62
     7
370
    25
100
AcDbSpline
210
0.0
220
0.0
230
1.0
 70
     8
 71
     3
 72
     9
 73
     5
 74
     0
 42
0.00000001
 43
0.00000001
 40
0.0
 40
0.0
 40
0.0
 40
0.0
 40
0.5001021276704715
 40
0.9999999999999999
 40
0.9999999999999999
 40
0.9999999999999999
 40
0.9999999999999999
 10
667.256861003002
 20
667.5918574697647
 30
0.0
 10
667.6858087787093
 20
667.8783831038531
 30
0.0
 10
668.5435291361598
 20
668.451317347151
 30
0.0
 10
669.565752264775
 20
668.589096133605
 30
0.0
 10
670.0767594318156
 20
668.6579714558056
 30
0.0
  0
LINE
  5
1FD
330
1F
100
AcDbEntity
  8
0
  6
Continuous
 62
     7
370
    25
100
AcDbLine
 10
667.256861003
 20
667.5918574698
 30
0.0
 11
667.2236421369
 21
667.6575489167
 31
0.0
  0
SPLINE
  5
1FE
330
1F
100
AcDbEntity
  8
0
  6
Continuous
 62
     7
370
    25
100
AcDbSpline
210
0.0
220
0.0
230
1.0
 70
     8
 71
     3
 72
     9
 73
     5
 74
     0
 42
0.00000001
 43
0.00000001
 40
0.0
 40
0.0
 40
0.0
 40
0.0
 40
0.4007227371565293
 40
1.0
 40
1.0
 40
1.0
 40
1.0
 10
670.0828008168673
 20
680.637512713349
 30
0.0
 10
669.674114693458
 20
680.6859199754148
 30
0.0
 10
668.6542421344183
 20
680.8067198641585
 30
0.0
 10
667.7851660905924
 20
681.3668271375121
 30
0.0
 10
667.2643485778456
 20
681.7024866911863
 30
0.0
  0
LINE
  5
1FF
330
1F
100
AcDbEntity
  8
0
  6
Continuous
 62
     7
370
    25
100
AcDbLine
 10
667.2236421369
 20
681.6219511854
 30
0.0
 11
667.2643485778
 21
681.7024866912
 31
0.0
  0
ARC
  5
200
330
1F
100
AcDbEntity
  8
0
  6
Continuous
 62
     7
370
    25
100
AcDbCircle
 10
661.6990154231
 20
674.639750051
 30
0.0
 40
8.975658044222099
100
AcDbArc
 50
245.1648853947
 51
308.2586979829
  0
LWPOLYLINE
  5
201
330
1F
100
AcDbEntity
  8
0
  6
Continuous
 62
     7
370
    25
100
AcDbPolyline
 90
        3
 70
   128
 43
0.0
 10
657.7637019989
 20
666.3890903277
 10
657.868283563
 20
666.455342739
 10
657.9291641058
 20
666.4941587053
  0
ARC
  5
202
330
1F
100
AcDbEntity
  8
0
  6
Continuous
 62
     7
370
    25
100
AcDbCircle
 10
661.6990154231
 20
674.639750051
 30
0.0
 40
9.141120151092158
100
AcDbArc
 50
115.4997164176
 51
244.5002794289
  0
LWPOLYLINE
  5
203
330
1F
100
AcDbEntity
  8
0
  6
Continuous
 62
     7
370
    25
100
AcDbPolyline
 90
        3
 70
   128
 43
0.0
 10
657.9128711953
 20
682.7957474675
 10
657.868283563
 20
682.8241573631
 10
657.7637019986
 20
682.8904097745
  0
ARC
  5
204
330
1F
100
AcDbEntity
  8
0
  6
Continuous
 62
     7
370
    25
100
AcDbCircle
 10
661.6990154231
 20
674.639750051
 30
0.0
 40
8.991950954660766
100
AcDbArc
 50
51.762407147
 51
114.9014811666
  0
LINE
  5
205
330
1F
100
AcDbEntity
  8
0
  6
Continuous
 62
     7
370
    25
100
AcDbLine
 10
719.1322266784
 20
677.3965303079
 30
0.0
 11
719.1275363178
 21
677.3920918549
 31
0.0
  0
LINE
  5
206
330
1F
100
AcDbEntity
  8
0
  6
Continuous
 62
     7
370
    25
100
AcDbLine
 10
719.1322266784
 20
671.8829697941
 30
0.0
 11
719.1322266784
 21
677.3965303079
 31
0.0
  0
LINE
  5
207
330
1F
100
AcDbEntity
  8
0
  6
Continuous
 62
     7
370
    25
100
AcDbLine
 10
719.1275363178
 20
671.8874082472
 30
0.0
 11
719.1322266784
 21
671.8829697941
 31
0.0
  0
ARC
  5
208
330
1F
100
AcDbEntity
  8
0
  6
Continuous
 62
     7
370
    25
100
AcDbCircle
 10
718.6321267908
 20
677.3963637226
 30
0.0
 40
0.5000999153470272
100
AcDbArc
 50
0.0190854617
 51
86.8195880753
  0
ARC
  5
209
330
1F
100
AcDbEntity
  8
0
  6
Continuous
 62
     7
370
    25
100
AcDbCircle
 10
718.6321267908
 20
671.8831363795
 30
0.0
 40
0.5000999153469543
100
AcDbArc
 50
273.1804119247
 51
359.9809145383
  0
LINE
  5
20A
330
1F
100
AcDbEntity
  8
0
  6
Continuous
 62
     7
370
    25
100
AcDbLine
 10
718.109449411
 20
671.3326459641
 30
0.0
 11
718.1165571418
 21
671.3330130007
 31
0.0
  0
LINE
  5
20B
330
1F
100
AcDbEntity
  8
0
  6
Continuous
 62
     7
370
    25
100
AcDbLine
 10
718.109449411
 20
677.946854138
 30
0.0
 11
718.1165571418
 21
677.9464871014
 31
0.0
  0
SPLINE
  5
20C
330
1F
100
AcDbEntity
  8
0
  6
Continuous
 62
     7
370
    25
100
AcDbSpline
210
0.0
220
0.0
230
1.0
 70
     8
 71
     3
 72
    12
 73
     8
 74
     0
 42
0.00000001
 43
0.00000001
 40
0.0
 40
0.0
 40
0.0
 40
0.0
 40
0.1662426524176549
 40
0.3368059756191304
 40
0.6054181071254592
 40
0.8801435087136196
 40
1.0
 40
1.0
 40
1.0
 40
1.0
 10
667.8210746704457
 20
662.9630896693667
 30
0.0
 10
667.1833931499096
 20
663.1185748448497
 30
0.0
 10
665.891456673109
 20
663.4335862782049
 30
0.0
 10
663.7072702907597
 20
664.0965513832034
 30
0.0
 10
661.3452959471998
 20
664.9487463000089
 30
0.0
 10
659.3797583853072
 20
665.791374978621
 30
0.0
 10
658.2659834005117
 20
666.3292330713161
 30
0.0
 10
657.9276679223541
 20
666.4926105221434
 30
0.0
  0
LINE
  5
20D
330
1F
100
AcDbEntity
  8
0
  6
Continuous
 62
     7
370
    25
100
AcDbLine
 10
667.8210746704
 20
662.9630896694
 30
0.0
 11
667.8052165935
 21
662.8936161378
 31
0.0
  0
ARC
  5
20E
330
1F
100
AcDbEntity
  8
0
  6
Continuous
 62
     7
370
    25
100
AcDbCircle
 10
678.52699483
 20
709.8652509501
 30
0.0
 40
48.17977797259062
100
AcDbArc
 50
244.4718479123
 51
257.1419190681
  0
LWPOLYLINE
  5
20F
330
1F
100
AcDbEntity
  8
0
  6
Continuous
 62
     7
370
    25
100
AcDbPolyline
 90
        3
 70
   128
 43
0.0
 10
657.9276679224
 20
666.4926105221
 10
657.868280072
 20
666.4550868186
 10
657.7637019992
 20
666.3890887887
  0
SPLINE
  5
210
330
1F
100
AcDbEntity
  8
0
  6
Continuous
 62
     7
370
    25
100
AcDbSpline
210
0.0
220
0.0
230
1.0
 70
     8
 71
     3
 72
    11
 73
     7
 74
     0
 42
0.00000001
 43
0.00000001
 40
0.0
 40
0.0
 40
0.0
 40
0.0
 40
0.1345990676765955
 40
0.41269788159695
 40
0.6969472592954596
 40
0.9999999999999999
 40
0.9999999999999999
 40
0.9999999999999999
 40
0.9999999999999999
 10
657.9283854993112
 20
666.4933520882173
 30
0.0
 10
658.3576915195596
 20
666.3024682030563
 30
0.0
 10
659.6739984462837
 20
665.7171939036364
 30
0.0
 10
662.049808497167
 20
665.0947260196127
 30
0.0
 10
665.1034978820481
 20
664.7182233371125
 30
0.0
 10
667.2945277904088
 20
664.6910820087796
 30
0.0
 10
668.4251173079467
 20
664.6770768593345
 30
0.0
  0
ARC
  5
211
330
1F
100
AcDbEntity
  8
0
  6
Continuous
 62
     7
370
    25
100
AcDbCircle
 10
663.9325863149
 20
665.2969009039
 30
0.0
 40
4.535087272519744
100
AcDbArc
 50
329.0284626407
 51
352.1446266983
  0
LINE
  5
212
330
1F
100
AcDbEntity
  8
0
  6
Continuous
 62
     7
370
    25
100
AcDbLine
 10
657.9276679224
 20
666.4926105221
 30
0.0
 11
657.9283854993
 21
666.4933520882
 31
0.0
  0
LINE
  5
213
330
1F
100
AcDbEntity
  8
0
  6
Continuous
 62
     7
370
    25
100
AcDbLine
 10
667.256861003
 20
667.5918574698
 30
0.0
 11
669.4547329232
 21
664.8047405954
 31
0.0
  0
ARC
  5
214
330
1F
100
AcDbEntity
  8
0
  6
Continuous
 62
     7
370
    25
100
AcDbCircle
 10
661.6990154231
 20
674.639750051
 30
0.0
 40
12.52511736202727
100
AcDbArc
 50
307.8583068702
 51
308.2586979829
  0
LINE
  5
215
330
1F
100
AcDbEntity
  8
0
  6
Continuous
 62
     7
370
    25
100
AcDbLine
 10
668.4251173079
 20
664.6770768593
 30
0.0
 11
669.3858156568
 21
664.7507831131
 31
0.0
  0
LINE
  5
216
330
1F
100
AcDbEntity
  8
0
  6
Continuous
 62
     7
370
    25
100
AcDbLine
 10
657.9291641058
 20
666.4941587053
 30
0.0
 11
657.9283854993
 21
666.4933520882
 31
0.0
  0
LINE
  5
217
330
1F
100
AcDbEntity
  8
0
  6
Continuous
 62
     7
370
    25
100
AcDbLine
 10
672.3725859836
 20
665.2299046001
 30
0.0
 11
670.2725034675
 21
665.1139136514
 31
0.0
  0
LINE
  5
218
330
1F
100
AcDbEntity
  8
0
  6
Continuous
 62
     7
370
    25
100
AcDbLine
 10
670.0767594318
 20
668.6579714558
 30
0.0
 11
670.2725034675
 21
665.1139136514
 31
0.0
  0
SPLINE
  5
219
330
1F
100
AcDbEntity
  8
0
  6
Continuous
 62
     7
370
    25
100
AcDbSpline
210
0.0
220
0.0
230
1.0
 70
     8
 71
     3
 72
    17
 73
    13
 74
     0
 42
0.00000001
 43
0.00000001
 40
0.0
 40
0.0
 40
0.0
 40
0.0
 40
0.2859834379244695
 40
0.5215922644122232
 40
0.7592399016809382
 40
0.8521492405060503
 40
0.9266708633836017
 40
0.9605058393195365
 40
0.9835417153308587
 40
0.9930790992390833
 40
0.9972256067114874
 40
1.0
 40
1.0
 40
1.0
 40
1.0
 10
673.8132543456948
 20
665.7540482820525
 30
0.0
 10
675.042032529442
 20
666.2859164060729
 30
0.0
 10
677.2831455112728
 20
667.2559666341206
 30
0.0
 10
680.6220941981746
 20
668.2981973049052
 30
0.0
 10
683.1247495648814
 20
668.9160158658318
 30
0.0
 10
684.8950558489177
 20
669.26999117505
 30
0.0
 10
685.7601766842549
 20
669.4246922096628
 30
0.0
 10
686.2857641135304
 20
669.5131922004946
 30
0.0
 10
686.5194262271876
 20
669.5523039633171
 30
0.0
 10
686.597076386677
 20
669.5666237300791
 30
0.0
 10
686.6131580408771
 20
669.5703574823965
 30
0.0
 10
686.6142184288531
 20
669.5710913235915
 30
0.0
 10
686.6146435083889
 20
669.5713854997625
 30
0.0
  0
LINE
  5
21A
330
1F
100
AcDbEntity
  8
0
  6
Continuous
 62
     7
370
    25
100
AcDbLine
 10
672.3725859836
 20
665.2299046001
 30
0.0
 11
673.8132543457
 21
665.7540482821
 31
0.0
  0
ARC
  5
21B
330
1F
100
AcDbEntity
  8
0
  6
Continuous
 62
     7
370
    25
100
AcDbCircle
 10
679.6166871368
 20
669.3631506629
 30
0.0
 40
6.834138728206155
100
AcDbArc
 50
211.8771071303
 51
226.9488007428
  0
SPLINE
  5
21C
330
1F
100
AcDbEntity
  8
0
  6
Continuous
 62
     7
370
    25
100
AcDbSpline
210
0.0
220
0.0
230
1.0
 70
     8
 71
     3
 72
    10
 73
     6
 74
     0
 42
0.00000001
 43
0.00000001
 40
0.0
 40
0.0
 40
0.0
 40
0.0
 40
0.5975855365574468
 40
0.9790563563182108
 40
1.0
 40
1.0
 40
1.0
 40
1.0
 10
686.7246688280766
 20
669.5622586024232
 30
0.0
 10
686.7271879674299
 20
669.5659979001496
 30
0.0
 10
686.7313152082105
 20
669.572124191673
 30
0.0
 10
686.6569440816553
 20
669.5725007505296
 30
0.0
 10
686.6167361295508
 20
669.5714406715292
 30
0.0
 10
686.6146435083889
 20
669.5713854997625
 30
0.0
  0
SPLINE
  5
21D
330
1F
100
AcDbEntity
  8
0
  6
Continuous
 62
     7
370
    25
100
AcDbSpline
210
0.0
220
0.0
230
1.0
 70
     8
 71
     3
 72
    14
 73
    10
 74
     0
 42
0.00000001
 43
0.00000001
 40
0.0
 40
0.0
 40
0.0
 40
0.0
 40
0.0129036569231464
 40
0.0519665716781149
 40
0.1318891824261205
 40
0.2280032005552169
 40
0.4679440229400838
 40
0.7079115564493629
 40
0.9999999999999999
 40
0.9999999999999999
 40
0.9999999999999999
 40
0.9999999999999999
 10
686.7246688280766
 20
669.5622586024232
 30
0.0
 10
686.6912002516123
 20
669.5544136283619
 30
0.0
 10
686.5564130987796
 20
669.5228197624293
 30
0.0
 10
686.117139653787
 20
669.4204377151356
 30
0.0
 10
685.3057122355611
 20
669.2180362063185
 30
0.0
 10
683.6522350537405
 20
668.7509855255523
 30
0.0
 10
681.3079449814968
 20
667.913528466162
 30
0.0
 10
678.1628508049997
 20
666.4685882258117
 30
0.0
 10
676.0895521308072
 20
665.113217343017
 30
0.0
 10
674.9513512480601
 20
664.3691449358673
 30
0.0
  0
LWPOLYLINE
  5
21E
330
1F
100
AcDbEntity
  8
0
  6
Continuous
 62
     7
370
    25
100
AcDbPolyline
 90
        4
 70
   128
 43
0.0
 10
686.7441956421
 20
669.4111630262
 10
686.7419510065
 20
669.428521173
 10
686.7329759725
 20
669.4979539192
 10
686.7246688281
 20
669.5622586024
  0
LINE
  5
21F
330
1F
100
AcDbEntity
  8
0
  6
Continuous
 62
     7
370
    25
100
AcDbLine
 10
684.9560713584
 20
668.9816355229
 30
0.0
 11
686.7441956421
 21
669.4111630262
 31
0.0
  0
ARC
  5
220
330
1F
100
AcDbEntity
  8
0
  6
Continuous
 62
     7
370
    25
100
AcDbCircle
 10
693.1416297569
 20
638.555941929
 30
0.0
 40
31.50755777528343
100
AcDbArc
 50
105.0579972479
 51
125.1719294169
  0
LINE
  5
221
330
1F
100
AcDbEntity
  8
0
  6
Continuous
 62
     7
370
    25
100
AcDbLine
 10
674.9513512481
 20
664.3691449359
 30
0.0
 11
674.9922711343
 21
664.3110769228
 31
0.0
  0
SPLINE
  5
222
330
1F
100
AcDbEntity
  8
0
  6
Continuous
 62
     7
370
    25
100
AcDbSpline
210
0.0
220
0.0
230
1.0
 70
     8
 71
     3
 72
     9
 73
     5
 74
     0
 42
0.00000001
 43
0.00000001
 40
0.0
 40
0.0
 40
0.0
 40
0.0
 40
0.499897873060973
 40
0.9999999999999999
 40
0.9999999999999999
 40
0.9999999999999999
 40
0.9999999999999999
 10
670.272503467521
 20
665.1139136513617
 30
0.0
 10
670.1243085516252
 20
665.0939473133595
 30
0.0
 10
669.8278581686932
 20
665.0540064792848
 30
0.0
 10
669.5791249399166
 20
664.8878405367143
 30
0.0
 10
669.4547329231649
 20
664.8047405954098
 30
0.0
  0
ARC
  5
223
330
1F
100
AcDbEntity
  8
0
  6
Continuous
 62
     7
370
    25
100
AcDbCircle
 10
686.826004143
 20
669.0725571626
 30
0.0
 40
0.5000763403859658
100
AcDbArc
 50
93.16262964
 51
101.6913635617
  0
ARC
  5
224
330
1F
100
AcDbEntity
  8
0
  6
Continuous
 62
     7
370
    25
100
AcDbCircle
 10
678.52699483
 20
639.414249152
 30
0.0
 40
48.10950076354634
100
AcDbArc
 50
102.8580809319
 51
103.1066633214
  0
SPLINE
  5
225
330
1F
100
AcDbEntity
  8
0
  6
Continuous
 62
     7
370
    25
100
AcDbSpline
210
0.0
220
0.0
230
1.0
 70
     8
 71
     3
 72
    13
 73
     9
 74
     0
 42
0.00000001
 43
0.00000001
 40
0.0
 40
0.0
 40
0.0
 40
0.0
 40
0.0460329529079877
 40
0.2492425848193723
 40
0.4775225570272884
 40
0.7051721168687842
 40
0.852680826381466
 40
1.0
 40
1.0
 40
1.0
 40
1.0
 10
657.911636948664
 20
682.7970218111402
 30
0.0
 10
658.0399716007024
 20
682.8595307795767
 30
0.0
 10
658.7348316601878
 20
683.1979817344542
 30
0.0
 10
660.0944948947646
 20
683.8159591584831
 30
0.0
 10
662.1024675115829
 20
684.6264314851962
 30
0.0
 10
664.116977773486
 20
685.3190562864609
 30
0.0
 10
665.9792610547315
 20
685.869290088159
 30
0.0
 10
667.0716306179701
 20
686.1368061992649
 30
0.0
 10
667.617464273977
 20
686.2704782658252
 30
0.0
  0
LWPOLYLINE
  5
226
330
1F
100
AcDbEntity
  8
0
  6
Continuous
 62
     7
370
    25
100
AcDbPolyline
 90
        3
 70
   128
 43
0.0
 10
657.9116369487
 20
682.7970218111
 10
657.868280072
 20
682.8244132835
 10
657.7637019989
 20
682.8904113136
  0
ARC
  5
227
330
1F
100
AcDbEntity
  8
0
  6
Continuous
 62
     7
370
    25
100
AcDbCircle
 10
678.52699483
 20
639.414249152
 30
0.0
 40
48.17977797259051
100
AcDbArc
 50
102.8580809319
 51
115.5281512988
  0
LINE
  5
228
330
1F
100
AcDbEntity
  8
0
  6
Continuous
 62
     7
370
    25
100
AcDbLine
 10
667.8208558655
 20
686.3173690076
 30
0.0
 11
667.8052165935
 21
686.3858839643
 31
0.0
  0
LINE
  5
229
330
1F
100
AcDbEntity
  8
0
  6
Continuous
 62
     7
370
    25
100
AcDbLine
 10
668.0709243519
 20
684.3228757366
 30
0.0
 11
667.617464274
 21
686.2704782658
 31
0.0
  0
SPLINE
  5
22A
330
1F
100
AcDbEntity
  8
0
  6
Continuous
 62
     7
370
    25
100
AcDbSpline
210
0.0
220
0.0
230
1.0
 70
     8
 71
     3
 72
    13
 73
     9
 74
     0
 42
0.00000001
 43
0.00000001
 40
0.0
 40
0.0
 40
0.0
 40
0.0
 40
0.2574896950994369
 40
0.4890886589321034
 40
0.7206004760683483
 40
0.9447506334961274
 40
0.9460032291293298
 40
0.9999999999999999
 40
0.9999999999999999
 40
0.9999999999999999
 40
0.9999999999999999
 10
668.070924351864
 20
684.3228757366112
 30
0.0
 10
667.1521987758762
 20
684.3509387007259
 30
0.0
 10
665.4071259887381
 20
684.4042428823914
 30
0.0
 10
662.9125607428247
 20
684.2396787635533
 30
0.0
 10
660.5969109368235
 20
683.8263047685433
 30
0.0
 10
659.1198023352202
 20
683.3267475819796
 30
0.0
 10
658.248540890679
 20
682.9525047270499
 30
0.0
 10
658.0784944818561
 20
682.8735243085648
 30
0.0
 10
657.9123033098009
 20
682.79633450839
 30
0.0
  0
LINE
  5
22B
330
1F
100
AcDbEntity
  8
0
  6
Continuous
 62
     7
370
    25
100
AcDbLine
 10
657.9123033098
 20
682.7963345084
 30
0.0
 11
657.9116369487
 21
682.7970218111
 31
0.0
  0
LINE
  5
22C
330
1F
100
AcDbEntity
  8
0
  6
Continuous
 62
     7
370
    25
100
AcDbLine
 10
670.0828008169
 20
680.6375127133
 30
0.0
 11
670.2261626458
 21
683.2331606828
 31
0.0
  0
LINE
  5
22D
330
1F
100
AcDbEntity
  8
0
  6
Continuous
 62
     7
370
    25
100
AcDbLine
 10
670.2261626458
 20
683.2331606828
 30
0.0
 11
674.1762436676
 21
683.0149913291
 31
0.0
  0
SPLINE
  5
22E
330
1F
100
AcDbEntity
  8
0
  6
Continuous
 62
     7
370
    25
100
AcDbSpline
210
0.0
220
0.0
230
1.0
 70
     8
 71
     3
 72
    17
 73
    13
 74
     0
 42
0.00000001
 43
0.00000001
 40
0.0
 40
0.0
 40
0.0
 40
0.0
 40
0.0068263121770683
 40
0.008844850729726
 40
0.0223990310416119
 40
0.0309593028397531
 40
0.0563218912149136
 40
0.1198824177066677
 40
0.1957460556357049
 40
0.5558621944880022
 40
0.7780336097977192
 40
1.0
 40
1.0
 40
1.0
 40
1.0
 10
686.6167092403141
 20
679.7243182511346
 30
0.0
 10
686.6130890951526
 20
679.7253564341796
 30
0.0
 10
686.6083984741051
 20
679.7267016076534
 30
0.0
 10
686.5648657614016
 20
679.7342915957282
 30
0.0
 10
686.4903338389694
 20
679.7460431025348
 30
0.0
 10
686.3235015934673
 20
679.7717619977581
 30
0.0
 10
685.9419254764001
 20
679.8302765767802
 30
0.0
 10
685.2590245096657
 20
679.9394735613674
 30
0.0
 10
683.154025192748
 20
680.3066457937915
 30
0.0
 10
680.3410906109619
 20
680.9408234777569
 30
0.0
 10
676.9423063963952
 20
681.9537637696153
 30
0.0
 10
675.0979807816315
 20
682.661357690302
 30
0.0
 10
674.1762436676408
 20
683.0149913291291
 30
0.0
  0
LINE
  5
22F
330
1F
100
AcDbEntity
  8
0
  6
Continuous
 62
     7
370
    25
100
AcDbLine
 10
674.1762436676
 20
683.0149913291
 30
0.0
 11
675.3057190851
 21
684.6651631188
 31
0.0
  0
SPLINE
  5
230
330
1F
100
AcDbEntity
  8
0
  6
Continuous
 62
     7
370
    25
100
AcDbSpline
210
0.0
220
0.0
230
1.0
 70
     8
 71
     3
 72
    15
 73
    11
 74
     0
 42
0.00000001
 43
0.00000001
 40
0.0
 40
0.0
 40
0.0
 40
0.0
 40
0.2255198391625371
 40
0.4515645943751955
 40
0.6337799820516983
 40
0.8158790324473555
 40
0.8946729146060259
 40
0.9638048440471934
 40
0.9940832206369729
 40
1.0
 40
1.0
 40
1.0
 40
1.0
 10
675.3057190851329
 20
684.6651631187679
 30
0.0
 10
676.1511676259868
 20
684.1201554494265
 30
0.0
 10
677.8440325589946
 20
683.0288715603839
 30
0.0
 10
680.3203487526741
 20
681.8117681707913
 30
0.0
 10
682.6487596673852
 20
680.8808683623561
 30
0.0
 10
684.3892391572076
 20
680.3250778175426
 30
0.0
 10
685.6469080135773
 20
679.9885249905782
 30
0.0
 10
686.2910409114896
 20
679.8331778842538
 30
0.0
 10
686.6189862015717
 20
679.7576244859863
 30
0.0
 10
686.7115236451958
 20
679.7361037779363
 30
0.0
 10
686.7266506317312
 20
679.7325858132275
 30
0.0
  0
SPLINE
  5
231
330
1F
100
AcDbEntity
  8
0
  6
Continuous
 62
     7
370
    25
100
AcDbSpline
210
0.0
220
0.0
230
1.0
 70
     8
 71
     3
 72
    11
 73
     7
 74
     0
 42
0.00000001
 43
0.00000001
 40
0.0
 40
0.0
 40
0.0
 40
0.0
 40
0.0195561212295859
 40
0.1681891996744558
 40
0.5898876540792811
 40
1.0
 40
1.0
 40
1.0
 40
1.0
 10
686.6167092403141
 20
679.7243182511346
 30
0.0
 10
686.6186679534622
 20
679.7242601374188
 30
0.0
 10
686.6355135432849
 20
679.7237603399781
 30
0.0
 10
686.687414107044
 20
679.7229139225645
 30
0.0
 10
686.7366987391097
 20
679.7250032210867
 30
0.0
 10
686.7299687540333
 20
679.7300818622701
 30
0.0
 10
686.7266506317312
 20
679.7325858132275
 30
0.0
  0
LINE
  5
232
330
1F
100
AcDbEntity
  8
0
  6
Continuous
 62
     7
370
    25
100
AcDbLine
 10
667.2643485778
 20
681.7024866912
 30
0.0
 11
668.8733055711
 21
683.7443481922
 31
0.0
  0
LINE
  5
233
330
1F
100
AcDbEntity
  8
0
  6
Continuous
 62
     7
370
    25
100
AcDbLine
 10
657.9123033098
 20
682.7963345084
 30
0.0
 11
657.9128711953
 21
682.7957474675
 31
0.0
  0
ARC
  5
234
330
1F
100
AcDbEntity
  8
0
  6
Continuous
 62
     7
370
    25
100
AcDbCircle
 10
661.6990154231
 20
674.639750051
 30
0.0
 40
11.59155496206734
100
AcDbArc
 50
51.762407147
 51
56.6533814372
  0
LWPOLYLINE
  5
235
330
1F
100
AcDbEntity
  8
0
  6
Continuous
 62
     7
370
    25
100
AcDbPolyline
 90
        4
 70
   128
 43
0.0
 10
686.7266506317
 20
679.7325858132
 10
686.728892878
 20
679.7499440682
 10
686.7378653609
 20
679.8193769298
 10
686.7441956421
 20
679.8683370759
  0
ARC
  5
236
330
1F
100
AcDbEntity
  8
0
  6
Continuous
 62
     7
370
    25
100
AcDbCircle
 10
693.1416297569
 20
710.7235581731
 30
0.0
 40
31.57783498432761
100
AcDbArc
 50
234.8280705831
 51
235.6099480104
  0
LINE
  5
237
330
1F
100
AcDbEntity
  8
0
  6
Continuous
 62
     7
370
    25
100
AcDbLine
 10
674.9517892195
 20
684.9109766765
 30
0.0
 11
674.9922711343
 21
684.9684231793
 31
0.0
  0
ARC
  5
238
330
1F
100
AcDbEntity
  8
0
  6
Continuous
 62
     7
370
    25
100
AcDbCircle
 10
693.1416297569
 20
710.7235581731
 30
0.0
 40
31.50755777528337
100
AcDbArc
 50
234.8280705831
 51
254.9420027521
  0
LINE
  5
239
330
1F
100
AcDbEntity
  8
0
  6
Continuous
 62
     7
370
    25
100
AcDbLine
 10
686.7441956421
 20
679.8683370759
 30
0.0
 11
684.9560713584
 21
680.2978645792
 31
0.0
  0
LINE
  5
23A
330
1F
100
AcDbEntity
  8
0
  6
Continuous
 62
     7
370
    25
100
AcDbLine
 10
686.8180330515
 20
669.4214813224
 30
0.0
 11
686.7441956421
 21
669.4111630262
 31
0.0
  0
SPLINE
  5
23B
330
1F
100
AcDbEntity
  8
0
  6
Continuous
 62
     7
370
    25
100
AcDbSpline
210
0.0
220
0.0
230
1.0
 70
     8
 71
     3
 72
    10
 73
     6
 74
     0
 42
0.00000001
 43
0.00000001
 40
0.0
 40
0.0
 40
0.0
 40
0.0
 40
0.0490769085761621
 40
0.5995805843665267
 40
1.0
 40
1.0
 40
1.0
 40
1.0
 10
668.8733055711041
 20
683.7443481921625
 30
0.0
 10
668.8922531094731
 20
683.7297254565611
 30
0.0
 10
669.1237382713798
 20
683.5510771143721
 30
0.0
 10
669.5696120461969
 20
683.3170251209508
 30
0.0
 10
670.0316186230814
 20
683.2580107479332
 30
0.0
 10
670.226162645835
 20
683.233160682801
 30
0.0
  0
ARC
  5
23C
330
1F
100
AcDbEntity
  8
0
  6
Continuous
 62
     7
370
    25
100
AcDbCircle
 10
686.8280040327
 20
680.2222835102
 30
0.0
 40
0.5000763405210916
100
AcDbArc
 50
258.306520338
 51
266.8373700345
  0
SPLINE
  5
23D
330
1F
100
AcDbEntity
  8
0
  6
Continuous
 62
     7
370
    25
100
AcDbSpline
210
0.0
220
0.0
230
1.0
 70
     8
 71
     3
 72
     9
 73
     5
 74
     0
 42
0.00000001
 43
0.00000001
 40
0.0
 40
0.0
 40
0.0
 40
0.0
 40
0.845891190778427
 40
0.9999999999999999
 40
0.9999999999999999
 40
0.9999999999999999
 40
0.9999999999999999
 10
686.7441956421417
 20
679.8683370759138
 30
0.0
 10
686.7650362382528
 20
679.8645222689215
 30
0.0
 10
686.7896736813876
 20
679.8600124607641
 30
0.0
 10
686.8142462085639
 20
679.858284997013
 30
0.0
 10
686.8180330514666
 20
679.8580187796315
 30
0.0
  0
LINE
  5
23E
330
1F
100
AcDbEntity
  8
0
  6
Continuous
 62
     7
370
    25
100
AcDbLine
 10
704.8134532491
 20
678.7917629264
 30
0.0
 11
704.8129952293
 21
678.7917880128
 31
0.0
  0
LINE
  5
23F
330
1F
100
AcDbEntity
  8
0
  6
Continuous
 62
     7
370
    25
100
AcDbLine
 10
674.9513512481
 20
664.3691449359
 30
0.0
 11
673.1126103987
 21
663.3721787002
 31
0.0
  0
LINE
  5
240
330
1F
100
AcDbEntity
  8
0
  6
Continuous
 62
     7
370
    25
100
AcDbLine
 10
672.3725859836
 20
665.2299046001
 30
0.0
 11
673.1126103987
 21
663.3721787002
 31
0.0
  0
LINE
  5
241
330
1F
100
AcDbEntity
  8
0
  6
Continuous
 62
     7
370
    25
100
AcDbLine
 10
669.3858156568
 20
664.7507831131
 30
0.0
 11
669.2639819102
 21
662.7548026041
 31
0.0
  0
LINE
  5
242
330
1F
100
AcDbEntity
  8
0
  6
Continuous
 62
     7
370
    25
100
AcDbLine
 10
669.2639819102
 20
662.7548026041
 30
0.0
 11
667.8210746704
 21
662.9630896694
 31
0.0
  0
ARC
  5
243
330
1F
100
AcDbEntity
  8
0
  6
Continuous
 62
     7
370
    25
100
AcDbCircle
 10
678.52699483
 20
639.414249152
 30
0.0
 40
46.10980537323358
100
AcDbArc
 50
102.8580809319
 51
103.1066633214
  0
LINE
  5
244
330
1F
100
AcDbEntity
  8
0
  6
Continuous
 62
     7
370
    25
100
AcDbLine
 10
668.2658618704
 20
684.3678174414
 30
0.0
 11
667.8208558655
 21
686.3173690076
 31
0.0
  0
ARC
  5
245
330
1F
100
AcDbEntity
  8
0
  6
Continuous
 62
     7
370
    25
100
AcDbCircle
 10
693.1416297569
 20
710.7235581731
 30
0.0
 40
33.57753037464034
100
AcDbArc
 50
234.8280705831
 51
235.6099480104
  0
ARC
  5
246
330
1F
100
AcDbEntity
  8
0
  6
Continuous
 62
     7
370
    25
100
AcDbCircle
 10
669.8080306284
 20
677.6116445268
 30
0.0
 40
6.92994638714431
100
AcDbArc
 50
54.8280705831
 51
102.8580809319
  0
ARC
  5
247
330
1F
100
AcDbEntity
  8
0
  6
Continuous
 62
     7
370
    25
100
AcDbCircle
 10
669.8080306284
 20
677.6116445268
 30
0.0
 40
8.929641777457046
100
AcDbArc
 50
54.8280705831
 51
102.8580809319
  0
LINE
  5
248
330
1F
100
AcDbEntity
  8
0
  6
Continuous
 62
     7
370
    25
100
AcDbLine
 10
673.7999008683
 20
683.276371256
 30
0.0
 11
674.9517892195
 21
684.9109766765
 31
0.0
  0
ARC
  5
249
330
1F
100
AcDbEntity
  8
0
  6
Continuous
 62
     7
370
    25
100
AcDbCircle
 10
669.8080306284
 20
671.6678555752
 30
0.0
 40
6.929946387144304
100
AcDbArc
 50
266.5070253286
 51
291.7198462835
  0
ARC
  5
24A
330
1F
100
AcDbEntity
  8
0
  6
Continuous
 62
     7
370
    25
100
AcDbCircle
 10
669.8080306284
 20
671.6678555752
 30
0.0
 40
8.929641777457164
100
AcDbArc
 50
266.5070253286
 51
291.7198462835
  0
ARC
  5
24B
330
1F
100
AcDbEntity
  8
0
  6
Continuous
 62
     7
370
    25
100
AcDbCircle
 10
669.8080306284
 20
671.6678555752
 30
0.0
 40
8.999918986501354
100
AcDbArc
 50
257.1419190681
 51
305.1719294169
  0
ARC
  5
24C
330
1F
100
AcDbEntity
  8
0
  6
Continuous
 62
     7
370
    25
100
AcDbCircle
 10
669.8080306284
 20
677.6116445268
 30
0.0
 40
8.999918986501271
100
AcDbArc
 50
54.8280705831
 51
102.8580809319
  0
SPLINE
  5
24D
330
1F
100
AcDbEntity
  8
0
  6
Continuous
 62
     7
370
    25
100
AcDbSpline
210
0.0
220
0.0
230
1.0
 70
    24
 71
     3
 72
    10
 73
     6
 74
     0
 42
0.00000001
 43
0.00000001
 40
0.0
 40
0.0
 40
0.0
 40
0.0
 40
0.4495983814911979
 40
0.9405151497998611
 40
1.0
 40
1.0
 40
1.0
 40
1.0
 10
661.6102499313037
 20
664.8943287622093
 30
0.0
 10
661.012716699712
 20
664.8943287622093
 30
0.0
 10
659.7627365397369
 20
664.8943287622093
 30
0.0
 10
658.4781258276593
 20
664.8943287622093
 30
0.0
 10
657.7931000758764
 20
664.8943287622093
 30
0.0
 10
657.7190656747088
 20
664.8943287622093
 30
0.0
  0
ARC
  5
24E
330
1F
100
AcDbEntity
  8
0
  6
Continuous
 62
     7
370
    25
100
AcDbCircle
 10
661.6990154231
 20
674.3943287622
 30
0.0
 40
10.30000000000012
100
AcDbArc
 50
232.7308609266
 51
247.2691390734
  0
SPLINE
  5
24F
330
1F
100
AcDbEntity
  8
0
  6
Continuous
 62
     7
370
    25
100
AcDbSpline
210
0.0
220
0.0
230
1.0
 70
    24
 71
     3
 72
    11
 73
     7
 74
     0
 42
0.00000001
 43
0.00000001
 40
0.0
 40
0.0
 40
0.0
 40
0.0
 40
0.243164119738092
 40
0.4936284730588937
 40
0.7421706076863289
 40
1.0
 40
1.0
 40
1.0
 40
1.0
 10
655.4617489613963
 20
666.1975911742866
 30
0.0
 10
655.1479899596995
 20
666.7410377065573
 30
0.0
 10
654.5110523346796
 20
667.8442460343441
 30
0.0
 10
653.5006633656731
 20
669.5942910640707
 30
0.0
 10
652.468956237837
 20
671.3812602280136
 30
0.0
 10
651.8148504949388
 20
672.5142046082359
 30
0.0
 10
651.4817992129698
 20
673.0910663501321
 30
0.0
  0
ARC
  5
250
330
1F
100
AcDbEntity
  8
0
  6
Continuous
 62
     7
370
    25
100
AcDbCircle
 10
661.6990154231
 20
674.3943287622
 30
0.0
 40
10.30000000000008
100
AcDbArc
 50
172.7308609266
 51
187.2691390734
  0
SPLINE
  5
251
330
1F
100
AcDbEntity
  8
0
  6
Continuous
 62
     7
370
    25
100
AcDbSpline
210
0.0
220
0.0
230
1.0
 70
    24
 71
     3
 72
    11
 73
     7
 74
     0
 42
0.00000001
 43
0.00000001
 40
0.0
 40
0.0
 40
0.0
 40
0.0
 40
0.2431641197380916
 40
0.4936284730588936
 40
0.7421706076863288
 40
0.9999999999999999
 40
0.9999999999999999
 40
0.9999999999999999
 40
0.9999999999999999
 10
651.4817992129698
 20
675.6975911742866
 30
0.0
 10
651.7955582146665
 20
676.2410377065574
 30
0.0
 10
652.4324958396865
 20
677.3442460343442
 30
0.0
 10
653.4428848086931
 20
679.0942910640707
 30
0.0
 10
654.474591936529
 20
680.8812602280136
 30
0.0
 10
655.1286976794273
 20
682.0142046082359
 30
0.0
 10
655.4617489613963
 20
682.5910663501321
 30
0.0
  0
ARC
  5
252
330
1F
100
AcDbEntity
  8
0
  6
Continuous
 62
     7
370
    25
100
AcDbCircle
 10
661.6990154231
 20
674.3943287622
 30
0.0
 40
10.30000000000001
100
AcDbArc
 50
112.7308609266
 51
127.2691390734
  0
SPLINE
  5
253
330
1F
100
AcDbEntity
  8
0
  6
Continuous
 62
     7
370
    25
100
AcDbSpline
210
0.0
220
0.0
230
1.0
 70
    24
 71
     3
 72
    10
 73
     6
 74
     0
 42
0.00000001
 43
0.00000001
 40
0.0
 40
0.0
 40
0.0
 40
0.0
 40
0.0998397660018224
 40
0.9237977167977333
 40
1.0
 40
1.0
 40
1.0
 40
1.0
 10
657.7190656747088
 20
683.8943287622094
 30
0.0
 10
657.7931236039221
 20
683.8943287622094
 30
0.0
 10
658.4783670560839
 20
683.8943287622094
 30
0.0
 10
659.2374363700185
 20
683.8943287622094
 30
0.0
 10
659.9471734292713
 20
683.8943287622094
 30
0.0
 10
660.0072556039172
 20
683.8943287622094
 30
0.0
  0
SPLINE
  5
254
330
1F
100
AcDbEntity
  8
0
  6
Continuous
 62
     7
370
    25
100
AcDbSpline
210
0.0
220
0.0
230
1.0
 70
    24
 71
     3
 72
    10
 73
     6
 74
     0
 42
0.00000001
 43
0.00000001
 40
0.0
 40
0.0
 40
0.0
 40
0.0
 40
0.0758615918485053
 40
0.5294560781749184
 40
1.0
 40
1.0
 40
1.0
 40
1.0
 10
560.8819823646846
 20
683.869984892138
 30
0.0
 10
560.9932484971946
 20
683.856191742675
 30
0.0
 10
561.7698012786079
 20
683.7599260746034
 30
0.0
 10
563.2604554292703
 20
683.5751365520983
 30
0.0
 10
564.5571958564636
 20
683.4143856198666
 30
0.0
 10
565.217457696918
 20
683.3325360035947
 30
0.0
  0
ARC
  5
255
330
1F
100
AcDbEntity
  8
0
  6
Continuous
 62
     7
370
    25
100
AcDbCircle
 10
560.0990154231
 20
674.3943287622
 30
0.0
 40
10.29999999999993
100
AcDbArc
 50
45.6642188199
 51
60.2024969667
  0
SPLINE
  5
256
330
1F
100
AcDbEntity
  8
0
  6
Continuous
 62
     7
370
    25
100
AcDbSpline
210
0.0
220
0.0
230
1.0
 70
    24
 71
     3
 72
    11
 73
     7
 74
     0
 42
0.00000001
 43
0.00000001
 40
0.0
 40
0.0
 40
0.0
 40
0.0
 40
0.2431641197380915
 40
0.4936284730588936
 40
0.7421706076863288
 40
1.0
 40
1.0
 40
1.0
 40
1.0
 10
567.2972950417612
 20
681.7614700349197
 30
0.0
 10
567.5418138343332
 20
681.1835518705902
 30
0.0
 10
568.0381923228272
 20
680.010365376965
 30
0.0
 10
568.8256090643184
 20
678.1493123551571
 30
0.0
 10
569.6296394820026
 20
676.248993045686
 30
0.0
 10
570.1393974350908
 20
675.0441842970321
 30
0.0
 10
570.3989510953563
 20
674.430731346002
 30
0.0
  0
ARC
  5
257
330
1F
100
AcDbEntity
  8
0
  6
Continuous
 62
     7
370
    25
100
AcDbCircle
 10
560.0990154231
 20
674.3943287622
 30
0.0
 40
10.29999999999995
100
AcDbArc
 50
345.6642188199
 51
0.2024969667
  0
SPLINE
  5
258
330
1F
100
AcDbEntity
  8
0
  6
Continuous
 62
     7
370
    25
100
AcDbSpline
210
0.0
220
0.0
230
1.0
 70
    24
 71
     3
 72
    13
 73
     9
 74
     0
 42
0.00000001
 43
0.00000001
 40
0.0
 40
0.0
 40
0.0
 40
0.0
 40
0.0290865078712628
 40
0.2691317361521215
 40
0.5086847447945269
 40
0.7393528760311809
 40
0.9704551097945746
 40
1.0
 40
1.0
 40
1.0
 40
1.0
 10
570.0782867278842
 20
671.8440063852906
 30
0.0
 10
570.0336634615397
 20
671.7849323949919
 30
0.0
 10
569.6207731552422
 20
671.2383323823357
 30
0.0
 10
568.8150401271213
 20
670.1716721177302
 30
0.0
 10
567.6507736818096
 20
668.6303715736484
 30
0.0
 10
566.5030603432292
 20
667.1109846667016
 30
0.0
 10
565.7257246153438
 20
666.0819178365541
 30
0.0
 10
565.3258369184962
 20
665.5525311766493
 30
0.0
 10
565.2805088215736
 20
665.4925241046166
 30
0.0
  0
ARC
  5
259
330
1F
100
AcDbEntity
  8
0
  6
Continuous
 62
     7
370
    25
100
AcDbCircle
 10
560.0990154231
 20
674.3943287622
 30
0.0
 40
10.3000000000001
100
AcDbArc
 50
285.6642188199
 51
300.2024969667
  0
SPLINE
  5
25A
330
1F
100
AcDbEntity
  8
0
  6
Continuous
 62
     7
370
    25
100
AcDbSpline
210
0.0
220
0.0
230
1.0
 70
    24
 71
     3
 72
     9
 73
     5
 74
     0
 42
0.00000001
 43
0.00000001
 40
0.0
 40
0.0
 40
0.0
 40
0.0
 40
0.8967999356741609
 40
1.0
 40
1.0
 40
1.0
 40
1.0
 10
562.8800071092583
 20
664.4768651125802
 30
0.0
 10
562.2619426288641
 20
664.5534837166733
 30
0.0
 10
561.5727538189547
 20
664.638919275983
 30
0.0
 10
560.8450705619229
 20
664.7291268144264
 30
0.0
 10
560.7699736029884
 20
664.7384362381965
 30
0.0
  0
LINE
  5
25B
330
1F
100
AcDbEntity
  8
0
  6
Continuous
 62
     7
370
    25
100
AcDbLine
 10
653.2552677362
 20
669.5193287622
 30
0.0
 11
652.6029550899
 21
670.8837467002
 31
0.0
  0
LWPOLYLINE
  5
25C
330
1F
100
AcDbEntity
  8
0
  6
Continuous
 62
     7
370
    25
100
AcDbPolyline
 90
        3
 70
   128
 43
0.0
 10
659.973007868
 20
664.7983192833
 10
659.7799722438
 20
664.8350519446
 10
659.1023649742
 20
664.99646164
  0
LWPOLYLINE
  5
25D
330
1F
100
AcDbEntity
  8
0
  6
Continuous
 62
     7
370
    25
100
AcDbPolyline
 90
        3
 70
   128
 43
0.0
 10
654.2808730161
 20
668.0671126897
 10
654.200602359
 20
668.1624509136
 10
653.2552677362
 20
669.5193287622
  0
ARC
  5
25E
330
1F
100
AcDbEntity
  8
0
  6
Continuous
 62
     7
370
    25
100
AcDbCircle
 10
661.6990154231
 20
674.3943287622
 30
0.0
 40
10.57500000000007
100
AcDbArc
 50
84.5490172093
 51
281.0490866707
  0
ARC
  5
25F
330
1F
100
AcDbEntity
  8
0
  6
Continuous
 62
     7
370
    25
100
AcDbCircle
 10
661.6990154231
 20
674.3943287622
 30
0.0
 40
14.87500000000001
100
AcDbArc
 50
55.1611835908
 51
308.4167037132
  0
SPLINE
  5
260
330
1F
100
AcDbEntity
  8
0
  6
Continuous
 62
     7
370
    25
100
AcDbSpline
210
0.0
220
0.0
230
1.0
 70
     8
 71
     3
 72
     9
 73
     5
 74
     0
 42
0.00000001
 43
0.00000001
 40
0.0
 40
0.0
 40
0.0
 40
0.0
 40
0.5850553834534129
 40
1.0
 40
1.0
 40
1.0
 40
1.0
 10
650.5726047752204
 20
661.1658373102731
 30
0.0
 10
650.8323796950293
 20
660.7792907847091
 30
0.0
 10
651.2763973507176
 20
660.118590043384
 30
0.0
 10
651.9482485427504
 20
659.6404312112578
 30
0.0
 10
652.2270295780048
 20
659.4420217780128
 30
0.0
  0
SPLINE
  5
261
330
1F
100
AcDbEntity
  8
0
  6
Continuous
 62
     7
370
    25
100
AcDbSpline
210
0.0
220
0.0
230
1.0
 70
    24
 71
     3
 72
    11
 73
     7
 74
     0
 42
0.00000001
 43
0.00000001
 40
0.0
 40
0.0
 40
0.0
 40
0.0
 40
0.2379053903768482
 40
0.4814905141303173
 40
0.7366519444348056
 40
0.9999999999999999
 40
0.9999999999999999
 40
0.9999999999999999
 40
0.9999999999999999
 10
644.6796004480549
 20
671.3728202141472
 30
0.0
 10
645.1363325588301
 20
670.5817369928363
 30
0.0
 10
646.0607007645635
 20
668.9806842956045
 30
0.0
 10
647.5370268570832
 20
666.4236124948208
 30
0.0
 10
649.0691602415468
 20
663.7698796289575
 30
0.0
 10
650.0662092061933
 20
662.042940164556
 30
0.0
 10
650.5726047752204
 20
661.1658373102731
 30
0.0
  0
SPLINE
  5
262
330
1F
100
AcDbEntity
  8
0
  6
Continuous
 62
     7
370
    25
100
AcDbSpline
210
0.0
220
0.0
230
1.0
 70
     8
 71
     3
 72
     9
 73
     5
 74
     0
 42
0.00000001
 43
0.00000001
 40
0.0
 40
0.0
 40
0.0
 40
0.0
 40
0.5841917497409947
 40
1.0
 40
1.0
 40
1.0
 40
1.0
 10
644.0139448070724
 20
673.6675018881381
 30
0.0
 10
644.0706369554806
 20
673.1871437625718
 30
0.0
 10
644.1676806888665
 20
672.3648827056857
 30
0.0
 10
644.5292549056396
 20
671.6641787146211
 30
0.0
 10
644.6796004480549
 20
671.3728202141472
 30
0.0
  0
ARC
  5
263
330
1F
100
AcDbEntity
  8
0
  6
Continuous
 62
     7
370
    25
100
AcDbCircle
 10
661.6990154231
 20
674.3943287622
 30
0.0
 40
17.70000000000003
100
AcDbArc
 50
177.6465635726
 51
182.3534364274
  0
SPLINE
  5
264
330
1F
100
AcDbEntity
  8
0
  6
Continuous
 62
     7
370
    25
100
AcDbSpline
210
0.0
220
0.0
230
1.0
 70
     8
 71
     3
 72
     9
 73
     5
 74
     0
 42
0.00000001
 43
0.00000001
 40
0.0
 40
0.0
 40
0.0
 40
0.0
 40
0.585055383453618
 40
1.0
 40
1.0
 40
1.0
 40
1.0
 10
644.679600448055
 20
677.4158373102717
 30
0.0
 10
644.4747287970765
 20
676.9975923676693
 30
0.0
 10
644.1245539986343
 20
676.282711427452
 30
0.0
 10
644.0463818989857
 20
675.4617918115263
 30
0.0
 10
644.0139448070724
 20
675.1211556362806
 30
0.0
  0
SPLINE
  5
265
330
1F
100
AcDbEntity
  8
0
  6
Continuous
 62
     7
370
    25
100
AcDbSpline
210
0.0
220
0.0
230
1.0
 70
    24
 71
     3
 72
    11
 73
     7
 74
     0
 42
0.00000001
 43
0.00000001
 40
0.0
 40
0.0
 40
0.0
 40
0.0
 40
0.2328716322111471
 40
0.4710265024313225
 40
0.7311421212560291
 40
1.0
 40
1.0
 40
1.0
 40
1.0
 10
650.5726047752212
 20
687.6228202141469
 30
0.0
 10
650.1256765600609
 20
686.8487178381533
 30
0.0
 10
649.2216805171513
 20
685.2829507619927
 30
0.0
 10
647.7578441468698
 20
682.7475117946979
 30
0.0
 10
646.2142946916308
 20
680.0740057142287
 30
0.0
 10
645.1967706811378
 20
678.3116024301335
 30
0.0
 10
644.679600448055
 20
677.4158373102717
 30
0.0
  0
SPLINE
  5
266
330
1F
100
AcDbEntity
  8
0
  6
Continuous
 62
     7
370
    25
100
AcDbSpline
210
0.0
220
0.0
230
1.0
 70
     8
 71
     3
 72
     9
 73
     5
 74
     0
 42
0.00000001
 43
0.00000001
 40
0.0
 40
0.0
 40
0.0
 40
0.0
 40
0.5841917497409241
 40
1.0
 40
1.0
 40
1.0
 40
1.0
 10
652.2270295780048
 20
689.3466357464059
 30
0.0
 10
651.8393733125542
 20
689.0573598429061
 30
0.0
 10
651.1757962154411
 20
688.5621869760726
 30
0.0
 10
650.7497558670326
 20
687.8987025234613
 30
0.0
 10
650.5726047752212
 20
687.6228202141469
 30
0.0
  0
ARC
  5
267
330
1F
100
AcDbEntity
  8
0
  6
Continuous
 62
     7
370
    25
100
AcDbCircle
 10
661.6990154231
 20
674.3943287622
 30
0.0
 40
17.70000000000011
100
AcDbArc
 50
117.6465635726
 51
122.3534364274
  0
SPLINE
  5
268
330
1F
100
AcDbEntity
  8
0
  6
Continuous
 62
     7
370
    25
100
AcDbSpline
210
0.0
220
0.0
230
1.0
 70
     8
 71
     3
 72
     9
 73
     5
 74
     0
 42
0.00000001
 43
0.00000001
 40
0.0
 40
0.0
 40
0.0
 40
0.0
 40
0.5850553834536188
 40
1.0
 40
1.0
 40
1.0
 40
1.0
 10
655.8060110959689
 20
690.6443287622094
 30
0.0
 10
655.3413645251817
 20
690.6126303451707
 30
0.0
 10
654.547172071051
 20
690.5584501462781
 30
0.0
 10
653.7971487793701
 20
690.2156893624781
 30
0.0
 10
653.4859306522027
 20
690.0734626204771
 30
0.0
  0
SPLINE
  5
269
330
1F
100
AcDbEntity
  8
0
  6
Continuous
 62
     7
370
    25
100
AcDbSpline
210
0.0
220
0.0
230
1.0
 70
    24
 71
     3
 72
    11
 73
     7
 74
     0
 42
0.00000001
 43
0.00000001
 40
0.0
 40
0.0
 40
0.0
 40
0.0
 40
0.2328716322111483
 40
0.4710265024313251
 40
0.731142121256031
 40
1.0
 40
1.0
 40
1.0
 40
1.0
 10
667.5920197503015
 20
690.6443287622094
 30
0.0
 10
666.698163319981
 20
690.6443287622094
 30
0.0
 10
664.8901712341617
 20
690.6443287622094
 30
0.0
 10
661.9624984935987
 20
690.6443287622093
 30
0.0
 10
658.8753995831207
 20
690.6443287622094
 30
0.0
 10
656.8403515621346
 20
690.6443287622093
 30
0.0
 10
655.8060110959689
 20
690.6443287622094
 30
0.0
  0
SPLINE
  5
26A
330
1F
100
AcDbEntity
  8
0
  6
Continuous
 62
     7
370
    25
100
AcDbSpline
210
0.0
220
0.0
230
1.0
 70
     8
 71
     3
 72
     9
 73
     5
 74
     0
 42
0.00000001
 43
0.00000001
 40
0.0
 40
0.0
 40
0.0
 40
0.0
 40
0.584191749740921
 40
1.0
 40
1.0
 40
1.0
 40
1.0
 10
669.9121001940676
 20
690.0734626204771
 30
0.0
 10
669.467751780209
 20
690.2645448425435
 30
0.0
 10
668.7071309497097
 20
690.5916330325964
 30
0.0
 10
667.9195163845282
 20
690.6288525710497
 30
0.0
 10
667.5920197503015
 20
690.6443287622094
 30
0.0
  0
ARC
  5
26B
330
1F
100
AcDbEntity
  8
0
  6
Continuous
 62
     7
370
    25
100
AcDbCircle
 10
661.6990154231
 20
674.3943287622
 30
0.0
 40
17.69999999999999
100
AcDbArc
 50
57.6465635726
 51
62.3534364274
  0
SPLINE
  5
26C
330
1F
100
AcDbEntity
  8
0
  6
Continuous
 62
     7
370
    25
100
AcDbSpline
210
0.0
220
0.0
230
1.0
 70
     8
 71
     3
 72
     9
 73
     5
 74
     0
 42
0.00000001
 43
0.00000001
 40
0.0
 40
0.0
 40
0.0
 40
0.0
 40
0.5850553834536193
 40
1.0
 40
1.0
 40
1.0
 40
1.0
 10
672.8254260710493
 20
687.6228202141469
 30
0.0
 10
672.5656511512403
 20
688.0093667397107
 30
0.0
 10
672.121633495552
 20
688.6700674810354
 30
0.0
 10
671.4497823035196
 20
689.1482263131612
 30
0.0
 10
671.1710012682655
 20
689.3466357464059
 30
0.0
  0
LINE
  5
26D
330
1F
100
AcDbEntity
  8
0
  6
Continuous
 62
     7
370
    25
100
AcDbLine
 10
674.1208678239
 20
685.37904928
 30
0.0
 11
672.825426071
 21
687.6228202141
 31
0.0
  0
SPLINE
  5
26E
330
1F
100
AcDbEntity
  8
0
  6
Continuous
 62
     7
370
    25
100
AcDbSpline
210
0.0
220
0.0
230
1.0
 70
    24
 71
     3
 72
     9
 73
     5
 74
     0
 42
0.00000001
 43
0.00000001
 40
0.0
 40
0.0
 40
0.0
 40
0.0
 40
0.7820846950964127
 40
1.0
 40
1.0
 40
1.0
 40
1.0
 10
672.8254260710493
 20
661.1658373102717
 30
0.0
 10
673.2703576116521
 20
661.9364813444857
 30
0.0
 10
673.8392621604721
 20
662.921852927699
 30
0.0
 10
674.4335673011115
 20
663.9512196264858
 30
0.0
 10
674.5630754870397
 20
664.1755343845095
 30
0.0
  0
SPLINE
  5
26F
330
1F
100
AcDbEntity
  8
0
  6
Continuous
 62
     7
370
    25
100
AcDbSpline
210
0.0
220
0.0
230
1.0
 70
     8
 71
     3
 72
     9
 73
     5
 74
     0
 42
0.00000001
 43
0.00000001
 40
0.0
 40
0.0
 40
0.0
 40
0.0
 40
0.5841917497409247
 40
1.0
 40
1.0
 40
1.0
 40
1.0
 10
671.1710012682655
 20
659.4420217780128
 30
0.0
 10
671.5586575337161
 20
659.7312976815126
 30
0.0
 10
672.2222346308293
 20
660.2264705483461
 30
0.0
 10
672.6482749792377
 20
660.8899550009573
 30
0.0
 10
672.8254260710493
 20
661.1658373102717
 30
0.0
  0
ARC
  5
270
330
1F
100
AcDbEntity
  8
0
  6
Continuous
 62
     7
370
    25
100
AcDbCircle
 10
661.6990154231
 20
674.3943287622
 30
0.0
 40
17.70000000000009
100
AcDbArc
 50
297.6465635726
 51
302.3534364274
  0
SPLINE
  5
271
330
1F
100
AcDbEntity
  8
0
  6
Continuous
 62
     7
370
    25
100
AcDbSpline
210
0.0
220
0.0
230
1.0
 70
     8
 71
     3
 72
     9
 73
     5
 74
     0
 42
0.00000001
 43
0.00000001
 40
0.0
 40
0.0
 40
0.0
 40
0.0
 40
0.5850553834536198
 40
1.0
 40
1.0
 40
1.0
 40
1.0
 10
667.5920197503015
 20
658.1443287622093
 30
0.0
 10
668.0566663210888
 20
658.176027179248
 30
0.0
 10
668.8508587752193
 20
658.2302073781406
 30
0.0
 10
669.6008820669002
 20
658.5729681619406
 30
0.0
 10
669.9121001940676
 20
658.7151949039416
 30
0.0
  0
SPLINE
  5
272
330
1F
100
AcDbEntity
  8
0
  6
Continuous
 62
     7
370
    25
100
AcDbSpline
210
0.0
220
0.0
230
1.0
 70
    24
 71
     3
 72
    11
 73
     7
 74
     0
 42
0.00000001
 43
0.00000001
 40
0.0
 40
0.0
 40
0.0
 40
0.0
 40
0.2328716322111492
 40
0.4710265024313262
 40
0.7311421212560313
 40
1.0
 40
1.0
 40
1.0
 40
1.0
 10
655.8060110959689
 20
658.1443287622093
 30
0.0
 10
656.6998675262894
 20
658.1443287622093
 30
0.0
 10
658.5078596121087
 20
658.1443287622093
 30
0.0
 10
661.4355323526718
 20
658.1443287622093
 30
0.0
 10
664.5226312631496
 20
658.1443287622093
 30
0.0
 10
666.5576792841358
 20
658.1443287622093
 30
0.0
 10
667.5920197503015
 20
658.1443287622093
 30
0.0
  0
SPLINE
  5
273
330
1F
100
AcDbEntity
  8
0
  6
Continuous
 62
     7
370
    25
100
AcDbSpline
210
0.0
220
0.0
230
1.0
 70
     8
 71
     3
 72
     9
 73
     5
 74
     0
 42
0.00000001
 43
0.00000001
 40
0.0
 40
0.0
 40
0.0
 40
0.0
 40
0.5841917497409255
 40
1.0
 40
1.0
 40
1.0
 40
1.0
 10
653.4859306522027
 20
658.7151949039416
 30
0.0
 10
653.9302790660615
 20
658.5241126818751
 30
0.0
 10
654.6908998965607
 20
658.1970244918223
 30
0.0
 10
655.4785144617423
 20
658.159804953369
 30
0.0
 10
655.8060110959689
 20
658.1443287622093
 30
0.0
  0
ARC
  5
274
330
1F
100
AcDbEntity
  8
0
  6
Continuous
 62
     7
370
    25
100
AcDbCircle
 10
661.6990154231
 20
674.3943287622
 30
0.0
 40
17.70000000000021
100
AcDbArc
 50
237.6465635726
 51
242.3534364274
  0
ARC
  5
275
330
1F
100
AcDbEntity
  8
0
  6
Continuous
 62
     7
370
    25
100
AcDbCircle
 10
661.6990154231
 20
674.3943287622
 30
0.0
 40
16.19999999999998
100
AcDbArc
 50
210.0
 51
318.1420914366
  0
ARC
  5
276
330
1F
100
AcDbEntity
  8
0
  6
Continuous
 62
     7
370
    25
100
AcDbCircle
 10
661.6990154231
 20
674.3943287622
 30
0.0
 40
16.19999999999998
100
AcDbArc
 50
45.9729863763
 51
210.0
  0
LWPOLYLINE
  5
277
330
1F
100
AcDbEntity
  8
0
  6
Continuous
 62
     7
370
    25
100
AcDbPolyline
 90
        3
 70
   128
 43
0.0
 10
560.5787664157
 20
684.1325184803
 10
561.2984966457
 20
684.0702651405
 10
562.7803906777
 20
683.76837414
  0
LINE
  5
278
330
1F
100
AcDbEntity
  8
0
  6
Continuous
 62
     7
370
    25
100
AcDbLine
 10
558.7980396355
 20
663.8996593058
 30
0.0
 11
558.5634820846
 21
663.9314055394
 31
0.0
  0
ARC
  5
279
330
1F
100
AcDbEntity
  8
0
  6
Continuous
 62
     7
370
    25
100
AcDbCircle
 10
560.0990154231
 20
674.3943287622
 30
0.0
 40
10.57500000000014
100
AcDbArc
 50
262.9333578933
 51
98.3490982393
  0
ARC
  5
27A
330
1F
100
AcDbEntity
  8
0
  6
Continuous
 62
     7
370
    25
100
AcDbCircle
 10
560.0990154231
 20
674.3943287622
 30
0.0
 40
14.87500000000009
100
AcDbArc
 50
233.3837470415
 51
262.9333578933
  0
ARC
  5
27B
330
1F
100
AcDbEntity
  8
0
  6
Continuous
 62
     7
370
    25
100
AcDbCircle
 10
560.0990154231
 20
674.3943287622
 30
0.0
 40
14.87500000000004
100
AcDbArc
 50
262.9333578933
 51
126.6156955593
  0
SPLINE
  5
27C
330
1F
100
AcDbEntity
  8
0
  6
Continuous
 62
     7
370
    25
100
AcDbSpline
210
0.0
220
0.0
230
1.0
 70
     8
 71
     3
 72
     9
 73
     5
 74
     0
 42
0.00000001
 43
0.00000001
 40
0.0
 40
0.0
 40
0.0
 40
0.0
 40
0.5850553834534096
 40
1.0
 40
1.0
 40
1.0
 40
1.0
 10
556.2499113124578
 20
691.245868678346
 30
0.0
 10
555.7848946649347
 20
691.2715735983722
 30
0.0
 10
554.9900696608839
 20
691.3155094730828
 30
0.0
 10
554.2035760427754
 20
691.0676230441467
 30
0.0
 10
553.877224749993
 20
690.9647639049448
 30
0.0
  0
SPLINE
  5
27D
330
1F
100
AcDbEntity
  8
0
  6
Continuous
 62
     7
370
    25
100
AcDbSpline
210
0.0
220
0.0
230
1.0
 70
    24
 71
     3
 72
    11
 73
     7
 74
     0
 42
0.00000001
 43
0.00000001
 40
0.0
 40
0.0
 40
0.0
 40
0.0
 40
0.2379053903768481
 40
0.4814905141303175
 40
0.7366519444348052
 40
1.0
 40
1.0
 40
1.0
 40
1.0
 10
567.9463902758639
 20
689.7959101070181
 30
0.0
 10
567.0398649741654
 20
689.9082878692008
 30
0.0
 10
565.2051720615939
 20
690.1357262908541
 30
0.0
 10
562.2749490165024
 20
690.4989725321738
 30
0.0
 10
559.233959241915
 20
690.8759500142671
 30
0.0
 10
557.255009016694
 20
691.1212713498818
 30
0.0
 10
556.2499113124578
 20
691.245868678346
 30
0.0
  0
SPLINE
  5
27E
330
1F
100
AcDbEntity
  8
0
  6
Continuous
 62
     7
370
    25
100
AcDbSpline
210
0.0
220
0.0
230
1.0
 70
     8
 71
     3
 72
     9
 73
     5
 74
     0
 42
0.00000001
 43
0.00000001
 40
0.0
 40
0.0
 40
0.0
 40
0.0
 40
0.5841917497409934
 40
1.0
 40
1.0
 40
1.0
 40
1.0
 10
570.1786166911199
 20
688.9439555023852
 30
0.0
 10
569.7611513121512
 20
689.1882516052016
 30
0.0
 10
569.0465479663256
 20
689.6064295457915
 30
0.0
 10
568.2694952190625
 20
689.7402616245296
 30
0.0
 10
567.9463902758639
 20
689.7959101070181
 30
0.0
  0
ARC
  5
27F
330
1F
100
AcDbEntity
  8
0
  6
Continuous
 62
     7
370
    25
100
AcDbCircle
 10
560.0990154231
 20
674.3943287622
 30
0.0
 40
17.69999999999996
100
AcDbArc
 50
50.5799214659
 51
55.2867943207
  0
SPLINE
  5
280
330
1F
100
AcDbEntity
  8
0
  6
Continuous
 62
     7
370
    25
100
AcDbSpline
210
0.0
220
0.0
230
1.0
 70
     8
 71
     3
 72
     9
 73
     5
 74
     0
 42
0.00000001
 43
0.00000001
 40
0.0
 40
0.0
 40
0.0
 40
0.0
 40
0.5850553834536202
 40
1.0
 40
1.0
 40
1.0
 40
1.0
 10
572.7683250280577
 20
686.1535206619368
 30
0.0
 10
572.5580778180409
 20
686.5690893518876
 30
0.0
 10
572.1987148996525
 20
687.2793959343132
 30
0.0
 10
571.5907921458866
 20
687.8365761730411
 30
0.0
 10
571.3385378719354
 20
688.0677751135473
 30
0.0
  0
SPLINE
  5
281
330
1F
100
AcDbEntity
  8
0
  6
Continuous
 62
     7
370
    25
100
AcDbSpline
210
0.0
220
0.0
230
1.0
 70
    24
 71
     3
 72
    11
 73
     7
 74
     0
 42
0.00000001
 43
0.00000001
 40
0.0
 40
0.0
 40
0.0
 40
0.0
 40
0.232871632211147
 40
0.4710265024313224
 40
0.7311421212560292
 40
1.0
 40
1.0
 40
1.0
 40
1.0
 10
577.3608635525565
 20
675.2990934591318
 30
0.0
 10
577.0125632744882
 20
676.1222983147557
 30
0.0
 10
576.3080607113527
 20
677.7873843548512
 30
0.0
 10
575.1672631570241
 20
680.483650034615
 30
0.0
 10
573.9643435689669
 20
683.326740632493
 30
0.0
 10
573.1713663440479
 20
685.2009358113578
 30
0.0
 10
572.7683250280577
 20
686.1535206619368
 30
0.0
  0
SPLINE
  5
282
330
1F
100
AcDbEntity
  8
0
  6
Continuous
 62
     7
370
    25
100
AcDbSpline
210
0.0
220
0.0
230
1.0
 70
     8
 71
     3
 72
     9
 73
     5
 74
     0
 42
0.00000001
 43
0.00000001
 40
0.0
 40
0.0
 40
0.0
 40
0.0
 40
0.5841917497409242
 40
1.0
 40
1.0
 40
1.0
 40
1.0
 10
577.7391624297012
 20
672.9399513742047
 30
0.0
 10
577.7419963713014
 20
673.4236350490002
 30
0.0
 10
577.7468474182417
 20
674.2515886704095
 30
0.0
 10
577.4742230246385
 20
674.9914521289892
 30
0.0
 10
577.3608635525565
 20
675.2990934591318
 30
0.0
  0
ARC
  5
283
330
1F
100
AcDbEntity
  8
0
  6
Continuous
 62
     7
370
    25
100
AcDbCircle
 10
560.0990154231
 20
674.3943287622
 30
0.0
 40
17.69999999999997
100
AcDbArc
 50
350.5799214659
 51
355.2867943207
  0
SPLINE
  5
284
330
1F
100
AcDbEntity
  8
0
  6
Continuous
 62
     7
370
    25
100
AcDbSpline
210
0.0
220
0.0
230
1.0
 70
     8
 71
     3
 72
     9
 73
     5
 74
     0
 42
0.00000001
 43
0.00000001
 40
0.0
 40
0.0
 40
0.0
 40
0.0
 40
0.585055383453619
 40
0.9999999999999999
 40
0.9999999999999999
 40
0.9999999999999999
 40
0.9999999999999999
 10
576.6174291387367
 20
669.3019807457999
 30
0.0
 10
576.8721985762429
 20
669.6918445157246
 30
0.0
 10
577.3076606619046
 20
670.3582152234401
 30
0.0
 10
577.4862315262468
 20
671.1632818911039
 30
0.0
 10
577.5603285450776
 20
671.4973399708118
 30
0.0
  0
SPLINE
  5
285
330
1F
100
AcDbEntity
  8
0
  6
Continuous
 62
     7
370
    25
100
AcDbSpline
210
0.0
220
0.0
230
1.0
 70
    24
 71
     3
 72
    11
 73
     7
 74
     0
 42
0.00000001
 43
0.00000001
 40
0.0
 40
0.0
 40
0.0
 40
0.0
 40
0.2328716322111486
 40
0.4710265024313255
 40
0.7311421212560308
 40
1.0
 40
1.0
 40
1.0
 40
1.0
 10
569.5134886998279
 20
659.8975121143229
 30
0.0
 10
570.052254878283
 20
660.610751431087
 30
0.0
 10
571.1420104069247
 20
662.0534115678414
 30
0.0
 10
572.906646203788
 20
664.3895040703471
 30
0.0
 10
574.7673750927826
 20
666.8528082912536
 30
0.0
 10
575.9939871168701
 20
668.4766443020883
 30
0.0
 10
576.6174291387367
 20
669.3019807457999
 30
0.0
  0
SPLINE
  5
286
330
1F
100
AcDbEntity
  8
0
  6
Continuous
 62
     7
370
    25
100
AcDbSpline
210
0.0
220
0.0
230
1.0
 70
     8
 71
     3
 72
     9
 73
     5
 74
     0
 42
0.00000001
 43
0.00000001
 40
0.0
 40
0.0
 40
0.0
 40
0.0
 40
0.584191749740921
 40
1.0
 40
1.0
 40
1.0
 40
1.0
 10
567.6595611617165
 20
658.3903246340288
 30
0.0
 10
568.0798604822853
 20
658.629712206008
 30
0.0
 10
568.7993148750513
 20
659.0394878868274
 30
0.0
 10
569.3037432287115
 20
659.6455192666689
 30
0.0
 10
569.5134886998279
 20
659.8975121143229
 30
0.0
  0
ARC
  5
287
330
1F
100
AcDbEntity
  8
0
  6
Continuous
 62
     7
370
    25
100
AcDbCircle
 10
560.0990154231
 20
674.3943287622
 30
0.0
 40
17.70000000000009
100
AcDbArc
 50
290.5799214659
 51
295.2867943207
  0
SPLINE
  5
288
330
1F
100
AcDbEntity
  8
0
  6
Continuous
 62
     7
370
    25
100
AcDbSpline
210
0.0
220
0.0
230
1.0
 70
     8
 71
     3
 72
     9
 73
     5
 74
     0
 42
0.00000001
 43
0.00000001
 40
0.0
 40
0.0
 40
0.0
 40
0.0
 40
0.585055383453617
 40
1.0
 40
1.0
 40
1.0
 40
1.0
 10
563.9481195338141
 20
657.5427888460724
 30
0.0
 10
564.4131361813372
 20
657.5170839260464
 30
0.0
 10
565.2079611853874
 20
657.4731480513361
 30
0.0
 10
565.9944548034954
 20
657.7210344802721
 30
0.0
 10
566.3208060962775
 20
657.8238936194739
 30
0.0
  0
SPLINE
  5
289
330
1F
100
AcDbEntity
  8
0
  6
Continuous
 62
     7
370
    25
100
AcDbSpline
210
0.0
220
0.0
230
1.0
 70
    24
 71
     3
 72
    11
 73
     7
 74
     0
 42
0.00000001
 43
0.00000001
 40
0.0
 40
0.0
 40
0.0
 40
0.0
 40
0.255627964438097
 40
0.5185037642963863
 40
0.7560467972580102
 40
0.9999999999999999
 40
0.9999999999999999
 40
0.9999999999999999
 40
0.9999999999999999
 10
552.2516405704066
 20
658.9927474174004
 30
0.0
 10
553.2267627382865
 20
658.8718660179782
 30
0.0
 10
555.2046547729313
 20
658.6266758613707
 30
0.0
 10
558.2219807241959
 20
658.2526318743544
 30
0.0
 10
561.1827492198236
 20
657.8855990543592
 30
0.0
 10
563.0181843665733
 20
657.6580686213567
 30
0.0
 10
563.9481195338141
 20
657.5427888460724
 30
0.0
  0
SPLINE
  5
28A
330
1F
100
AcDbEntity
  8
0
  6
Continuous
 62
     7
370
    25
100
AcDbSpline
210
0.0
220
0.0
230
1.0
 70
     8
 71
     3
 72
     9
 73
     5
 74
     0
 42
0.00000001
 43
0.00000001
 40
0.0
 40
0.0
 40
0.0
 40
0.0
 40
0.5841917497409234
 40
1.0
 40
1.0
 40
1.0
 40
1.0
 10
550.0194141551505
 20
659.8447020220335
 30
0.0
 10
550.4368795341192
 20
659.6004059192171
 30
0.0
 10
551.1514828799448
 20
659.1822279786271
 30
0.0
 10
551.9285356272081
 20
659.0483958998891
 30
0.0
 10
552.2516405704066
 20
658.9927474174004
 30
0.0
  0
ARC
  5
28B
330
1F
100
AcDbEntity
  8
0
  6
Continuous
 62
     7
370
    25
100
AcDbCircle
 10
560.0990154231
 20
674.3943287622
 30
0.0
 40
17.70000000000005
100
AcDbArc
 50
230.5799214659
 51
235.2867943207
  0
SPLINE
  5
28C
330
1F
100
AcDbEntity
  8
0
  6
Continuous
 62
     7
370
    25
100
AcDbSpline
210
0.0
220
0.0
230
1.0
 70
     8
 71
     3
 72
     9
 73
     5
 74
     0
 42
0.00000001
 43
0.00000001
 40
0.0
 40
0.0
 40
0.0
 40
0.0
 40
0.5850553834536163
 40
0.9999999999999999
 40
0.9999999999999999
 40
0.9999999999999999
 40
0.9999999999999999
 10
547.4297058182126
 20
662.6351368624819
 30
0.0
 10
547.6399530282295
 20
662.2195681725311
 30
0.0
 10
547.9993159466179
 20
661.5092615901054
 30
0.0
 10
548.6072387003837
 20
660.9520813513776
 30
0.0
 10
548.859492974335
 20
660.7208824108715
 30
0.0
  0
LINE
  5
28D
330
1F
100
AcDbEntity
  8
0
  6
Continuous
 62
     7
370
    25
100
AcDbLine
 10
546.8291035222
 20
664.0546554718
 30
0.0
 11
547.4297058182
 21
662.6351368625
 31
0.0
  0
SPLINE
  5
28E
330
1F
100
AcDbEntity
  8
0
  6
Continuous
 62
     7
370
    25
100
AcDbSpline
210
0.0
220
0.0
230
1.0
 70
    24
 71
     3
 72
     9
 73
     5
 74
     0
 42
0.00000001
 43
0.00000001
 40
0.0
 40
0.0
 40
0.0
 40
0.0
 40
0.6014876939865642
 40
1.0
 40
1.0
 40
1.0
 40
1.0
 10
550.6845421464425
 20
688.8911454100958
 30
0.0
 10
550.1467413177862
 20
688.179184060395
 30
0.0
 10
549.2526235593799
 20
686.9955167022448
 30
0.0
 10
548.3186920195539
 20
685.7591423342765
 30
0.0
 10
547.9465088079592
 20
685.2664319338015
 30
0.0
  0
SPLINE
  5
28F
330
1F
100
AcDbEntity
  8
0
  6
Continuous
 62
     7
370
    25
100
AcDbSpline
210
0.0
220
0.0
230
1.0
 70
     8
 71
     3
 72
     9
 73
     5
 74
     0
 42
0.00000001
 43
0.00000001
 40
0.0
 40
0.0
 40
0.0
 40
0.0
 40
0.5841917497409256
 40
1.0
 40
1.0
 40
1.0
 40
1.0
 10
552.5384696845538
 20
690.3983328903898
 30
0.0
 10
552.118170363985
 20
690.1589453184107
 30
0.0
 10
551.3987159712191
 20
689.7491696375913
 30
0.0
 10
550.8942876175589
 20
689.1431382577498
 30
0.0
 10
550.6845421464425
 20
688.8911454100958
 30
0.0
  0
ARC
  5
290
330
1F
100
AcDbEntity
  8
0
  6
Continuous
 62
     7
370
    25
100
AcDbCircle
 10
560.0990154231
 20
674.3943287622
 30
0.0
 40
17.69999999999999
100
AcDbArc
 50
110.5799214659
 51
115.2867943207
  0
ARC
  5
291
330
1F
100
AcDbEntity
  8
0
  6
Continuous
 62
     7
370
    25
100
AcDbCircle
 10
560.0990154231
 20
674.3943287622
 30
0.0
 40
16.19999999999996
100
AcDbArc
 50
82.9333578933
 51
136.0742282651
  0
ARC
  5
292
330
1F
100
AcDbEntity
  8
0
  6
Continuous
 62
     7
370
    25
100
AcDbCircle
 10
560.0990154231
 20
674.3943287622
 30
0.0
 40
16.20000000000007
100
AcDbArc
 50
223.9250761661
 51
82.9333578933
  0
SPLINE
  5
293
330
1F
100
AcDbEntity
  8
0
  6
Continuous
 62
     7
370
    25
100
AcDbSpline
210
0.0
220
0.0
230
1.0
 70
    24
 71
     3
 72
     9
 73
     5
 74
     0
 42
0.00000001
 43
0.00000001
 40
0.0
 40
0.0
 40
0.0
 40
0.0
 40
0.3299190841622903
 40
0.9999999999999999
 40
0.9999999999999999
 40
0.9999999999999999
 40
0.9999999999999999
 10
648.9169272783946
 20
661.7193336235894
 30
0.0
 10
649.2221142932297
 20
661.1907342080849
 30
0.0
 10
650.1471502474543
 20
659.5885249365398
 30
0.0
 10
651.0464271396327
 20
658.0309316692142
 30
0.0
 10
651.6490154231351
 20
656.9872181461421
 30
0.0
  0
SPLINE
  5
294
330
1F
100
AcDbEntity
  8
0
  6
Continuous
 62
     7
370
    25
100
AcDbSpline
210
0.0
220
0.0
230
1.0
 70
    24
 71
     3
 72
     9
 73
     5
 74
     0
 42
0.00000001
 43
0.00000001
 40
0.0
 40
0.0
 40
0.0
 40
0.0
 40
0.9657433090152094
 40
1.0
 40
1.0
 40
1.0
 40
1.0
 10
651.6490154231351
 20
691.8014393782765
 30
0.0
 10
650.781205527061
 20
690.2983485469651
 30
0.0
 10
649.8826128182397
 20
688.7419403199756
 30
0.0
 10
648.9531550143532
 20
687.1320721801528
 30
0.0
 10
648.9213148655822
 20
687.0769234247607
 30
0.0
  0
SPLINE
  5
295
330
1F
100
AcDbEntity
  8
0
  6
Continuous
 62
     7
370
    25
100
AcDbSpline
210
0.0
220
0.0
230
1.0
 70
    24
 71
     3
 72
     9
 73
     5
 74
     0
 42
0.00000001
 43
0.00000001
 40
0.0
 40
0.0
 40
0.0
 40
0.0
 40
0.6277544684541233
 40
1.0
 40
1.0
 40
1.0
 40
1.0
 10
671.7490154231351
 20
691.8014393782765
 30
0.0
 10
670.0066791710416
 20
691.8014393782765
 30
0.0
 10
667.2311732373536
 20
691.8014393782765
 30
0.0
 10
664.3607010054101
 20
691.8014393782765
 30
0.0
 10
663.2921805436425
 20
691.8014393782765
 30
0.0
  0
SPLINE
  5
296
330
1F
100
AcDbEntity
  8
0
  6
Continuous
 62
     7
370
    25
100
AcDbSpline
210
0.0
220
0.0
230
1.0
 70
    24
 71
     3
 72
     9
 73
     5
 74
     0
 42
0.00000001
 43
0.00000001
 40
0.0
 40
0.0
 40
0.0
 40
0.0
 40
0.4491936166256291
 40
1.0
 40
1.0
 40
1.0
 40
1.0
 10
660.1922520074124
 20
691.8014393782765
 30
0.0
 10
658.8917325464909
 20
691.8014393782765
 30
0.0
 10
655.9965011523068
 20
691.8014393782765
 30
0.0
 10
653.1931300959458
 20
691.8014393782765
 30
0.0
 10
651.6490154231351
 20
691.8014393782765
 30
0.0
  0
SPLINE
  5
297
330
1F
100
AcDbEntity
  8
0
  6
Continuous
 62
     7
370
    25
100
AcDbSpline
210
0.0
220
0.0
230
1.0
 70
    24
 71
     3
 72
    10
 73
     6
 74
     0
 42
0.00000001
 43
0.00000001
 40
0.0
 40
0.0
 40
0.0
 40
0.0
 40
0.0616314628150597
 40
0.6856335011508461
 40
1.0
 40
1.0
 40
1.0
 40
1.0
 10
675.8598639323158
 20
684.6812408981571
 30
0.0
 10
675.7738848062114
 20
684.8301611129602
 30
0.0
 10
674.8173900782874
 20
686.4868585788961
 30
0.0
 10
673.4351072371475
 20
688.8810426901813
 30
0.0
 10
672.1721302599225
 20
691.0685829835248
 30
0.0
 10
671.7490154231351
 20
691.8014393782765
 30
0.0
  0
SPLINE
  5
298
330
1F
100
AcDbEntity
  8
0
  6
Continuous
 62
     7
370
    25
100
AcDbSpline
210
0.0
220
0.0
230
1.0
 70
    24
 71
     3
 72
     9
 73
     5
 74
     0
 42
0.00000001
 43
0.00000001
 40
0.0
 40
0.0
 40
0.0
 40
0.0
 40
0.7096154150820818
 40
1.0
 40
1.0
 40
1.0
 40
1.0
 10
671.7490154231352
 20
656.9872181461421
 30
0.0
 10
672.6193701853913
 20
658.4947168149793
 30
0.0
 10
673.8458863288652
 20
660.6191050917796
 30
0.0
 10
675.1144079846317
 20
662.8162490500686
 30
0.0
 10
675.4827671191009
 20
663.4542657864013
 30
0.0
  0
SPLINE
  5
299
330
1F
100
AcDbEntity
  8
0
  6
Continuous
 62
     7
370
    25
100
AcDbSpline
210
0.0
220
0.0
230
1.0
 70
    24
 71
     3
 72
     9
 73
     5
 74
     0
 42
0.00000001
 43
0.00000001
 40
0.0
 40
0.0
 40
0.0
 40
0.0
 40
0.6712554999507966
 40
1.0
 40
1.0
 40
1.0
 40
1.0
 10
651.6490154231351
 20
656.9872181461421
 30
0.0
 10
653.3904872297188
 20
656.9872181461421
 30
0.0
 10
655.98483737912
 20
656.9872181461421
 30
0.0
 10
658.6679994907124
 20
656.9872181461421
 30
0.0
 10
659.5500742776389
 20
656.9872181461421
 30
0.0
  0
SPLINE
  5
29A
330
1F
100
AcDbEntity
  8
0
  6
Continuous
 62
     7
370
    25
100
AcDbSpline
210
0.0
220
0.0
230
1.0
 70
    24
 71
     3
 72
     9
 73
     5
 74
     0
 42
0.00000001
 43
0.00000001
 40
0.0
 40
0.0
 40
0.0
 40
0.0
 40
0.4132291263051648
 40
1.0
 40
1.0
 40
1.0
 40
1.0
 10
663.7356152243121
 20
656.9872181461421
 30
0.0
 10
664.8582523502546
 20
656.9872181461421
 30
0.0
 10
667.5749948412317
 20
656.9872181461421
 30
0.0
 10
670.2055073185526
 20
656.9872181461421
 30
0.0
 10
671.7490154231352
 20
656.9872181461421
 30
0.0
  0
SPLINE
  5
29B
330
1F
100
AcDbEntity
  8
0
  6
Continuous
 62
     7
370
    25
100
AcDbSpline
210
0.0
220
0.0
230
1.0
 70
    24
 71
     3
 72
     9
 73
     5
 74
     0
 42
0.00000001
 43
0.00000001
 40
0.0
 40
0.0
 40
0.0
 40
0.0
 40
0.331369015151606
 40
1.0
 40
1.0
 40
1.0
 40
1.0
 10
572.8871029799241
 20
687.0589326143462
 30
0.0
 10
572.5799058837572
 20
687.5910135928447
 30
0.0
 10
571.6528515059474
 20
689.1967188765905
 30
0.0
 10
570.751612048891
 20
690.757711405998
 30
0.0
 10
570.1490154231352
 20
691.8014393782765
 30
0.0
  0
SPLINE
  5
29C
330
1F
100
AcDbEntity
  8
0
  6
Continuous
 62
     7
370
    25
100
AcDbSpline
210
0.0
220
0.0
230
1.0
 70
    24
 71
     3
 72
     9
 73
     5
 74
     0
 42
0.00000001
 43
0.00000001
 40
0.0
 40
0.0
 40
0.0
 40
0.0
 40
0.9631626890022107
 40
1.0
 40
1.0
 40
1.0
 40
1.0
 10
570.1490154231352
 20
656.9872181461421
 30
0.0
 10
571.0168509600425
 20
658.4903533886793
 30
0.0
 10
571.9178779068051
 20
660.0509778394608
 30
0.0
 10
572.8498526460656
 20
661.665205439231
 30
0.0
 10
572.8841840893779
 20
661.724669243345
 30
0.0
  0
SPLINE
  5
29D
330
1F
100
AcDbEntity
  8
0
  6
Continuous
 62
     7
370
    25
100
AcDbSpline
210
0.0
220
0.0
230
1.0
 70
    24
 71
     3
 72
     9
 73
     5
 74
     0
 42
0.00000001
 43
0.00000001
 40
0.0
 40
0.0
 40
0.0
 40
0.0
 40
0.6619830095270263
 40
1.0
 40
1.0
 40
1.0
 40
1.0
 10
550.0490154231352
 20
656.9872181461421
 30
0.0
 10
551.7906714911591
 20
656.9872181461421
 30
0.0
 10
554.4216394207864
 20
656.9872181461421
 30
0.0
 10
557.1426633144256
 20
656.9872181461421
 30
0.0
 10
558.0624156219586
 20
656.9872181461421
 30
0.0
  0
SPLINE
  5
29E
330
1F
100
AcDbEntity
  8
0
  6
Continuous
 62
     7
370
    25
100
AcDbSpline
210
0.0
220
0.0
230
1.0
 70
    24
 71
     3
 72
     9
 73
     5
 74
     0
 42
0.00000001
 43
0.00000001
 40
0.0
 40
0.0
 40
0.0
 40
0.0
 40
0.4049916179852053
 40
1.0
 40
1.0
 40
1.0
 40
1.0
 10
562.2479565686315
 20
656.9872181461421
 30
0.0
 10
563.3328875785611
 20
656.9872181461421
 30
0.0
 10
566.0117850217408
 20
656.9872181461421
 30
0.0
 10
568.6056462503371
 20
656.9872181461421
 30
0.0
 10
570.1490154231352
 20
656.9872181461421
 30
0.0
  0
SPLINE
  5
29F
330
1F
100
AcDbEntity
  8
0
  6
Continuous
 62
     7
370
    25
100
AcDbSpline
210
0.0
220
0.0
230
1.0
 70
    24
 71
     3
 72
     9
 73
     5
 74
     0
 42
0.00000001
 43
0.00000001
 40
0.0
 40
0.0
 40
0.0
 40
0.0
 40
0.6543635036934596
 40
1.0
 40
1.0
 40
1.0
 40
1.0
 10
546.3152637271694
 20
663.4542657864013
 30
0.0
 10
547.1409303315955
 20
662.0241692774224
 30
0.0
 10
548.4027161735103
 20
659.8386920909551
 30
0.0
 10
549.6261515174116
 20
657.7196399155425
 30
0.0
 10
550.0490154231352
 20
656.9872181461421
 30
0.0
  0
SPLINE
  5
2A0
330
1F
100
AcDbEntity
  8
0
  6
Continuous
 62
     7
370
    25
100
AcDbSpline
210
0.0
220
0.0
230
1.0
 70
    24
 71
     3
 72
     9
 73
     5
 74
     0
 42
0.00000001
 43
0.00000001
 40
0.0
 40
0.0
 40
0.0
 40
0.0
 40
0.6454514012250443
 40
1.0
 40
1.0
 40
1.0
 40
1.0
 10
550.0490154231351
 20
691.8014393782765
 30
0.0
 10
549.178023132391
 20
690.2928364777068
 30
0.0
 10
547.8285918830496
 20
687.9555529925266
 30
0.0
 10
546.4329793736094
 20
685.5382812184973
 30
0.0
 10
545.9381669139545
 20
684.6812408981571
 30
0.0
  0
SPLINE
  5
2A1
330
1F
100
AcDbEntity
  8
0
  6
Continuous
 62
     7
370
    25
100
AcDbSpline
210
0.0
220
0.0
230
1.0
 70
    24
 71
     3
 72
     9
 73
     5
 74
     0
 42
0.00000001
 43
0.00000001
 40
0.0
 40
0.0
 40
0.0
 40
0.0
 40
0.6214930821336062
 40
1.0
 40
1.0
 40
1.0
 40
1.0
 10
570.1490154231352
 20
691.8014393782765
 30
0.0
 10
568.4065547457785
 20
691.8014393782765
 30
0.0
 10
565.6028860848583
 20
691.8014393782765
 30
0.0
 10
562.7032943641386
 20
691.8014393782765
 30
0.0
 10
561.6057788388581
 20
691.8014393782765
 30
0.0
  0
SPLINE
  5
2A2
330
1F
100
AcDbEntity
  8
0
  6
Continuous
 62
     7
370
    25
100
AcDbSpline
210
0.0
220
0.0
230
1.0
 70
    24
 71
     3
 72
     9
 73
     5
 74
     0
 42
0.00000001
 43
0.00000001
 40
0.0
 40
0.0
 40
0.0
 40
0.0
 40
0.4436326856795825
 40
1.0
 40
1.0
 40
1.0
 40
1.0
 10
558.5058503026277
 20
691.8014393782765
 30
0.0
 10
557.2343436708843
 20
691.8014393782765
 30
0.0
 10
554.368218895169
 20
691.8014393782765
 30
0.0
 10
551.5930363066553
 20
691.8014393782765
 30
0.0
 10
550.0490154231351
 20
691.8014393782765
 30
0.0
  0
ARC
  5
2A3
330
1F
100
AcDbEntity
  8
0
  6
Continuous
 62
     7
370
    25
100
AcDbCircle
 10
560.0990154231
 20
674.3943287622
 30
0.0
 40
25.80000000000007
100
AcDbArc
 50
191.8527221496
 51
270.0
  0
ARC
  5
2A4
330
1F
100
AcDbEntity
  8
0
  6
Continuous
 62
     7
370
    25
100
AcDbCircle
 10
560.0990154231
 20
674.3943287622
 30
0.0
 40
25.80000000000004
100
AcDbArc
 50
27.7177476896
 51
168.1708488616
  0
ARC
  5
2A5
330
1F
100
AcDbEntity
  8
0
  6
Continuous
 62
     7
370
    25
100
AcDbCircle
 10
560.0990154231
 20
674.3943287622
 30
0.0
 40
25.80000000000007
100
AcDbArc
 50
270.0
 51
332.2822523104
  0
ARC
  5
2A6
330
1F
100
AcDbEntity
  8
0
  6
Continuous
 62
     7
370
    25
100
AcDbCircle
 10
661.6990154231
 20
674.3943287622
 30
0.0
 40
25.79999999999995
100
AcDbArc
 50
12.3769267416
 51
90.0
  0
ARC
  5
2A7
330
1F
100
AcDbEntity
  8
0
  6
Continuous
 62
     7
370
    25
100
AcDbCircle
 10
661.6990154231
 20
674.3943287622
 30
0.0
 40
25.80000000000013
100
AcDbArc
 50
207.7177476896
 51
348.6983796579
  0
ARC
  5
2A8
330
1F
100
AcDbEntity
  8
0
  6
Continuous
 62
     7
370
    25
100
AcDbCircle
 10
661.6990154231
 20
674.3943287622
 30
0.0
 40
25.80000000000008
100
AcDbArc
 50
90.0
 51
152.2822523104
  0
ARC
  5
2A9
330
1F
100
AcDbEntity
  8
0
  6
Continuous
 62
     7
370
    25
100
AcDbCircle
 10
560.0990154231
 20
674.3943287622
 30
0.0
 40
17.6000000000001
100
AcDbArc
 50
358.8748351559
 51
27.9531868834
  0
ARC
  5
2AA
330
1F
100
AcDbEntity
  8
0
  6
Continuous
 62
     7
370
    25
100
AcDbCircle
 10
560.0990154231
 20
674.3943287622
 30
0.0
 40
17.60000000000018
100
AcDbArc
 50
332.0468131166
 51
346.5348263404
  0
ARC
  5
2AB
330
1F
100
AcDbEntity
  8
0
  6
Continuous
 62
     7
370
    25
100
AcDbCircle
 10
560.0990154231
 20
674.3943287622
 30
0.0
 40
17.6000000000001
100
AcDbArc
 50
300.3951139874
 51
332.0468131166
  0
ARC
  5
2AC
330
1F
100
AcDbEntity
  8
0
  6
Continuous
 62
     7
370
    25
100
AcDbCircle
 10
560.0990154231
 20
674.3943287622
 30
0.0
 40
17.60000000000014
100
AcDbArc
 50
240.8064501442
 51
285.7791155227
  0
ARC
  5
2AD
330
1F
100
AcDbEntity
  8
0
  6
Continuous
 62
     7
370
    25
100
AcDbCircle
 10
560.0990154231
 20
674.3943287622
 30
0.0
 40
17.6
100
AcDbArc
 50
211.5427743269
 51
225.3898435195
  0
ARC
  5
2AE
330
1F
100
AcDbEntity
  8
0
  6
Continuous
 62
     7
370
    25
100
AcDbCircle
 10
560.0990154231
 20
674.3943287622
 30
0.0
 40
17.60000000000005
100
AcDbArc
 50
118.5170832401
 51
148.4572256731
  0
ARC
  5
2AF
330
1F
100
AcDbEntity
  8
0
  6
Continuous
 62
     7
370
    25
100
AcDbCircle
 10
560.0990154231
 20
674.3943287622
 30
0.0
 40
17.59999999999998
100
AcDbArc
 50
60.0799962335
 51
106.3733566967
  0
ARC
  5
2B0
330
1F
100
AcDbEntity
  8
0
  6
Continuous
 62
     7
370
    25
100
AcDbCircle
 10
560.0990154231
 20
674.3943287622
 30
0.0
 40
17.6000000000001
100
AcDbArc
 50
27.9531868834
 51
46.4301296779
  0
ARC
  5
2B1
330
1F
100
AcDbEntity
  8
0
  6
Continuous
 62
     7
370
    25
100
AcDbCircle
 10
661.6990154231
 20
674.3943287622
 30
0.0
 40
17.60000000000014
100
AcDbArc
 50
152.0468131166
 51
172.4862534746
  0
ARC
  5
2B2
330
1F
100
AcDbEntity
  8
0
  6
Continuous
 62
     7
370
    25
100
AcDbCircle
 10
661.6990154231
 20
674.3943287622
 30
0.0
 40
17.60000000000019
100
AcDbArc
 50
187.910643453
 51
207.9531868834
  0
ARC
  5
2B3
330
1F
100
AcDbEntity
  8
0
  6
Continuous
 62
     7
370
    25
100
AcDbCircle
 10
661.6990154231
 20
674.3943287622
 30
0.0
 40
17.60000000000019
100
AcDbArc
 50
207.9531868834
 51
232.8810954664
  0
ARC
  5
2B4
330
1F
100
AcDbEntity
  8
0
  6
Continuous
 62
     7
370
    25
100
AcDbCircle
 10
661.6990154231
 20
674.3943287622
 30
0.0
 40
17.60000000000018
100
AcDbArc
 50
247.4402232781
 51
293.8239414859
  0
ARC
  5
2B5
330
1F
100
AcDbEntity
  8
0
  6
Continuous
 62
     7
370
    25
100
AcDbCircle
 10
661.6990154231
 20
674.3943287622
 30
0.0
 40
17.60000000000002
100
AcDbArc
 50
306.4195004621
 51
329.914091969
  0
ARC
  5
2B6
330
1F
100
AcDbEntity
  8
0
  6
Continuous
 62
     7
370
    25
100
AcDbCircle
 10
661.6990154231
 20
674.3943287622
 30
0.0
 40
17.59999999999991
100
AcDbArc
 50
33.0957362986
 51
52.5341981641
  0
ARC
  5
2B7
330
1F
100
AcDbEntity
  8
0
  6
Continuous
 62
     7
370
    25
100
AcDbCircle
 10
661.6990154231
 20
674.3943287622
 30
0.0
 40
17.60000000000002
100
AcDbArc
 50
67.9150643104
 51
112.5498320091
  0
ARC
  5
2B8
330
1F
100
AcDbEntity
  8
0
  6
Continuous
 62
     7
370
    25
100
AcDbCircle
 10
661.6990154231
 20
674.3943287622
 30
0.0
 40
17.60000000000014
100
AcDbArc
 50
127.6929747998
 51
152.0468131166
  0
SPLINE
  5
2B9
330
1F
100
AcDbEntity
  8
0
  6
Continuous
 62
     7
370
    25
100
AcDbSpline
210
0.0
220
0.0
230
1.0
 70
     8
 71
     3
 72
    26
 73
    22
 74
     0
 42
0.00000001
 43
0.00000001
 40
0.0
 40
0.0
 40
0.0
 40
0.0
 40
0.1249999999999996
 40
0.1249999999999996
 40
0.1874999999999994
 40
0.1874999999999994
 40
0.2499999999999992
 40
0.2499999999999992
 40
0.3749999999999991
 40
0.3749999999999991
 40
0.4374999999999992
 40
0.4374999999999992
 40
0.4999999999999992
 40
0.4999999999999992
 40
0.6249999999999993
 40
0.6249999999999993
 40
0.7499999999999994
 40
0.7499999999999994
 40
0.8749999999999998
 40
0.8749999999999998
 40
1.0
 40
1.0
 40
1.0
 40
1.0
 10
582.7122858632904
 20
681.5943287622194
 30
0.0
 10
583.1050610208918
 20
681.1502322191704
 30
0.0
 10
583.4289977784896
 20
680.6572115328479
 30
0.0
 10
583.8198704709844
 20
679.8362474360921
 30
0.0
 10
583.934546617962
 20
679.5480172023576
 30
0.0
 10
584.1314943789788
 20
678.9532060108751
 30
0.0
 10
584.2138353611897
 20
678.6468576451877
 30
0.0
 10
584.4190374718837
 20
677.7143036920032
 30
0.0
 10
584.5022669233807
 20
677.0701267367614
 30
0.0
 10
584.5803814578934
 20
676.0737143171447
 30
0.0
 10
584.5983947951514
 20
675.7369328834711
 30
0.0
 10
584.6217162112971
 20
675.0670642465035
 30
0.0
 10
584.6271823412026
 20
674.7322643528903
 30
0.0
 10
584.6272907488673
 20
673.7282554209636
 30
0.0
 10
584.6069503699522
 20
673.0575443052593
 30
0.0
 10
584.5030686093319
 20
671.7251101958168
 30
0.0
 10
584.4199110698512
 20
671.079793177699
 30
0.0
 10
584.1467876673377
 20
669.8356400941884
 30
0.0
 10
583.9530700696706
 20
669.2330881193012
 30
0.0
 10
583.4298768072252
 20
668.1323847561113
 30
0.0
 10
583.1049888542449
 20
667.638343709055
 30
0.0
 10
582.7122858632994
 20
667.1943287622094
 30
0.0
  0
LWPOLYLINE
  5
2BA
330
1F
100
AcDbEntity
  8
0
  6
Continuous
 62
     7
370
    25
100
AcDbPolyline
 90
        9
 70
   128
 43
0.0
 10
575.6456388507
 20
666.1443287622
 10
576.0681229169
 20
666.7205450551
 10
576.6618467177
 20
667.1852619558
 10
577.4115082343
 20
667.5265023351
 10
578.2977864717
 20
667.7354714188
 10
579.2978394179
 20
667.8067834555
 10
580.38589275
 20
667.7386005231
 10
581.5339041148
 20
667.5326798975
 10
582.7122858633
 20
667.1943287622
  0
LWPOLYLINE
  5
2BB
330
1F
100
AcDbEntity
  8
0
  6
Continuous
 62
     7
370
    25
100
AcDbPolyline
 90
        9
 70
   128
 43
0.0
 10
582.7122858633
 20
681.5943287622
 10
581.5339041148
 20
681.255977627
 10
580.38589275
 20
681.0500570013
 10
579.2978394179
 20
680.9818740689
 10
578.2977864717
 20
681.0531861056
 10
577.4115082343
 20
681.2621551894
 10
576.6618467177
 20
681.6033955686
 10
576.0681229169
 20
682.0681124694
 10
575.6456388507
 20
682.6443287622
  0
LWPOLYLINE
  5
2BC
330
1F
100
AcDbEntity
  8
0
  6
Continuous
 62
     7
370
    25
100
AcDbPolyline
 90
        9
 70
   128
 43
0.0
 10
646.1523919955
 20
666.1443287622
 10
645.7299079294
 20
666.7205450551
 10
645.1361841286
 20
667.1852619558
 10
644.386522612
 20
667.5265023351
 10
643.5002443745
 20
667.7354714188
 10
642.5001914283
 20
667.8067834555
 10
641.4121380962
 20
667.7386005231
 10
640.2641267314
 20
667.5326798975
 10
639.085744983
 20
667.1943287622
  0
SPLINE
  5
2BD
330
1F
100
AcDbEntity
  8
0
  6
Continuous
 62
     7
370
    25
100
AcDbSpline
210
0.0
220
0.0
230
1.0
 70
     8
 71
     3
 72
    30
 73
    26
 74
     0
 42
0.00000001
 43
0.00000001
 40
0.0
 40
0.0
 40
0.0
 40
0.0
 40
0.1249999999999998
 40
0.1249999999999998
 40
0.1874999999999996
 40
0.1874999999999996
 40
0.2499999999999994
 40
0.2499999999999994
 40
0.3749999999999993
 40
0.3749999999999993
 40
0.4999999999999992
 40
0.4999999999999992
 40
0.5624999999999991
 40
0.5624999999999991
 40
0.624999999999999
 40
0.624999999999999
 40
0.7499999999999991
 40
0.7499999999999991
 40
0.8124999999999994
 40
0.8124999999999994
 40
0.8749999999999997
 40
0.8749999999999997
 40
0.9374999999999999
 40
0.9374999999999999
 40
1.0
 40
1.0
 40
1.0
 40
1.0
 10
639.0857449829709
 20
667.1943287622094
 30
0.0
 10
638.69263235489
 20
667.6388068708214
 30
0.0
 10
638.3674767958086
 20
668.1334154024667
 30
0.0
 10
637.9748700751791
 20
668.959980609091
 30
0.0
 10
637.8611892177255
 20
669.2471904136789
 30
0.0
 10
637.6668319605781
 20
669.8349441980355
 30
0.0
 10
637.5854734285563
 20
670.1368825087638
 30
0.0
 10
637.3804823871183
 20
671.0658323928529
 30
0.0
 10
637.2954305143064
 20
671.7205914197541
 30
0.0
 10
637.1911465951886
 20
673.0552162855545
 30
0.0
 10
637.1707838848207
 20
673.7258037946867
 30
0.0
 10
637.1708263874768
 20
674.7305105989051
 30
0.0
 10
637.1762779103007
 20
675.0655432966311
 30
0.0
 10
637.1995831569408
 20
675.7358778941327
 30
0.0
 10
637.2175949165625
 20
676.072893913818
 30
0.0
 10
637.2957357581275
 20
677.0700182877248
 30
0.0
 10
637.3790199954843
 20
677.7146424738851
 30
0.0
 10
637.5844309468996
 20
678.6478186180066
 30
0.0
 10
637.6670940769791
 20
678.9550223141875
 30
0.0
 10
637.8636116242063
 20
679.548269254785
 30
0.0
 10
637.9766969869064
 20
679.8326048229399
 30
0.0
 10
638.2354665666031
 20
680.3772356514387
 30
0.0
 10
638.3811433096532
 20
680.6375322792182
 30
0.0
 10
638.7076382489603
 20
681.1346643651779
 30
0.0
 10
638.8891020423001
 20
681.3719917623332
 30
0.0
 10
639.0857449829705
 20
681.5943287622096
 30
0.0
  0
LWPOLYLINE
  5
2BE
330
1F
100
AcDbEntity
  8
0
  6
Continuous
 62
     7
370
    25
100
AcDbPolyline
 90
        9
 70
   128
 43
0.0
 10
639.085744983
 20
681.5943287622
 10
640.2641267314
 20
681.255977627
 10
641.4121380962
 20
681.0500570013
 10
642.5001914283
 20
680.9818740689
 10
643.5002443745
 20
681.0531861056
 10
644.386522612
 20
681.2621551894
 10
645.1361841286
 20
681.6033955686
 10
645.7299079294
 20
682.0681124693
 10
646.1523919955
 20
682.6443287622
  0
LWPOLYLINE
  5
2BF
330
1F
100
AcDbEntity
  8
0
  6
Continuous
 62
     8
370
    25
100
AcDbPolyline
 90
       18
 70
   128
 43
0.0
 10
602.9990154231
 20
518.5213406738
 10
603.0347872348
 20
518.7858229631
 10
603.3190209316
 20
519.3052284628
 10
603.8772153788
 20
519.7963022153
 10
604.6891959747
 20
520.2412955359
 10
605.725615625
 20
520.6241252064
 10
606.9490154231
 20
520.9309547652
 10
608.3151785129
 20
521.1506945925
 10
609.7747282008
 20
521.2754027185
 10
611.2749125581
 20
521.3005718666
 10
612.7615110137
 20
521.2252923581
 10
614.1807940259
 20
521.0522849907
 10
615.4814650087
 20
520.7878027013
 10
616.6165143242
 20
520.4414045691
 10
617.5449183325
 20
520.025610325
 10
618.233122094
 20
519.5554478564
 10
618.6562521315
 20
519.0479100599
 10
618.7990154231
 20
518.5213406738
  0
LWPOLYLINE
  5
2C0
330
1F
100
AcDbEntity
  8
0
  6
Continuous
 62
     8
370
    25
100
AcDbPolyline
 90
       18
 70
   128
 43
0.0
 10
602.9990154231
 20
651.7213406738
 10
603.0347872348
 20
651.9858229631
 10
603.3190209316
 20
652.5052284628
 10
603.8772153788
 20
652.9963022153
 10
604.6891959747
 20
653.4412955359
 10
605.725615625
 20
653.8241252064
 10
606.9490154231
 20
654.1309547652
 10
608.3151785129
 20
654.3506945925
 10
609.7747282008
 20
654.4754027185
 10
611.2749125581
 20
654.5005718666
 10
612.7615110137
 20
654.4252923581
 10
614.1807940259
 20
654.2522849907
 10
615.4814650087
 20
653.9878027013
 10
616.6165143242
 20
653.6414045691
 10
617.5449183325
 20
653.225610325
 10
618.233122094
 20
652.7554478564
 10
618.6562521315
 20
652.2479100599
 10
618.7990154231
 20
651.7213406738
  0
ARC
  5
2C1
330
1F
100
AcDbEntity
  8
0
  6
Continuous
 62
     8
370
    25
100
AcDbCircle
 10
610.8990154231
 20
471.1943287622
 30
0.0
 40
8.410472292019602
100
AcDbArc
 50
159.9351921799
 51
0.0
  0
LWPOLYLINE
  5
2C2
330
1F
100
AcDbEntity
  8
0
  6
Continuous
 62
     8
370
    25
100
AcDbPolyline
 90
        3
 70
   128
 43
0.0
 10
618.7990154231
 20
474.0798173127
 10
619.1743279653
 20
472.6960765785
 10
619.3094877152
 20
471.1943287622
  0
LINE
  5
2C3
330
1F
100
AcDbEntity
  8
0
  6
Continuous
 62
     8
370
    25
100
AcDbLine
 10
602.8397815758
 20
666.8199677351
 30
0.0
 11
602.9990154231
 21
666.654031922
 31
0.0
  0
ARC
  5
2C4
330
1F
100
AcDbEntity
  8
0
  6
Continuous
 62
     8
370
    25
100
AcDbCircle
 10
610.8990154231
 20
674.3943287622
 30
0.0
 40
11.05993649053895
100
AcDbArc
 50
315.5850271977
 51
223.2235523034
  0
ARC
  5
2C5
330
1F
100
AcDbEntity
  8
0
  6
Continuous
 62
     8
370
    25
100
AcDbCircle
 10
610.8990154231
 20
674.3943287622
 30
0.0
 40
11.30993649053903
100
AcDbArc
 50
314.3068486059
 51
225.6931513941
  0
LINE
  5
2C6
330
1F
100
AcDbEntity
  8
0
  6
Continuous
 62
     8
370
    25
100
AcDbLine
 10
618.7990154231
 20
662.0285924523
 30
0.0
 11
619.0562742818
 21
662.1352605712
 31
0.0
  0
ARC
  5
2C7
330
1F
100
AcDbEntity
  8
0
  6
Continuous
 62
     8
370
    25
100
AcDbCircle
 10
602.7415249163
 20
662.4792745368
 30
0.0
 40
0.3529502268457199
100
AcDbArc
 50
279.5385256861
 51
316.8476542185
  0
ARC
  5
2C8
330
1F
100
AcDbEntity
  8
0
  6
Continuous
 62
     8
370
    25
100
AcDbCircle
 10
610.8990154231
 20
674.3943287622
 30
0.0
 40
9.374999999999927
100
AcDbArc
 50
327.4227936768
 51
212.5772063232
  0
ELLIPSE
  5
2C9
330
1F
100
AcDbEntity
  8
0
  6
Continuous
 62
     8
370
    25
100
AcDbEllipse
 10
504.6379299757
 20
671.0550929843
 30
0.0
 11
1.499999304622747
 21
-0.08287263343868288
 31
0.0
210
0.0
220
0.0
230
1.0
 40
0.0174284859
 41
3.125102257569634
 42
3.628287019362163
  0
ELLIPSE
  5
2CA
330
1F
100
AcDbEntity
  8
0
  6
Continuous
 62
     8
370
    25
100
AcDbEllipse
 10
717.1601008706
 20
677.978985829
 30
0.0
 11
1.499999304622861
 21
-0.0828726334386829
 31
0.0
210
0.0
220
0.0
230
1.0
 40
0.0174284859
 41
6.266694911160005
 42
6.769879672951165
  0
ARC
  5
2CB
330
1F
100
AcDbEntity
  8
0
  6
Continuous
 62
     8
370
    25
100
AcDbCircle
 10
560.0990154231
 20
674.3943287622
 30
0.0
 40
24.80000000000007
100
AcDbArc
 50
270.0
 51
331.0614722598
  0
ARC
  5
2CC
330
1F
100
AcDbEntity
  8
0
  6
Continuous
 62
     8
370
    25
100
AcDbCircle
 10
560.0990154231
 20
674.3943287622
 30
0.0
 40
24.80000000000003
100
AcDbArc
 50
28.9385277402
 51
167.193623942
  0
ARC
  5
2CD
330
1F
100
AcDbEntity
  8
0
  6
Continuous
 62
     8
370
    25
100
AcDbCircle
 10
560.0990154231
 20
674.3943287622
 30
0.0
 40
24.80000000000007
100
AcDbArc
 50
192.7910557195
 51
270.0
  0
ARC
  5
2CE
330
1F
100
AcDbEntity
  8
0
  6
Continuous
 62
     8
370
    25
100
AcDbCircle
 10
661.6990154231
 20
674.3943287622
 30
0.0
 40
24.79999999999996
100
AcDbArc
 50
90.0
 51
151.0614722598
  0
ARC
  5
2CF
330
1F
100
AcDbEntity
  8
0
  6
Continuous
 62
     8
370
    25
100
AcDbCircle
 10
661.6990154231
 20
674.3943287622
 30
0.0
 40
24.80000000000001
100
AcDbArc
 50
208.9385277402
 51
347.809212943
  0
ARC
  5
2D0
330
1F
100
AcDbEntity
  8
0
  6
Continuous
 62
     8
370
    25
100
AcDbCircle
 10
661.6990154231
 20
674.3943287622
 30
0.0
 40
24.79999999999995
100
AcDbArc
 50
13.3992178388
 51
90.0
  0
SPLINE
  5
2D1
330
1F
100
AcDbEntity
  8
0
  6
Continuous
 62
     8
370
    25
100
AcDbSpline
210
0.0
220
0.0
230
1.0
 70
     8
 71
     3
 72
    16
 73
    12
 74
     0
 42
0.00000001
 43
0.00000001
 40
0.0
 40
0.0
 40
0.0
 40
0.0
 40
0.0961490818557531
 40
0.1898118314713997
 40
0.2837145723291247
 40
0.2938991301868912
 40
0.4289456490880497
 40
0.5643578936429817
 40
0.7523444602198318
 40
0.9406047997645345
 40
1.0
 40
1.0
 40
1.0
 40
1.0
 10
589.1186834522699
 20
674.3943287622094
 30
0.0
 10
589.1531075929089
 20
674.9248952765466
 30
0.0
 10
589.2210656956321
 20
675.9723083132603
 30
0.0
 10
589.7339525566487
 20
677.437178030516
 30
0.0
 10
590.2333521671466
 20
678.361130479413
 30
0.0
 10
590.9227090460695
 20
679.4040830909753
 30
0.0
 10
591.8556525211026
 20
680.5169381729921
 30
0.0
 10
593.6021206758691
 20
682.0250577829033
 30
0.0
 10
595.7447242718405
 20
683.3417418468351
 30
0.0
 10
597.6502544484663
 20
684.2907557553104
 30
0.0
 10
598.7907456712925
 20
684.6050512103526
 30
0.0
 10
599.0642695529173
 20
684.680428653966
 30
0.0
  0
SPLINE
  5
2D2
330
1F
100
AcDbEntity
  8
0
  6
Continuous
 62
     8
370
    25
100
AcDbSpline
210
0.0
220
0.0
230
1.0
 70
     8
 71
     3
 72
    23
 73
    19
 74
     0
 42
0.00000001
 43
0.00000001
 40
0.0
 40
0.0
 40
0.0
 40
0.0
 40
0.0663050876258898
 40
0.1657369152244272
 40
0.2650027528484089
 40
0.3308173025614686
 40
0.3964532853818144
 40
0.4390874584461204
 40
0.4816233801190415
 40
0.5421797711122026
 40
0.565255117974719
 40
0.6352869044440423
 40
0.6508197841000374
 40
0.7068371613617669
 40
0.7630173269501147
 40
0.8451891951743773
 40
0.9279043381220381
 40
1.0
 40
1.0
 40
1.0
 40
1.0
 10
620.1691375840893
 20
685.4113649488547
 30
0.0
 10
620.843582215206
 20
685.266397994852
 30
0.0
 10
622.5294313205062
 20
684.9040370263926
 30
0.0
 10
625.1275217500636
 20
683.8354116152345
 30
0.0
 10
627.5998125954185
 20
682.4512161241586
 30
0.0
 10
629.575615408636
 20
680.8791762430677
 30
0.0
 10
630.8920440789507
 20
679.4305300789979
 30
0.0
 10
631.8161023761902
 20
677.9585307591267
 30
0.0
 10
632.4817258832231
 20
676.3739573383517
 30
0.0
 10
632.7223640478993
 20
674.8447073901123
 30
0.0
 10
632.6141699048316
 20
672.9959262365397
 30
0.0
 10
632.2293896072024
 20
671.7265154576154
 30
0.0
 10
631.4841812797506
 20
670.2604738374009
 30
0.0
 10
630.6473386733153
 20
669.0543779396833
 30
0.0
 10
629.131084555266
 20
667.5077172538796
 30
0.0
 10
627.1918153717857
 20
666.0778061357313
 30
0.0
 10
624.9602843591954
 20
664.875425532918
 30
0.0
 10
623.4305506209391
 20
664.3166641524695
 30
0.0
 10
622.7181509503808
 20
664.0564480028238
 30
0.0
  0
SPLINE
  5
2D3
330
1F
100
AcDbEntity
  8
0
  6
Continuous
 62
     8
370
    25
100
AcDbSpline
210
0.0
220
0.0
230
1.0
 70
     8
 71
     3
 72
    15
 73
    11
 74
     0
 42
0.00000001
 43
0.00000001
 40
0.0
 40
0.0
 40
0.0
 40
0.0
 40
0.1470288848990065
 40
0.3452979151469638
 40
0.5430476916551085
 40
0.6556896590240048
 40
0.7680052823731872
 40
0.8449728862964345
 40
0.9217575037793889
 40
1.0
 40
1.0
 40
1.0
 40
1.0
 10
601.6330349958449
 20
663.3728857087648
 30
0.0
 10
600.822804041395
 20
663.5585056133573
 30
0.0
 10
598.9199734543896
 20
663.994434690216
 30
0.0
 10
596.0500409440442
 20
665.2363913653082
 30
0.0
 10
593.5173350635849
 20
666.800702427343
 30
0.0
 10
591.6382272127552
 20
668.496891115036
 30
0.0
 10
590.4785396792394
 20
669.954273257915
 30
0.0
 10
589.6971003184415
 20
671.4401081803227
 30
0.0
 10
589.2143138311733
 20
672.8674290406674
 30
0.0
 10
589.150759467497
 20
673.8821812701685
 30
0.0
 10
589.1186834522699
 20
674.3943287622094
 30
0.0
  0
SPLINE
  5
2D4
330
1F
100
AcDbEntity
  8
0
  6
Continuous
 62
     8
370
    25
100
AcDbSpline
210
0.0
220
0.0
230
1.0
 70
     8
 71
     3
 72
    14
 73
    10
 74
     0
 42
0.00000001
 43
0.00000001
 40
0.0
 40
0.0
 40
0.0
 40
0.0
 40
0.0342039534643588
 40
0.1230364574731879
 40
0.2395833528993265
 40
0.3607502126039432
 40
0.5547275706320801
 40
0.7533466646765259
 40
1.0
 40
1.0
 40
1.0
 40
1.0
 10
576.1313849961483
 20
686.3690547207182
 30
0.0
 10
576.1146155692954
 20
686.3771544089865
 30
0.0
 10
576.0542935695012
 20
686.4062901330833
 30
0.0
 10
576.3075596331666
 20
686.2846392218815
 30
0.0
 10
576.8081253455348
 20
686.0351605866075
 30
0.0
 10
577.7691821211447
 20
685.5224156144757
 30
0.0
 10
579.1078515264193
 20
684.7096643568848
 30
0.0
 10
580.8872043717857
 20
683.4469760713413
 30
0.0
 10
582.0616923168606
 20
682.2547487975636
 30
0.0
 10
582.7122858632904
 20
681.5943287622194
 30
0.0
  0
SPLINE
  5
2D5
330
1F
100
AcDbEntity
  8
0
  6
Continuous
 62
     8
370
    25
100
AcDbSpline
210
0.0
220
0.0
230
1.0
 70
     8
 71
     3
 72
    14
 73
    10
 74
     0
 42
0.00000001
 43
0.00000001
 40
0.0
 40
0.0
 40
0.0
 40
0.0
 40
0.3072458347880715
 40
0.5118950360408621
 40
0.7157498528275082
 40
0.8814942379030453
 40
0.9340054576397199
 40
0.9968816731070624
 40
1.0
 40
1.0
 40
1.0
 40
1.0
 10
582.7122858632994
 20
667.1943287622094
 30
0.0
 10
581.8939776644756
 20
666.3832592707657
 30
0.0
 10
580.5306136819554
 20
665.0319555278181
 30
0.0
 10
578.537997527301
 20
663.7182056420012
 30
0.0
 10
577.123545637709
 20
662.9078000306962
 30
0.0
 10
576.3472959307023
 20
662.5239804156197
 30
0.0
 10
576.1316432917622
 20
662.4196134060919
 30
0.0
 10
576.0341564224705
 20
662.3724707622514
 30
0.0
 10
576.0834279772091
 20
662.3964860333863
 30
0.0
 10
576.0857561214572
 20
662.3976207857938
 30
0.0
  0
SPLINE
  5
2D6
330
1F
100
AcDbEntity
  8
0
  6
Continuous
 62
     8
370
    25
100
AcDbSpline
210
0.0
220
0.0
230
1.0
 70
     8
 71
     3
 72
    13
 73
     9
 74
     0
 42
0.00000001
 43
0.00000001
 40
0.0
 40
0.0
 40
0.0
 40
0.0
 40
0.2467771425948266
 40
0.441208777903342
 40
0.6395670344846437
 40
0.7566767530973444
 40
0.8773917063084575
 40
1.0
 40
1.0
 40
1.0
 40
1.0
 10
639.0857449829709
 20
681.5943287622093
 30
0.0
 10
639.7365761892913
 20
682.254944540889
 30
0.0
 10
640.9001865550756
 20
683.4360485820094
 30
0.0
 10
642.6759445579503
 20
684.7008360788021
 30
0.0
 10
644.0151462514184
 20
685.513954051063
 30
0.0
 10
644.9674588774959
 20
686.0242171253119
 30
0.0
 10
645.5923896254151
 20
686.3344147388319
 30
0.0
 10
645.6582732876311
 20
686.3653831347349
 30
0.0
 10
645.6914714448532
 20
686.3809878179222
 30
0.0
  0
SPLINE
  5
2D7
330
1F
100
AcDbEntity
  8
0
  6
Continuous
 62
     8
370
    25
100
AcDbSpline
210
0.0
220
0.0
230
1.0
 70
     8
 71
     3
 72
    14
 73
    10
 74
     0
 42
0.00000001
 43
0.00000001
 40
0.0
 40
0.0
 40
0.0
 40
0.0
 40
0.0032040422770988
 40
0.0660926208122207
 40
0.2407567708891152
 40
0.2840988854428992
 40
0.4898121214901737
 40
0.6963385799385899
 40
1.0
 40
1.0
 40
1.0
 40
1.0
 10
645.7120904591204
 20
662.3977106107288
 30
0.0
 10
645.7144798546457
 20
662.3965459932421
 30
0.0
 10
645.763768034629
 20
662.3725223957714
 30
0.0
 10
645.5857125303575
 20
662.4586186390432
 30
0.0
 10
645.2326418767691
 20
662.629582351585
 30
0.0
 10
644.3715051865506
 20
663.0806199505492
 30
0.0
 10
643.2451239109004
 20
663.7271675369905
 30
0.0
 10
641.2520370572647
 20
665.0442321478015
 30
0.0
 10
639.8940264777178
 20
666.3920900770541
 30
0.0
 10
639.0857449829709
 20
667.1943287622094
 30
0.0
  0
ENDSEC
  0
SECTION
  2
OBJECTS
  0
DICTIONARY
  5
C
330
0
100
AcDbDictionary
281
     1
  3
ACAD_GROUP
350
D
  3
ACAD_LAYOUT
350
1A
  3
ACAD_MLINESTYLE
350
17
  3
ACAD_PLOTSETTINGS
350
19
  3
ACAD_PLOTSTYLENAME
350
E
  3
ACAD_SCALELIST
350
47
  3
DWGPROPS
350
2D8
  0
DICTIONARY
  5
D
102
{ACAD_REACTORS
330
C
102
}
330
C
100
AcDbDictionary
281
     1
  0
DICTIONARY
  5
1A
102
{ACAD_REACTORS
330
C
102
}
330
C
100
AcDbDictionary
281
     1
  3
Layout1
350
1E
  3
Layout2
350
26
  3
Model
350
22
  0
DICTIONARY
  5
17
102
{ACAD_REACTORS
330
C
102
}
330
C
100
AcDbDictionary
281
     1
  3
Standard
350
18
  0
DICTIONARY
  5
19
102
{ACAD_REACTORS
330
C
102
}
330
C
100
AcDbDictionary
281
     1
  0
ACDBDICTIONARYWDFLT
  5
E
102
{ACAD_REACTORS
330
C
102
}
330
C
100
AcDbDictionary
281
     1
  3
Normal
350
F
100
AcDbDictionaryWithDefault
340
F
  0
DICTIONARY
  5
47
102
{ACAD_REACTORS
330
C
102
}
330
C
100
AcDbDictionary
281
     1
  3
A0
350
48
  3
A1
350
49
  3
A2
350
4A
  3
A3
350
4B
  3
A4
350
4C
  3
A5
350
4D
  3
A6
350
4E
  3
A7
350
4F
  3
A8
350
50
  3
A9
350
51
  3
B0
350
52
  3
B1
350
53
  3
B2
350
54
  3
B3
350
55
  3
B4
350
56
  3
B5
350
57
  3
B6
350
58
  3
B7
350
59
  3
B8
350
5A
  3
B9
350
5B
  3
C0
350
5C
  3
C1
350
5D
  3
C2
350
5E
  3
C3
350
5F
  3
C4
350
60
  3
C5
350
61
  3
C6
350
62
  3
C7
350
63
  3
C8
350
64
  3
C9
350
65
  3
D0
350
66
  3
D1
350
67
  3
D2
350
68
  0
XRECORD
  5
2D8
102
{ACAD_REACTORS
330
C
102
}
330
C
100
AcDbXrecord
280
     1
  1
DWGPROPS COOKIE
  2

  3

  4

  6

  7

  8
designer5
  9

300
=
301
=
302
=
303
=
304
=
305
=
306
=
307
=
308
=
309
=
 40
0.0
 41
2460383.21836015
 42
2460383.218360695
  1

 90
        0
  0
LAYOUT
  5
1E
102
{ACAD_REACTORS
330
1A
102
}
330
1A
100
AcDbPlotSettings
  1

  2
none_device
  4

  6

 40
0.0
 41
0.0
 42
0.0
 43
0.0
 44
0.0
 45
0.0
 46
0.0
 47
0.0
 48
0.0
 49
0.0
140
0.0
141
0.0
142
1.0
143
1.0
 70
   688
 72
     1
 73
     0
 74
     5
  7

 75
    16
147
1.0
148
0.0
149
0.0
100
AcDbLayout
  1
Layout1
 70
     1
 71
     1
 10
0.0
 20
0.0
 11
420.0
 21
297.0
 12
0.0
 22
0.0
 32
0.0
 14
1.0000000000E+20
 24
1.0000000000E+20
 34
1.0000000000E+20
 15
-1.0000000000E+20
 25
-1.0000000000E+20
 35
-1.0000000000E+20
146
0.0
 13
0.0
 23
0.0
 33
0.0
 16
1.0
 26
0.0
 36
0.0
 17
0.0
 27
1.0
 37
0.0
 76
     0
330
1B
  0
LAYOUT
  5
26
102
{ACAD_REACTORS
330
1A
102
}
330
1A
100
AcDbPlotSettings
  1

  2
none_device
  4

  6

 40
0.0
 41
0.0
 42
0.0
 43
0.0
 44
0.0
 45
0.0
 46
0.0
 47
0.0
 48
0.0
 49
0.0
140
0.0
141
0.0
142
1.0
143
1.0
 70
   688
 72
     1
 73
     0
 74
     5
  7

 75
    16
147
1.0
148
0.0
149
0.0
100
AcDbLayout
  1
Layout2
 70
     1
 71
     2
 10
0.0
 20
0.0
 11
0.0
 21
0.0
 12
0.0
 22
0.0
 32
0.0
 14
0.0
 24
0.0
 34
0.0
 15
0.0
 25
0.0
 35
0.0
146
0.0
 13
0.0
 23
0.0
 33
0.0
 16
1.0
 26
0.0
 36
0.0
 17
0.0
 27
1.0
 37
0.0
 76
     0
330
23
  0
LAYOUT
  5
22
102
{ACAD_REACTORS
330
1A
102
}
330
1A
100
AcDbPlotSettings
  1

  2
none_device
  4
Letter_(8.50_x_11.00_Inches)
  6

 40
6.35
 41
6.35
 42
6.35000508
 43
6.35000508
 44
215.9
 45
279.4
 46
0.0
 47
0.0
 48
0.0
 49
0.0
140
0.0
141
0.0
142
1.0
143
1.0
 70
  1712
 72
     1
 73
     0
 74
     0
  7

 75
     0
147
1.0
148
0.0
149
0.0
100
AcDbLayout
  1
Model
 70
     1
 71
     0
 10
0.0
 20
0.0
 11
1189.0
 21
841.0
 12
0.0
 22
0.0
 32
0.0
 14
0.0
 24
0.0
 34
0.0
 15
1189.0
 25
841.0
 35
0.0
146
0.0
 13
0.0
 23
0.0
 33
0.0
 16
1.0
 26
0.0
 36
0.0
 17
0.0
 27
1.0
 37
0.0
 76
     0
330
1F
331
29
  0
MLINESTYLE
  5
18
102
{ACAD_REACTORS
330
17
102
}
330
17
100
AcDbMlineStyle
  2
Standard
 70
     0
  3

 62
   256
 51
90.0
 52
90.0
 71
     2
 49
0.5
 62
   256
  6
BYLAYER
 49
-0.5
 62
   256
  6
BYLAYER
  0
ACDBPLACEHOLDER
  5
F
102
{ACAD_REACTORS
330
E
102
}
330
E
  0
SCALE
  5
48
102
{ACAD_REACTORS
330
47
102
}
330
47
100
AcDbScale
 70
     0
300
1:1
140
1.0
141
1.0
290
     1
  0
SCALE
  5
49
102
{ACAD_REACTORS
330
47
102
}
330
47
100
AcDbScale
 70
     0
300
1:2
140
1.0
141
2.0
290
     0
  0
SCALE
  5
4A
102
{ACAD_REACTORS
330
47
102
}
330
47
100
AcDbScale
 70
     0
300
1:4
140
1.0
141
4.0
290
     0
  0
SCALE
  5
4B
102
{ACAD_REACTORS
330
47
102
}
330
47
100
AcDbScale
 70
     0
300
1:5
140
1.0
141
5.0
290
     0
  0
SCALE
  5
4C
102
{ACAD_REACTORS
330
47
102
}
330
47
100
AcDbScale
 70
     0
300
1:8
140
1.0
141
8.0
290
     0
  0
SCALE
  5
4D
102
{ACAD_REACTORS
330
47
102
}
330
47
100
AcDbScale
 70
     0
300
1:10
140
1.0
141
10.0
290
     0
  0
SCALE
  5
4E
102
{ACAD_REACTORS
330
47
102
}
330
47
100
AcDbScale
 70
     0
300
1:16
140
1.0
141
16.0
290
     0
  0
SCALE
  5
4F
102
{ACAD_REACTORS
330
47
102
}
330
47
100
AcDbScale
 70
     0
300
1:20
140
1.0
141
20.0
290
     0
  0
SCALE
  5
50
102
{ACAD_REACTORS
330
47
102
}
330
47
100
AcDbScale
 70
     0
300
1:30
140
1.0
141
30.0
290
     0
  0
SCALE
  5
51
102
{ACAD_REACTORS
330
47
102
}
330
47
100
AcDbScale
 70
     0
300
1:40
140
1.0
141
40.0
290
     0
  0
SCALE
  5
52
102
{ACAD_REACTORS
330
47
102
}
330
47
100
AcDbScale
 70
     0
300
1:50
140
1.0
141
50.0
290
     0
  0
SCALE
  5
53
102
{ACAD_REACTORS
330
47
102
}
330
47
100
AcDbScale
 70
     0
300
1:100
140
1.0
141
100.0
290
     0
  0
SCALE
  5
54
102
{ACAD_REACTORS
330
47
102
}
330
47
100
AcDbScale
 70
     0
300
2:1
140
2.0
141
1.0
290
     0
  0
SCALE
  5
55
102
{ACAD_REACTORS
330
47
102
}
330
47
100
AcDbScale
 70
     0
300
4:1
140
4.0
141
1.0
290
     0
  0
SCALE
  5
56
102
{ACAD_REACTORS
330
47
102
}
330
47
100
AcDbScale
 70
     0
300
8:1
140
8.0
141
1.0
290
     0
  0
SCALE
  5
57
102
{ACAD_REACTORS
330
47
102
}
330
47
100
AcDbScale
 70
     0
300
10:1
140
10.0
141
1.0
290
     0
  0
SCALE
  5
58
102
{ACAD_REACTORS
330
47
102
}
330
47
100
AcDbScale
 70
     0
300
100:1
140
100.0
141
1.0
290
     0
  0
SCALE
  5
59
102
{ACAD_REACTORS
330
47
102
}
330
47
100
AcDbScale
 70
     0
300
1/128" = 1'-0"
140
0.0078125
141
12.0
290
     0
  0
SCALE
  5
5A
102
{ACAD_REACTORS
330
47
102
}
330
47
100
AcDbScale
 70
     0
300
1/64" = 1'-0"
140
0.015625
141
12.0
290
     0
  0
SCALE
  5
5B
102
{ACAD_REACTORS
330
47
102
}
330
47
100
AcDbScale
 70
     0
300
1/32" = 1'-0"
140
0.03125
141
12.0
290
     0
  0
SCALE
  5
5C
102
{ACAD_REACTORS
330
47
102
}
330
47
100
AcDbScale
 70
     0
300
1/16" = 1'-0"
140
0.0625
141
12.0
290
     0
  0
SCALE
  5
5D
102
{ACAD_REACTORS
330
47
102
}
330
47
100
AcDbScale
 70
     0
300
3/32" = 1'-0"
140
0.09375
141
12.0
290
     0
  0
SCALE
  5
5E
102
{ACAD_REACTORS
330
47
102
}
330
47
100
AcDbScale
 70
     0
300
1/8" = 1'-0"
140
0.125
141
12.0
290
     0
  0
SCALE
  5
5F
102
{ACAD_REACTORS
330
47
102
}
330
47
100
AcDbScale
 70
     0
300
3/16" = 1'-0"
140
0.1875
141
12.0
290
     0
  0
SCALE
  5
60
102
{ACAD_REACTORS
330
47
102
}
330
47
100
AcDbScale
 70
     0
300
1/4" = 1'-0"
140
0.25
141
12.0
290
     0
  0
SCALE
  5
61
102
{ACAD_REACTORS
330
47
102
}
330
47
100
AcDbScale
 70
     0
300
3/8" = 1'-0"
140
0.375
141
12.0
290
     0
  0
SCALE
  5
62
102
{ACAD_REACTORS
330
47
102
}
330
47
100
AcDbScale
 70
     0
300
1/2" = 1'-0"
140
0.5
141
12.0
290
     0
  0
SCALE
  5
63
102
{ACAD_REACTORS
330
47
102
}
330
47
100
AcDbScale
 70
     0
300
3/4" = 1'-0"
140
0.75
141
12.0
290
     0
  0
SCALE
  5
64
102
{ACAD_REACTORS
330
47
102
}
330
47
100
AcDbScale
 70
     0
300
1" = 1'-0"
140
1.0
141
12.0
290
     0
  0
SCALE
  5
65
102
{ACAD_REACTORS
330
47
102
}
330
47
100
AcDbScale
 70
     0
300
1-1/2" = 1'-0"
140
1.5
141
12.0
290
     0
  0
SCALE
  5
66
102
{ACAD_REACTORS
330
47
102
}
330
47
100
AcDbScale
 70
     0
300
3" = 1'-0"
140
3.0
141
12.0
290
     0
  0
SCALE
  5
67
102
{ACAD_REACTORS
330
47
102
}
330
47
100
AcDbScale
 70
     0
300
6" = 1'-0"
140
6.0
141
12.0
290
     0
  0
SCALE
  5
68
102
{ACAD_REACTORS
330
47
102
}
330
47
100
AcDbScale
 70
     0
300
1'-0" = 1'-0"
140
12.0
141
12.0
290
     0
  0
ENDSEC
  0
EOF
