  0
SECTION
  2
HEADER
  9
$ACADVER
  1
AC1015
  9
$ACADMAINTVER
 70
     6
  9
$DWGCODEPAGE
  3
ANSI_1252
  9
$INSBASE
 10
0.0
 20
0.0
 30
0.0
  9
$EXTMIN
 10
0.0
 20
0.0
 30
0.0
  9
$EXTMAX
 10
1189.0
 20
841.0
 30
0.0
  9
$LIMMIN
 10
0.0
 20
0.0
  9
$LIMMAX
 10
1189.0
 20
841.0
  9
$ORTHOMODE
 70
     0
  9
$REGENMODE
 70
     1
  9
$FILLMODE
 70
     1
  9
$QTEXTMODE
 70
     0
  9
$MIRRTEXT
 70
     1
  9
$LTSCALE
 40
1.0
  9
$ATTMODE
 70
     1
  9
$TEXTSIZE
 40
3.5
  9
$TRACEWID
 40
1.0
  9
$TEXTSTYLE
  7
Standard
  9
$CLAYER
  8
0
  9
$CELTYPE
  6
ByLayer
  9
$CECOLOR
 62
   256
  9
$CELTSCALE
 40
1.0
  9
$DISPSILH
 70
     0
  9
$DIMSCALE
 40
1.0
  9
$DIMASZ
 40
3.302
  9
$DIMEXO
 40
1.0
  9
$DIMDLI
 40
3.75
  9
$DIMRND
 40
0.0
  9
$DIMDLE
 40
0.0
  9
$DIMEXE
 40
1.0
  9
$DIMTP
 40
0.0
  9
$DIMTM
 40
0.0
  9
$DIMTXT
 40
3.5
  9
$DIMCEN
 40
2.5
  9
$DIMTSZ
 40
0.0
  9
$DIMTOL
 70
     0
  9
$DIMLIM
 70
     0
  9
$DIMTIH
 70
     1
  9
$DIMTOH
 70
     1
  9
$DIMSE1
 70
     0
  9
$DIMSE2
 70
     0
  9
$DIMTAD
 70
     1
  9
$DIMZIN
 70
     1
  9
$DIMBLK
  1

  9
$DIMASO
 70
     1
  9
$DIMSHO
 70
     1
  9
$DIMPOST
  1

  9
$DIMAPOST
  1

  9
$DIMALT
 70
     0
  9
$DIMALTD
 70
     3
  9
$DIMALTF
 40
0.0393700787
  9
$DIMLFAC
 40
1.0
  9
$DIMTOFL
 70
     1
  9
$DIMTVP
 40
0.0
  9
$DIMTIX
 70
     0
  9
$DIMSOXD
 70
     0
  9
$DIMSAH
 70
     0
  9
$DIMBLK1
  1

  9
$DIMBLK2
  1

  9
$DIMSTYLE
  2
ISO-25
  9
$DIMCLRD
 70
     0
  9
$DIMCLRE
 70
     0
  9
$DIMCLRT
 70
     0
  9
$DIMTFAC
 40
1.0
  9
$DIMGAP
 40
1.524
  9
$DIMJUST
 70
     0
  9
$DIMSD1
 70
     0
  9
$DIMSD2
 70
     0
  9
$DIMTOLJ
 70
     0
  9
$DIMTZIN
 70
     1
  9
$DIMALTZ
 70
     0
  9
$DIMALTTZ
 70
     0
  9
$DIMUPT
 70
     0
  9
$DIMDEC
 70
     2
  9
$DIMTDEC
 70
     2
  9
$DIMALTU
 70
     2
  9
$DIMALTTD
 70
     3
  9
$DIMTXSTY
  7
Standard
  9
$DIMAUNIT
 70
     0
  9
$DIMADEC
 70
     2
  9
$DIMALTRND
 40
0.0
  9
$DIMAZIN
 70
     0
  9
$DIMDSEP
 70
    44
  9
$DIMATFIT
 70
     3
  9
$DIMFRAC
 70
     0
  9
$DIMLDRBLK
  1

  9
$DIMLUNIT
 70
     2
  9
$DIMLWD
 70
    -2
  9
$DIMLWE
 70
    -2
  9
$DIMTMOVE
 70
     0
  9
$LUNITS
 70
     2
  9
$LUPREC
 70
     2
  9
$SKETCHINC
 40
1.0
  9
$FILLETRAD
 40
10.0
  9
$AUNITS
 70
     0
  9
$AUPREC
 70
     2
  9
$MENU
  1
.
  9
$ELEVATION
 40
0.0
  9
$PELEVATION
 40
0.0
  9
$THICKNESS
 40
0.0
  9
$LIMCHECK
 70
     0
  9
$CHAMFERA
 40
0.0
  9
$CHAMFERB
 40
0.0
  9
$CHAMFERC
 40
0.0
  9
$CHAMFERD
 40
0.0
  9
$SKPOLY
 70
     0
  9
$TDCREATE
 40
2460383.438129688
  9
$TDUCREATE
 40
2460383.208963021
  9
$TDUPDATE
 40
2460383.438130232
  9
$TDUUPDATE
 40
2460383.208963565
  9
$TDINDWG
 40
0.0000000116
  9
$TDUSRTIMER
 40
0.0000000116
  9
$USRTIMER
 70
     1
  9
$ANGBASE
 50
0.0
  9
$ANGDIR
 70
     0
  9
$PDMODE
 70
     0
  9
$PDSIZE
 40
-1.0
  9
$PLINEWID
 40
0.0
  9
$SPLFRAME
 70
     0
  9
$SPLINETYPE
 70
     6
  9
$SPLINESEGS
 70
     8
  9
$HANDSEED
  5
2D8
  9
$SURFTAB1
 70
     6
  9
$SURFTAB2
 70
     6
  9
$SURFTYPE
 70
     6
  9
$SURFU
 70
     6
  9
$SURFV
 70
     6
  9
$UCSBASE
  2

  9
$UCSNAME
  2

  9
$UCSORG
 10
0.0
 20
0.0
 30
0.0
  9
$UCSXDIR
 10
1.0
 20
0.0
 30
0.0
  9
$UCSYDIR
 10
0.0
 20
1.0
 30
0.0
  9
$UCSORTHOREF
  2

  9
$UCSORTHOVIEW
 70
     0
  9
$UCSORGTOP
 10
0.0
 20
0.0
 30
0.0
  9
$UCSORGBOTTOM
 10
0.0
 20
0.0
 30
0.0
  9
$UCSORGLEFT
 10
0.0
 20
0.0
 30
0.0
  9
$UCSORGRIGHT
 10
0.0
 20
0.0
 30
0.0
  9
$UCSORGFRONT
 10
0.0
 20
0.0
 30
0.0
  9
$UCSORGBACK
 10
0.0
 20
0.0
 30
0.0
  9
$PUCSBASE
  2

  9
$PUCSNAME
  2

  9
$PUCSORG
 10
0.0
 20
0.0
 30
0.0
  9
$PUCSXDIR
 10
1.0
 20
0.0
 30
0.0
  9
$PUCSYDIR
 10
0.0
 20
1.0
 30
0.0
  9
$PUCSORTHOREF
  2

  9
$PUCSORTHOVIEW
 70
     0
  9
$PUCSORGTOP
 10
0.0
 20
0.0
 30
0.0
  9
$PUCSORGBOTTOM
 10
0.0
 20
0.0
 30
0.0
  9
$PUCSORGLEFT
 10
0.0
 20
0.0
 30
0.0
  9
$PUCSORGRIGHT
 10
0.0
 20
0.0
 30
0.0
  9
$PUCSORGFRONT
 10
0.0
 20
0.0
 30
0.0
  9
$PUCSORGBACK
 10
0.0
 20
0.0
 30
0.0
  9
$USERI1
 70
     0
  9
$USERI2
 70
     0
  9
$USERI3
 70
     0
  9
$USERI4
 70
     0
  9
$USERI5
 70
     0
  9
$USERR1
 40
0.0
  9
$USERR2
 40
0.0
  9
$USERR3
 40
0.0
  9
$USERR4
 40
0.0
  9
$USERR5
 40
0.0
  9
$WORLDVIEW
 70
     1
  9
$SHADEDGE
 70
     3
  9
$SHADEDIF
 70
    70
  9
$TILEMODE
 70
     1
  9
$MAXACTVP
 70
    64
  9
$PINSBASE
 10
0.0
 20
0.0
 30
0.0
  9
$PLIMCHECK
 70
     0
  9
$PEXTMIN
 10
1.0000000000E+20
 20
1.0000000000E+20
 30
1.0000000000E+20
  9
$PEXTMAX
 10
-1.0000000000E+20
 20
-1.0000000000E+20
 30
-1.0000000000E+20
  9
$PLIMMIN
 10
0.0
 20
0.0
  9
$PLIMMAX
 10
420.0
 20
297.0
  9
$UNITMODE
 70
     0
  9
$VISRETAIN
 70
     1
  9
$PLINEGEN
 70
     0
  9
$PSLTSCALE
 70
     1
  9
$TREEDEPTH
 70
  3020
  9
$CMLSTYLE
  2
Standard
  9
$CMLJUST
 70
     0
  9
$CMLSCALE
 40
20.0
  9
$PROXYGRAPHICS
 70
     1
  9
$MEASUREMENT
 70
     1
  9
$CELWEIGHT
370
    -1
  9
$ENDCAPS
280
     0
  9
$JOINSTYLE
280
     0
  9
$LWDISPLAY
290
     1
  9
$INSUNITS
 70
     4
  9
$HYPERLINKBASE
  1

  9
$STYLESHEET
  1

  9
$XEDIT
290
     1
  9
$CEPSNTYPE
380
     0
  9
$PSTYLEMODE
290
     1
  9
$FINGERPRINTGUID
  2
{458caea6-d067-45b8-b6f8-cfacfd349721}
  9
$VERSIONGUID
  2
{FAEB1C32-E019-11D5-929B-00C0DF256EC4}
  9
$EXTNAMES
290
     1
  9
$PSVPSCALE
 40
0.0
  9
$OLESTARTUP
290
     0
  0
ENDSEC
  0
SECTION
  2
CLASSES
  0
CLASS
  1
ACDBDICTIONARYWDFLT
  2
AcDbDictionaryWithDefault
  3
ObjectDBX Classes
 90
        0
280
     0
281
     0
  0
CLASS
  1
VISUALSTYLE
  2
AcDbVisualStyle
  3
ObjectDBX Classes
 90
     4095
280
     0
281
     0
  0
CLASS
  1
MATERIAL
  2
AcDbMaterial
  3
ObjectDBX Classes
 90
     1153
280
     0
281
     0
  0
CLASS
  1
SCALE
  2
AcDbScale
  3
ObjectDBX Classes
 90
     1153
280
     0
281
     0
  0
CLASS
  1
TABLESTYLE
  2
AcDbTableStyle
  3
ObjectDBX Classes
 90
     4095
280
     0
281
     0
  0
CLASS
  1
MLEADERSTYLE
  2
AcDbMLeaderStyle
  3
ACDB_MLEADERSTYLE_CLASS
 90
     4095
280
     0
281
     0
  0
CLASS
  1
SUN
  2
AcDbSun
  3
SCENEOE
 90
     1153
280
     0
281
     0
  0
CLASS
  1
ACDBPLACEHOLDER
  2
AcDbPlaceHolder
  3
ObjectDBX Classes
 90
        0
280
     0
281
     0
  0
CLASS
  1
LAYOUT
  2
AcDbLayout
  3
ObjectDBX Classes
 90
        0
280
     0
281
     0
  0
ENDSEC
  0
SECTION
  2
TABLES
  0
TABLE
  2
VPORT
  5
8
330
0
100
AcDbSymbolTable
 70
     1
  0
VPORT
  5
29
330
8
100
AcDbSymbolTableRecord
100
AcDbViewportTableRecord
  2
*Active
 70
     0
 10
0.0
 20
0.0
 11
1.0
 21
1.0
 12
594.5
 22
420.5
 13
0.0
 23
0.0
 14
10.0
 24
10.0
 15
10.0
 25
10.0
 16
0.0
 26
0.0
 36
1.0
 17
0.0
 27
0.0
 37
0.0
 40
841.0
 41
1.4137931034
 42
50.0
 43
0.0
 44
0.0
 50
0.0
 51
0.0
 71
     0
 72
  2000
 73
     1
 74
     3
 75
     0
 76
     0
 77
     0
 78
     0
281
     0
 65
     1
110
0.0
120
0.0
130
0.0
111
1.0
121
0.0
131
0.0
112
0.0
122
1.0
132
0.0
 79
     0
146
0.0
  0
ENDTAB
  0
TABLE
  2
LTYPE
  5
5
330
0
100
AcDbSymbolTable
 70
     6
  0
LTYPE
  5
14
330
5
100
AcDbSymbolTableRecord
100
AcDbLinetypeTableRecord
  2
ByBlock
 70
     0
  3

 72
    65
 73
     0
 40
0.0
  0
LTYPE
  5
15
330
5
100
AcDbSymbolTableRecord
100
AcDbLinetypeTableRecord
  2
ByLayer
 70
     0
  3

 72
    65
 73
     0
 40
0.0
  0
LTYPE
  5
16
330
5
100
AcDbSymbolTableRecord
100
AcDbLinetypeTableRecord
  2
Continuous
 70
     0
  3
Solid line
 72
    65
 73
     0
 40
0.0
  0
LTYPE
  5
6E
330
5
100
AcDbSymbolTableRecord
100
AcDbLinetypeTableRecord
  2
HIDDEN
 70
     0
  3
Hidden __ __ __ __ __ __ __ __ __ __ __ __ __ __
 72
    65
 73
     2
 40
1.905
 49
1.27
 74
     0
 49
-0.635
 74
     0
  0
LTYPE
  5
6F
330
5
100
AcDbSymbolTableRecord
100
AcDbLinetypeTableRecord
  2
PHANTOM
 70
     0
  3
Phantom ______  __  __  ______  __  __  ______
 72
    65
 73
     6
 40
12.7
 49
6.35
 74
     0
 49
-1.27
 74
     0
 49
1.27
 74
     0
 49
-1.27
 74
     0
 49
1.27
 74
     0
 49
-1.27
 74
     0
  0
LTYPE
  5
70
330
5
100
AcDbSymbolTableRecord
100
AcDbLinetypeTableRecord
  2
CENTER
 70
     0
  3
Center ____ _ ____ _ ____ _ ____ _ ____ _ ____
 72
    65
 73
     4
 40
10.16
 49
6.35
 74
     0
 49
-1.27
 74
     0
 49
1.27
 74
     0
 49
-1.27
 74
     0
  0
LTYPE
  5
71
330
5
100
AcDbSymbolTableRecord
100
AcDbLinetypeTableRecord
  2
CENTERX2
 70
     0
  3
Center (2x) ________  __  ________  __  _____
 72
    65
 73
     4
 40
20.32
 49
12.7
 74
     0
 49
-2.54
 74
     0
 49
2.54
 74
     0
 49
-2.54
 74
     0
  0
LTYPE
  5
72
330
5
100
AcDbSymbolTableRecord
100
AcDbLinetypeTableRecord
  2
DOT2
 70
     0
  3
Dot (.5x) ........................................
 72
    65
 73
     2
 40
0.635
 49
0.0
 74
     0
 49
-0.635
 74
     0
  0
ENDTAB
  0
TABLE
  2
LAYER
  5
2
330
0
100
AcDbSymbolTable
 70
     1
  0
LAYER
  5
10
330
2
100
AcDbSymbolTableRecord
100
AcDbLayerTableRecord
  2
0
 70
     0
 62
     7
  6
Continuous
370
    -3
390
F
  0
ENDTAB
  0
TABLE
  2
STYLE
  5
3
330
0
100
AcDbSymbolTable
 70
     1
  0
STYLE
  5
11
330
3
100
AcDbSymbolTableRecord
100
AcDbTextStyleTableRecord
  2
Standard
 70
     0
 40
0.0
 41
1.0
 50
0.0
 71
     0
 42
3.5
  3
txt
  4

  0
ENDTAB
  0
TABLE
  2
VIEW
  5
6
330
0
100
AcDbSymbolTable
 70
     0
  0
ENDTAB
  0
TABLE
  2
UCS
  5
7
330
0
100
AcDbSymbolTable
 70
     0
  0
ENDTAB
  0
TABLE
  2
APPID
  5
9
330
0
100
AcDbSymbolTable
 70
     1
  0
APPID
  5
12
330
9
100
AcDbSymbolTableRecord
100
AcDbRegAppTableRecord
  2
ACAD
 70
     0
  0
ENDTAB
  0
TABLE
  2
DIMSTYLE
  5
A
330
0
100
AcDbSymbolTable
 70
     1
100
AcDbDimStyleTable
  0
DIMSTYLE
105
27
330
A
100
AcDbSymbolTableRecord
100
AcDbDimStyleTableRecord
  2
ISO-25
 70
     0
 41
2.5
 42
0.625
 43
3.75
 44
1.25
 73
     0
 74
     0
 77
     1
 78
     8
140
2.5
141
2.5
143
0.0393700787
147
0.625
171
     3
172
     1
178
     0
271
     2
272
     2
274
     3
278
    44
283
     0
284
     8
340
11
  0
ENDTAB
  0
TABLE
  2
BLOCK_RECORD
  5
1
330
0
100
AcDbSymbolTable
 70
     1
  0
BLOCK_RECORD
  5
1F
330
1
100
AcDbSymbolTableRecord
100
AcDbBlockTableRecord
  2
*Model_Space
340
22
  0
BLOCK_RECORD
  5
1B
330
1
100
AcDbSymbolTableRecord
100
AcDbBlockTableRecord
  2
*Paper_Space
340
1E
  0
BLOCK_RECORD
  5
23
330
1
100
AcDbSymbolTableRecord
100
AcDbBlockTableRecord
  2
*Paper_Space0
340
26
  0
ENDTAB
  0
ENDSEC
  0
SECTION
  2
BLOCKS
  0
BLOCK
  5
20
330
1F
100
AcDbEntity
  8
0
100
AcDbBlockBegin
  2
*Model_Space
 70
     0
 10
0.0
 20
0.0
 30
0.0
  3
*Model_Space
  1

  0
ENDBLK
  5
21
330
1F
100
AcDbEntity
  8
0
100
AcDbBlockEnd
  0
BLOCK
  5
1C
330
1B
100
AcDbEntity
 67
     1
  8
0
100
AcDbBlockBegin
  2
*Paper_Space
 70
     0
 10
0.0
 20
0.0
 30
0.0
  3
*Paper_Space
  1

  0
ENDBLK
  5
1D
330
1B
100
AcDbEntity
 67
     1
  8
0
100
AcDbBlockEnd
  0
BLOCK
  5
24
330
23
100
AcDbEntity
  8
0
100
AcDbBlockBegin
  2
*Paper_Space0
 70
     0
 10
0.0
 20
0.0
 30
0.0
  3
*Paper_Space0
  1

  0
ENDBLK
  5
25
330
23
100
AcDbEntity
  8
0
100
AcDbBlockEnd
  0
ENDSEC
  0
SECTION
  2
ENTITIES
  0
LINE
  5
73
330
1F
100
AcDbEntity
  8
0
  6
Continuous
 62
     7
370
    25
100
AcDbLine
 10
604.8556659039
 20
338.7420204821
 30
0.0
 11
604.8556659039
 21
291.4150085705
 31
0.0
  0
LINE
  5
74
330
1F
100
AcDbEntity
  8
0
  6
Continuous
 62
     7
370
    25
100
AcDbLine
 10
620.6556659039
 20
291.4150085705
 30
0.0
 11
620.6556659039
 21
338.7420204821
 31
0.0
  0
LINE
  5
75
330
1F
100
AcDbEntity
  8
0
  6
Continuous
 62
     7
370
    25
100
AcDbLine
 10
620.6556659039
 20
338.7420204821
 30
0.0
 11
620.6556659039
 21
573.7420204821
 31
0.0
  0
LINE
  5
76
330
1F
100
AcDbEntity
  8
0
  6
Continuous
 62
     7
370
    25
100
AcDbLine
 10
604.8556659039
 20
573.7420204821
 30
0.0
 11
604.8556659039
 21
338.7420204821
 31
0.0
  0
LINE
  5
77
330
1F
100
AcDbEntity
  8
0
  6
Continuous
 62
     7
370
    25
100
AcDbLine
 10
604.8556659039
 20
596.4150085705
 30
0.0
 11
604.8556659039
 21
573.7420204821
 31
0.0
  0
LINE
  5
78
330
1F
100
AcDbEntity
  8
0
  6
Continuous
 62
     7
370
    25
100
AcDbLine
 10
620.6556659039
 20
573.7420204821
 30
0.0
 11
620.6556659039
 21
596.4150085705
 31
0.0
  0
SPLINE
  5
79
330
1F
100
AcDbEntity
  8
0
  6
Continuous
 62
     7
370
    25
100
AcDbSpline
210
0.0
220
0.0
230
1.0
 70
     8
 71
     3
 72
    11
 73
     7
 74
     0
 42
0.00000001
 43
0.00000001
 40
0.0
 40
0.0
 40
0.0
 40
0.0
 40
0.2554898599518194
 40
0.6517193119932135
 40
0.980933678627319
 40
1.0
 40
1.0
 40
1.0
 40
1.0
 10
504.533728031907
 20
593.6124359343577
 30
0.0
 10
504.5347385008817
 20
593.5797718025203
 30
0.0
 10
504.5373160675417
 20
593.4964501179263
 30
0.0
 10
504.5991973631558
 20
593.3853447296226
 30
0.0
 10
504.6563905363137
 20
593.3082813462361
 30
0.0
 10
504.691640170464
 20
593.2829328861388
 30
0.0
 10
504.6935698808272
 20
593.2815452068813
 30
0.0
  0
SPLINE
  5
7A
330
1F
100
AcDbEntity
  8
0
  6
Continuous
 62
     7
370
    25
100
AcDbSpline
210
0.0
220
0.0
230
1.0
 70
     8
 71
     3
 72
    17
 73
    13
 74
     0
 42
0.00000001
 43
0.00000001
 40
0.0
 40
0.0
 40
0.0
 40
0.0
 40
0.1727939157605219
 40
0.4670908646424589
 40
0.5836036464445757
 40
0.6237329378319884
 40
0.6617158152047141
 40
0.7176264960717994
 40
0.7837734229449174
 40
0.8640117675634513
 40
0.9541263261861305
 40
1.0
 40
1.0
 40
1.0
 40
1.0
 10
505.5381241852169
 20
599.7217456208379
 30
0.0
 10
505.4543305823472
 20
599.7157684507789
 30
0.0
 10
505.2278224541895
 20
599.6996111600627
 30
0.0
 10
505.0492180841613
 20
599.6828370171582
 30
0.0
 10
504.9672501012078
 20
599.6729197268899
 30
0.0
 10
504.9054191723525
 20
599.6603873369313
 30
0.0
 10
504.8367915862625
 20
599.63976617617
 30
0.0
 10
504.7436719311647
 20
599.5936697344987
 30
0.0
 10
504.6414316901441
 20
599.507556094326
 30
0.0
 10
504.556733061715
 20
599.3759192478127
 30
0.0
 10
504.5135410229649
 20
599.2341307817892
 30
0.0
 10
504.5285986622027
 20
599.1453929325205
 30
0.0
 10
504.5336781401725
 20
599.1154584956994
 30
0.0
  0
LINE
  5
7B
330
1F
100
AcDbEntity
  8
0
  6
Continuous
 62
     7
370
    25
100
AcDbLine
 10
509.0214448761
 20
599.9639131492
 30
0.0
 11
505.5381241852
 21
599.7217456208
 31
0.0
  0
LINE
  5
7C
330
1F
100
AcDbEntity
  8
0
  6
Continuous
 62
     7
370
    25
100
AcDbLine
 10
505.5381241852
 20
593.1082715201
 30
0.0
 11
509.0214448761
 21
592.8661039918
 31
0.0
  0
ARC
  5
7D
330
1F
100
AcDbEntity
  8
0
  6
Continuous
 62
     7
370
    25
100
AcDbCircle
 10
553.8466506987
 20
599.3869030463
 30
0.0
 40
8.999995138923012
100
AcDbArc
 50
77.1419190681
 51
90.0
  0
ARC
  5
7E
330
1F
100
AcDbEntity
  8
0
  6
Continuous
 62
     7
370
    25
100
AcDbCircle
 10
553.8466506987
 20
599.3869030463
 30
0.0
 40
8.999995138923031
100
AcDbArc
 50
90.0
 51
125.1719294169
  0
SPLINE
  5
7F
330
1F
100
AcDbEntity
  8
0
  6
Continuous
 62
     7
370
    25
100
AcDbSpline
210
0.0
220
0.0
230
1.0
 70
     8
 71
     3
 72
    17
 73
    13
 74
     0
 42
0.00000001
 43
0.00000001
 40
0.0
 40
0.0
 40
0.0
 40
0.0
 40
0.1727939157605246
 40
0.4670908646424637
 40
0.5836036464445725
 40
0.6237329378319846
 40
0.6617158152047142
 40
0.7176264960717965
 40
0.7837734229449137
 40
0.8640117675634507
 40
0.9541263261861291
 40
1.0
 40
1.0
 40
1.0
 40
1.0
 10
719.9732076225633
 20
593.3536928089746
 30
0.0
 10
720.0570012254332
 20
593.3596699790337
 30
0.0
 10
720.2835093535908
 20
593.3758272697498
 30
0.0
 10
720.462113723619
 20
593.3926014126542
 30
0.0
 10
720.5440817065727
 20
593.4025187029226
 30
0.0
 10
720.6059126354278
 20
593.4150510928812
 30
0.0
 10
720.6745402215179
 20
593.4356722536425
 30
0.0
 10
720.7676598766159
 20
593.4817686953138
 30
0.0
 10
720.8699001176362
 20
593.5678823354864
 30
0.0
 10
720.9545987460654
 20
593.6995191819997
 30
0.0
 10
720.9977907848155
 20
593.8413076480232
 30
0.0
 10
720.9827331455778
 20
593.9300454972919
 30
0.0
 10
720.9776536676079
 20
593.9599799341131
 30
0.0
  0
SPLINE
  5
80
330
1F
100
AcDbEntity
  8
0
  6
Continuous
 62
     7
370
    25
100
AcDbSpline
210
0.0
220
0.0
230
1.0
 70
     8
 71
     3
 72
    11
 73
     7
 74
     0
 42
0.00000001
 43
0.00000001
 40
0.0
 40
0.0
 40
0.0
 40
0.0
 40
0.2554898599518114
 40
0.6517193119932044
 40
0.980933678627388
 40
1.0
 40
1.0
 40
1.0
 40
1.0
 10
720.9776037758734
 20
599.4630024954548
 30
0.0
 10
720.9765933068986
 20
599.4956666272922
 30
0.0
 10
720.9740157402387
 20
599.5789883118862
 30
0.0
 10
720.9121344446246
 20
599.69009370019
 30
0.0
 10
720.8549412714665
 20
599.7671570835763
 30
0.0
 10
720.8196916373164
 20
599.7925055436735
 30
0.0
 10
720.8177619269532
 20
599.793893222931
 30
0.0
  0
LINE
  5
81
330
1F
100
AcDbEntity
  8
0
  6
Continuous
 62
     7
370
    25
100
AcDbLine
 10
719.9732076226
 20
599.9671669097
 30
0.0
 11
716.4898869317
 21
600.209334438
 31
0.0
  0
LINE
  5
82
330
1F
100
AcDbEntity
  8
0
  6
Continuous
 62
     7
370
    25
100
AcDbLine
 10
716.4898869317
 20
593.1115252806
 30
0.0
 11
719.9732076226
 21
593.353692809
 31
0.0
  0
ARC
  5
83
330
1F
100
AcDbEntity
  8
0
  6
Continuous
 62
     7
370
    25
100
AcDbCircle
 10
671.6646811091
 20
593.6885353835
 30
0.0
 40
8.999995138923055
100
AcDbArc
 50
257.1419190681
 51
270.0
  0
ARC
  5
84
330
1F
100
AcDbEntity
  8
0
  6
Continuous
 62
     7
370
    25
100
AcDbCircle
 10
671.6646811091
 20
593.6885353835
 30
0.0
 40
8.999995138923058
100
AcDbArc
 50
270.0
 51
305.1719294169
  0
SPLINE
  5
85
330
1F
100
AcDbEntity
  8
0
  6
Continuous
 62
     7
370
    25
100
AcDbSpline
210
0.0
220
0.0
230
1.0
 70
     8
 71
     3
 72
    13
 73
     9
 74
     0
 42
0.00000001
 43
0.00000001
 40
0.0
 40
0.0
 40
0.0
 40
0.0
 40
0.1481425342711084
 40
0.3700927679173556
 40
0.5719965053928069
 40
0.7508646949449962
 40
0.9026864575880785
 40
1.0
 40
1.0
 40
1.0
 40
1.0
 10
577.9881084414782
 20
608.431636885599
 30
0.0
 10
577.756368067913
 20
608.4286260690443
 30
0.0
 10
577.1774294348394
 20
608.421104384351
 30
0.0
 10
576.290804083236
 20
608.5671136048269
 30
0.0
 10
575.3808136718144
 20
608.8144768764083
 30
0.0
 10
574.6080401048688
 20
609.1274191530675
 30
0.0
 10
574.0112639486055
 20
609.4320096233923
 30
0.0
 10
573.6837451934394
 20
609.6425585406446
 30
0.0
 10
573.5558146688415
 20
609.7248000398343
 30
0.0
  0
SPLINE
  5
86
330
1F
100
AcDbEntity
  8
0
  6
Continuous
 62
     7
370
    25
100
AcDbSpline
210
0.0
220
0.0
230
1.0
 70
     8
 71
     3
 72
    13
 73
     9
 74
     0
 42
0.00000001
 43
0.00000001
 40
0.0
 40
0.0
 40
0.0
 40
0.0
 40
0.0373070776781026
 40
0.136610610727492
 40
0.2960169741690025
 40
0.492986075576077
 40
0.7496081269776793
 40
1.0
 40
1.0
 40
1.0
 40
1.0
 10
573.215527770487
 20
582.8723026918539
 30
0.0
 10
573.2638511127375
 20
582.9076370135236
 30
0.0
 10
573.4408009492855
 20
583.0370238099006
 30
0.0
 10
573.8660468744533
 20
583.3121990356221
 30
0.0
 10
574.5388477148216
 20
583.6775057509158
 30
0.0
 10
575.5012241050405
 20
584.0624759561607
 30
0.0
 10
576.6584777211392
 20
584.3608381969171
 30
0.0
 10
577.5149346237741
 20
584.3896002575752
 30
0.0
 10
577.9379010112502
 20
584.403804574051
 30
0.0
  0
SPLINE
  5
87
330
1F
100
AcDbEntity
  8
0
  6
Continuous
 62
     7
370
    25
100
AcDbSpline
210
0.0
220
0.0
230
1.0
 70
     8
 71
     3
 72
    12
 73
     8
 74
     0
 42
0.00000001
 43
0.00000001
 40
0.0
 40
0.0
 40
0.0
 40
0.0
 40
0.0694785563532618
 40
0.2835346688280292
 40
0.5343559520388005
 40
0.7828622437778876
 40
1.0
 40
1.0
 40
1.0
 40
1.0
 10
652.2962050155642
 20
609.9609305153962
 30
0.0
 10
652.2012940651848
 20
609.8920164516306
 30
0.0
 10
651.8139724756695
 20
609.6107854175829
 30
0.0
 10
651.0214756477901
 20
609.1642676476828
 30
0.0
 10
649.8940701446468
 20
608.7254438106905
 30
0.0
 10
648.7038716393544
 20
608.4510156286254
 30
0.0
 10
647.9143423357121
 20
608.435857250661
 30
0.0
 10
647.546171364312
 20
608.4287886406494
 30
0.0
  0
SPLINE
  5
88
330
1F
100
AcDbEntity
  8
0
  6
Continuous
 62
     7
370
    25
100
AcDbSpline
210
0.0
220
0.0
230
1.0
 70
     8
 71
     3
 72
    14
 73
    10
 74
     0
 42
0.00000001
 43
0.00000001
 40
0.0
 40
0.0
 40
0.0
 40
0.0
 40
0.18895563722202
 40
0.3887709180179362
 40
0.5692097262005027
 40
0.7271866999791463
 40
0.8586229327052167
 40
0.9580042059621182
 40
1.0
 40
1.0
 40
1.0
 40
1.0
 10
647.5738411726005
 20
584.4077038874851
 30
0.0
 10
647.892834275273
 20
584.4001853161734
 30
0.0
 10
648.549153627215
 20
584.3847160668089
 30
0.0
 10
649.4954523788247
 20
584.1998041998434
 30
0.0
 10
650.3632211096216
 20
583.9307086069781
 30
0.0
 10
651.091872326053
 20
583.6133626812098
 30
0.0
 10
651.664559339947
 20
583.2987168631065
 30
0.0
 10
652.0565036187033
 20
583.0467018116894
 30
0.0
 10
652.2410547277725
 20
582.9122074243274
 30
0.0
 10
652.295875290359
 20
582.8722561175209
 30
0.0
  0
LINE
  5
89
330
1F
100
AcDbEntity
  8
0
  6
Continuous
 62
     7
370
    25
100
AcDbLine
 10
602.1726606596
 20
608.4150085705
 30
0.0
 11
577.9872536995
 21
608.4150085705
 31
0.0
  0
LINE
  5
8A
330
1F
100
AcDbEntity
  8
0
  6
Continuous
 62
     7
370
    25
100
AcDbLine
 10
647.546815954
 20
608.4150085705
 30
0.0
 11
621.1019629296
 21
608.4150085705
 31
0.0
  0
LINE
  5
8B
330
1F
100
AcDbEntity
  8
0
  6
Continuous
 62
     7
370
    25
100
AcDbLine
 10
623.3386711481
 20
584.4150085705
 30
0.0
 11
647.5756784195
 21
584.4150085705
 31
0.0
  0
LINE
  5
8C
330
1F
100
AcDbEntity
  8
0
  6
Continuous
 62
     7
370
    25
100
AcDbLine
 10
577.9356533882
 20
584.4150085705
 30
0.0
 11
604.4093688782
 21
584.4150085705
 31
0.0
  0
ARC
  5
8D
330
1F
100
AcDbEntity
  8
0
  6
Continuous
 62
     7
370
    25
100
AcDbCircle
 10
612.7556659039
 20
291.4150085705
 30
0.0
 40
11.55000000000006
100
AcDbArc
 50
133.1556534408
 51
274.9657006069
  0
ARC
  5
8E
330
1F
100
AcDbEntity
  8
0
  6
Continuous
 62
     7
370
    25
100
AcDbCircle
 10
612.7556659039
 20
291.4150085705
 30
0.0
 40
11.55000000000006
100
AcDbArc
 50
274.9657006069
 51
46.8443465592
  0
ARC
  5
8F
330
1F
100
AcDbEntity
  8
0
  6
Continuous
 62
     7
370
    25
100
AcDbCircle
 10
604.7326868468
 20
590.8747642573
 30
0.0
 40
0.0999999999999943
100
AcDbArc
 50
34.6269032223
 51
109.8647129029
  0
ARC
  5
90
330
1F
100
AcDbEntity
  8
0
  6
Continuous
 62
     7
370
    25
100
AcDbCircle
 10
612.7556659039
 20
596.4150085705
 30
0.0
 40
9.649999999999999
100
AcDbArc
 50
324.9501653321
 51
211.6883360596
  0
ARC
  5
91
330
1F
100
AcDbEntity
  8
0
  6
Continuous
 62
     7
370
    25
100
AcDbCircle
 10
604.4592147775
 20
591.2933488095
 30
0.0
 40
0.1000000000000281
100
AcDbArc
 50
316.450526379
 51
31.6883360595
  0
ARC
  5
92
330
1F
100
AcDbEntity
  8
0
  6
Continuous
 62
     7
370
    25
100
AcDbCircle
 10
612.7556659039
 20
596.4150085705
 30
0.0
 40
9.72499999999998
100
AcDbArc
 50
324.3251241983
 51
215.6748758017
  0
ARC
  5
93
330
1F
100
AcDbEntity
  8
0
  6
Continuous
 62
     7
370
    25
100
AcDbCircle
 10
612.7556659039
 20
596.4150085705
 30
0.0
 40
9.924999999999978
100
AcDbArc
 50
322.7469493593
 51
217.2530506407
  0
ARC
  5
94
330
1F
100
AcDbEntity
  8
0
  6
Continuous
 62
     7
370
    25
100
AcDbCircle
 10
612.7556659039
 20
596.4150085705
 30
0.0
 40
14.225
100
AcDbArc
 50
303.7355336397
 51
223.2235523034
  0
LWPOLYLINE
  5
95
330
1F
100
AcDbEntity
  8
0
  6
Continuous
 62
     7
370
    25
100
AcDbPolyline
 90
        3
 70
   128
 43
0.0
 10
604.8556659039
 20
584.5853583221
 10
603.9986718535
 20
585.204938089
 10
602.3900908776
 20
586.6730642381
  0
LINE
  5
96
330
1F
100
AcDbEntity
  8
0
  6
Continuous
 62
     7
370
    25
100
AcDbLine
 10
598.3076234581
 20
597.1664399815
 30
0.0
 11
598.5498659814
 21
597.1538411369
 31
0.0
  0
SPLINE
  5
97
330
1F
100
AcDbEntity
  8
0
  6
Continuous
 62
     7
370
    25
100
AcDbSpline
210
0.0
220
0.0
230
1.0
 70
     8
 71
     3
 72
    11
 73
     7
 74
     0
 42
0.00000001
 43
0.00000001
 40
0.0
 40
0.0
 40
0.0
 40
0.0
 40
0.1446702591042557
 40
0.3907520209323619
 40
0.5962314811354645
 40
1.0
 40
1.0
 40
1.0
 40
1.0
 10
600.299694154912
 20
603.7743120341437
 30
0.0
 10
600.167593074353
 20
603.4681218974157
 30
0.0
 10
599.8107902005945
 20
602.6411073095052
 30
0.0
 10
599.3464308077788
 20
601.3458131467037
 30
0.0
 10
598.7650023936724
 20
599.4595849991229
 30
0.0
 10
598.4899257362343
 20
598.0804426351308
 30
0.0
 10
598.3076234580751
 20
597.1664399814584
 30
0.0
  0
LINE
  5
98
330
1F
100
AcDbEntity
  8
0
  6
Continuous
 62
     7
370
    25
100
AcDbLine
 10
600.2996941549
 20
603.7743120341
 30
0.0
 11
600.5085367049
 21
603.6509225682
 31
0.0
  0
LINE
  5
99
330
1F
100
AcDbEntity
  8
0
  6
Continuous
 62
     7
370
    25
100
AcDbLine
 10
606.1824033721
 20
609.303096069
 30
0.0
 11
606.2926137143
 21
609.0870084677
 31
0.0
  0
SPLINE
  5
9A
330
1F
100
AcDbEntity
  8
0
  6
Continuous
 62
     7
370
    25
100
AcDbSpline
210
0.0
220
0.0
230
1.0
 70
     8
 71
     3
 72
    11
 73
     7
 74
     0
 42
0.00000001
 43
0.00000001
 40
0.0
 40
0.0
 40
0.0
 40
0.0
 40
0.1446702591042559
 40
0.3907520209323659
 40
0.5962314811354595
 40
1.0
 40
1.0
 40
1.0
 40
1.0
 10
612.9010237830826
 20
610.8818482657541
 30
0.0
 10
612.5698048060083
 20
610.8431560890216
 30
0.0
 10
611.6751877266981
 20
610.7386491478845
 30
0.0
 10
610.3212503799306
 20
610.493149097148
 30
0.0
 10
608.3970146797392
 20
610.0535668004559
 30
0.0
 10
607.0651040283676
 20
609.6022189917893
 30
0.0
 10
606.1824033720812
 20
609.3030960690069
 30
0.0
  0
LINE
  5
9B
330
1F
100
AcDbEntity
  8
0
  6
Continuous
 62
     7
370
    25
100
AcDbLine
 10
612.9010237831
 20
610.8818482658
 30
0.0
 11
612.898586646
 21
610.6392905791
 31
0.0
  0
LINE
  5
9C
330
1F
100
AcDbEntity
  8
0
  6
Continuous
 62
     7
370
    25
100
AcDbLine
 10
620.6304458179
 20
608.551664658
 30
0.0
 11
620.4984136368
 21
608.3481759013
 31
0.0
  0
SPLINE
  5
9D
330
1F
100
AcDbEntity
  8
0
  6
Continuous
 62
     7
370
    25
100
AcDbSpline
210
0.0
220
0.0
230
1.0
 70
     8
 71
     3
 72
    11
 73
     7
 74
     0
 42
0.00000001
 43
0.00000001
 40
0.0
 40
0.0
 40
0.0
 40
0.0
 40
0.1446702591042557
 40
0.3907520209323694
 40
0.5962314811354859
 40
0.9999999999999999
 40
0.9999999999999999
 40
0.9999999999999999
 40
0.9999999999999999
 10
625.3569955320606
 20
603.5225448021021
 30
0.0
 10
625.1578776355454
 20
603.7900427620976
 30
0.0
 10
624.6200634299939
 20
604.5125504088712
 30
0.0
 10
623.7304854760418
 20
605.5623445209361
 30
0.0
 10
622.3876781899569
 20
607.0089903718249
 30
0.0
 10
621.3308441960235
 20
607.9367849271503
 30
0.0
 10
620.6304458178965
 20
608.5516646580402
 30
0.0
  0
LINE
  5
9E
330
1F
100
AcDbEntity
  8
0
  6
Continuous
 62
     7
370
    25
100
AcDbLine
 10
625.145715845
 20
603.4033765814
 30
0.0
 11
625.3569955321
 21
603.5225448021
 31
0.0
  0
SPLINE
  5
9F
330
1F
100
AcDbEntity
  8
0
  6
Continuous
 62
     7
370
    25
100
AcDbSpline
210
0.0
220
0.0
230
1.0
 70
     8
 71
     3
 72
    11
 73
     7
 74
     0
 42
0.00000001
 43
0.00000001
 40
0.0
 40
0.0
 40
0.0
 40
0.0
 40
0.144670259104254
 40
0.3907520209323653
 40
0.5962314811354789
 40
0.9999999999999999
 40
0.9999999999999999
 40
0.9999999999999999
 40
0.9999999999999999
 10
600.1543362757197
 20
589.3074723388813
 30
0.0
 10
600.3534541722348
 20
589.0399743788859
 30
0.0
 10
600.8912683777864
 20
588.3174667321124
 30
0.0
 10
601.7808463317384
 20
587.2676726200473
 30
0.0
 10
603.1236536178235
 20
585.8210267691587
 30
0.0
 10
604.1804876117569
 20
584.8932322138331
 30
0.0
 10
604.880885989884
 20
584.2783524829432
 30
0.0
  0
LINE
  5
A0
330
1F
100
AcDbEntity
  8
0
  6
Continuous
 62
     7
370
    25
100
AcDbLine
 10
600.1543362757
 20
589.3074723389
 30
0.0
 11
600.3656159627
 21
589.4266405596
 31
0.0
  0
LINE
  5
A1
330
1F
100
AcDbEntity
  8
0
  6
Continuous
 62
     7
370
    25
100
AcDbLine
 10
626.9614658264
 20
595.6761760041
 30
0.0
 11
627.2037083497
 21
595.6635771595
 31
0.0
  0
SPLINE
  5
A2
330
1F
100
AcDbEntity
  8
0
  6
Continuous
 62
     7
370
    25
100
AcDbSpline
210
0.0
220
0.0
230
1.0
 70
     8
 71
     3
 72
    11
 73
     7
 74
     0
 42
0.00000001
 43
0.00000001
 40
0.0
 40
0.0
 40
0.0
 40
0.0
 40
0.1446702591042546
 40
0.3907520209323575
 40
0.5962314811354746
 40
1.0
 40
1.0
 40
1.0
 40
1.0
 10
625.2116376528684
 20
589.0557051068399
 30
0.0
 10
625.3437387334272
 20
589.3618952435678
 30
0.0
 10
625.7005416071859
 20
590.1889098314784
 30
0.0
 10
626.1649010000016
 20
591.4842039942799
 30
0.0
 10
626.746329414108
 20
593.3704321418606
 30
0.0
 10
627.0214060715462
 20
594.7495745058527
 30
0.0
 10
627.2037083497053
 20
595.6635771595252
 30
0.0
  0
LINE
  5
A3
330
1F
100
AcDbEntity
  8
0
  6
Continuous
 62
     7
370
    25
100
AcDbLine
 10
625.0027951029
 20
589.1790945727
 30
0.0
 11
625.2116376529
 21
589.0557051068
 31
0.0
  0
SPLINE
  5
A4
330
1F
100
AcDbEntity
  8
0
  6
Continuous
 62
     7
370
    25
100
AcDbSpline
210
0.0
220
0.0
230
1.0
 70
     8
 71
     3
 72
     9
 73
     5
 74
     0
 42
0.00000001
 43
0.00000001
 40
0.0
 40
0.0
 40
0.0
 40
0.0
 40
0.5862283062032672
 40
1.0
 40
1.0
 40
1.0
 40
1.0
 10
598.3076234580751
 20
597.1664399814584
 30
0.0
 10
598.2533708208191
 20
596.8381141264426
 30
0.0
 10
598.1608255842929
 20
596.2780492992387
 30
0.0
 10
598.0897719690952
 20
595.7136724387042
 30
0.0
 10
598.0603719943846
 20
595.4801492691812
 30
0.0
  0
SPLINE
  5
A5
330
1F
100
AcDbEntity
  8
0
  6
Continuous
 62
     7
370
    25
100
AcDbSpline
210
0.0
220
0.0
230
1.0
 70
     8
 71
     3
 72
     9
 73
     5
 74
     0
 42
0.00000001
 43
0.00000001
 40
0.0
 40
0.0
 40
0.0
 40
0.0
 40
0.5863847898283634
 40
1.0
 40
1.0
 40
1.0
 40
1.0
 10
599.1819349987269
 20
590.7071670945735
 30
0.0
 10
599.3672078688512
 20
590.4297930355158
 30
0.0
 10
599.6831657063298
 20
589.9567690692244
 30
0.0
 10
600.0164746336811
 20
589.4974526119091
 30
0.0
 10
600.1543362757197
 20
589.3074723388813
 30
0.0
  0
ARC
  5
A6
330
1F
100
AcDbEntity
  8
0
  6
Continuous
 62
     7
370
    25
100
AcDbCircle
 10
612.7556659039
 20
596.4150085705
 30
0.0
 40
14.72499999999998
100
AcDbArc
 50
183.6400367407
 51
202.8070678661
  0
SPLINE
  5
A7
330
1F
100
AcDbEntity
  8
0
  6
Continuous
 62
     7
370
    25
100
AcDbSpline
210
0.0
220
0.0
230
1.0
 70
     8
 71
     3
 72
     9
 73
     5
 74
     0
 42
0.00000001
 43
0.00000001
 40
0.0
 40
0.0
 40
0.0
 40
0.0
 40
0.5862283062032703
 40
1.0
 40
1.0
 40
1.0
 40
1.0
 10
606.1824033720812
 20
609.3030960690069
 30
0.0
 10
605.8709385222903
 20
609.1859173035849
 30
0.0
 10
605.3396355359025
 20
608.9860314158138
 30
0.0
 10
604.8153440297727
 20
608.7653772213386
 30
0.0
 10
604.5984070452382
 20
608.6740767615472
 30
0.0
  0
SPLINE
  5
A8
330
1F
100
AcDbEntity
  8
0
  6
Continuous
 62
     7
370
    25
100
AcDbSpline
210
0.0
220
0.0
230
1.0
 70
     8
 71
     3
 72
     9
 73
     5
 74
     0
 42
0.00000001
 43
0.00000001
 40
0.0
 40
0.0
 40
0.0
 40
0.0
 40
0.5863847898283651
 40
0.9999999999999999
 40
0.9999999999999999
 40
0.9999999999999999
 40
0.9999999999999999
 10
601.0256647323887
 20
605.316283620538
 30
0.0
 10
600.8780881859564
 20
605.0171455788494
 30
0.0
 10
600.6264163332883
 20
604.5070060819226
 30
0.0
 10
600.3952910765527
 20
603.9886938548705
 30
0.0
 10
600.299694154912
 20
603.7743120341437
 30
0.0
  0
ARC
  5
A9
330
1F
100
AcDbEntity
  8
0
  6
Continuous
 62
     7
370
    25
100
AcDbCircle
 10
612.7556659039
 20
596.4150085705
 30
0.0
 40
14.72500000000013
100
AcDbArc
 50
123.6400367407
 51
142.8070678661
  0
SPLINE
  5
AA
330
1F
100
AcDbEntity
  8
0
  6
Continuous
 62
     7
370
    25
100
AcDbSpline
210
0.0
220
0.0
230
1.0
 70
     8
 71
     3
 72
     9
 73
     5
 74
     0
 42
0.00000001
 43
0.00000001
 40
0.0
 40
0.0
 40
0.0
 40
0.0
 40
0.5863847898283576
 40
1.0
 40
1.0
 40
1.0
 40
1.0
 10
624.4856670753916
 20
587.5137335204456
 30
0.0
 10
624.633243621824
 20
587.8128715621341
 30
0.0
 10
624.8849154744921
 20
588.3230110590611
 30
0.0
 10
625.1160407312276
 20
588.8413232861132
 30
0.0
 10
625.2116376528684
 20
589.0557051068399
 30
0.0
  0
ARC
  5
AB
330
1F
100
AcDbEntity
  8
0
  6
Continuous
 62
     7
370
    25
100
AcDbCircle
 10
612.7556659039
 20
596.4150085705
 30
0.0
 40
14.72500000000004
100
AcDbArc
 50
303.6400367407
 51
322.8070678661
  0
SPLINE
  5
AC
330
1F
100
AcDbEntity
  8
0
  6
Continuous
 62
     7
370
    25
100
AcDbSpline
210
0.0
220
0.0
230
1.0
 70
     8
 71
     3
 72
     9
 73
     5
 74
     0
 42
0.00000001
 43
0.00000001
 40
0.0
 40
0.0
 40
0.0
 40
0.0
 40
0.5862283062032715
 40
1.0
 40
1.0
 40
1.0
 40
1.0
 10
620.6304458178965
 20
608.5516646580402
 30
0.0
 10
620.3732336053614
 20
608.7628117476341
 30
0.0
 10
619.9344758554998
 20
609.122990687067
 30
0.0
 10
619.4812379645678
 20
609.4667133531261
 30
0.0
 10
619.2937009547439
 20
609.6089360628577
 30
0.0
  0
SPLINE
  5
AD
330
1F
100
AcDbEntity
  8
0
  6
Continuous
 62
     7
370
    25
100
AcDbSpline
210
0.0
220
0.0
230
1.0
 70
     8
 71
     3
 72
     9
 73
     5
 74
     0
 42
0.00000001
 43
0.00000001
 40
0.0
 40
0.0
 40
0.0
 40
0.0
 40
0.586384789828363
 40
0.9999999999999999
 40
0.9999999999999999
 40
0.9999999999999999
 40
0.9999999999999999
 10
614.5993956375522
 20
611.0241250964564
 30
0.0
 10
614.2665462209952
 20
611.0023611138254
 30
0.0
 10
613.6989165308487
 20
610.96524558319
 30
0.0
 10
613.1344823467617
 20
610.906249813453
 30
0.0
 10
612.9010237830826
 20
610.8818482657541
 30
0.0
  0
ARC
  5
AE
330
1F
100
AcDbEntity
  8
0
  6
Continuous
 62
     7
370
    25
100
AcDbCircle
 10
612.7556659039
 20
596.4150085705
 30
0.0
 40
14.72500000000007
100
AcDbArc
 50
63.6400367407
 51
82.8070678661
  0
SPLINE
  5
AF
330
1F
100
AcDbEntity
  8
0
  6
Continuous
 62
     7
370
    25
100
AcDbSpline
210
0.0
220
0.0
230
1.0
 70
     8
 71
     3
 72
     9
 73
     5
 74
     0
 42
0.00000001
 43
0.00000001
 40
0.0
 40
0.0
 40
0.0
 40
0.0
 40
0.586228306203287
 40
1.0
 40
1.0
 40
1.0
 40
1.0
 10
627.2037083497053
 20
595.6635771595252
 30
0.0
 10
627.2579609869613
 20
595.991903014541
 30
0.0
 10
627.3505062234875
 20
596.551967841745
 30
0.0
 10
627.4215598386851
 20
597.1163447022793
 30
0.0
 10
627.4509598133958
 20
597.3498678718023
 30
0.0
  0
SPLINE
  5
B0
330
1F
100
AcDbEntity
  8
0
  6
Continuous
 62
     7
370
    25
100
AcDbSpline
210
0.0
220
0.0
230
1.0
 70
     8
 71
     3
 72
     9
 73
     5
 74
     0
 42
0.00000001
 43
0.00000001
 40
0.0
 40
0.0
 40
0.0
 40
0.0
 40
0.5863847898283612
 40
1.0
 40
1.0
 40
1.0
 40
1.0
 10
626.3293968090535
 20
602.1228500464101
 30
0.0
 10
626.1441239389292
 20
602.4002241054677
 30
0.0
 10
625.8281661014506
 20
602.8732480717591
 30
0.0
 10
625.4948571740991
 20
603.3325645290745
 30
0.0
 10
625.3569955320606
 20
603.5225448021021
 30
0.0
  0
ARC
  5
B1
330
1F
100
AcDbEntity
  8
0
  6
Continuous
 62
     7
370
    25
100
AcDbCircle
 10
612.7556659039
 20
596.4150085705
 30
0.0
 40
14.72499999999998
100
AcDbArc
 50
3.6400367407
 51
22.8070678661
  0
SPLINE
  5
B2
330
1F
100
AcDbEntity
  8
0
  6
Continuous
 62
     7
370
    25
100
AcDbSpline
210
0.0
220
0.0
230
1.0
 70
    24
 71
     3
 72
    12
 73
     8
 74
     0
 42
0.00000001
 43
0.00000001
 40
0.0
 40
0.0
 40
0.0
 40
0.0
 40
0.3013828945620946
 40
0.4108442493795587
 40
0.6247185195336505
 40
0.6986171054378636
 40
0.9999999999999999
 40
0.9999999999999999
 40
0.9999999999999999
 40
0.9999999999999999
 10
604.6566630427634
 20
584.1518838667224
 30
0.0
 10
604.1915595909222
 20
584.6467609221168
 30
0.0
 10
603.557531973551
 20
585.3213758257068
 30
0.0
 10
602.5888160250164
 20
586.3521041383574
 30
0.0
 10
601.9716912200674
 20
587.0087341957667
 30
0.0
 10
601.0584409935465
 20
587.9804461474835
 30
0.0
 10
600.4793083358701
 20
588.5966519898159
 30
0.0
 10
600.0142156366803
 20
589.0915176042274
 30
0.0
  0
ARC
  5
B3
330
1F
100
AcDbEntity
  8
0
  6
Continuous
 62
     7
370
    25
100
AcDbCircle
 10
600.3923814457
 20
588.9995829939
 30
0.0
 40
0.3891803587971319
100
AcDbArc
 50
127.7094634934
 51
166.3360839425
  0
SPLINE
  5
B4
330
1F
100
AcDbEntity
  8
0
  6
Continuous
 62
     7
370
    25
100
AcDbSpline
210
0.0
220
0.0
230
1.0
 70
    24
 71
     3
 72
    12
 73
     8
 74
     0
 42
0.00000001
 43
0.00000001
 40
0.0
 40
0.0
 40
0.0
 40
0.0
 40
0.3013828945620993
 40
0.4108442493795573
 40
0.6247185195336495
 40
0.6986171054378605
 40
0.9999999999999999
 40
0.9999999999999999
 40
0.9999999999999999
 40
0.9999999999999999
 10
627.4253448576943
 20
595.5326286993179
 30
0.0
 10
627.2293204818934
 20
594.8823987669383
 30
0.0
 10
626.9621006462985
 20
593.9960072917991
 30
0.0
 10
626.5538217174106
 20
592.6417105149915
 30
0.0
 10
626.29372580928
 20
591.7789497278956
 30
0.0
 10
625.9088236871928
 20
590.5021958558582
 30
0.0
 10
625.6647401026107
 20
589.692549340983
 30
0.0
 10
625.4687202586658
 20
589.0423344411643
 30
0.0
  0
ARC
  5
B5
330
1F
100
AcDbEntity
  8
0
  6
Continuous
 62
     7
370
    25
100
AcDbCircle
 10
625.3592550622
 20
589.4158029438
 30
0.0
 40
0.3891803587960309
100
AcDbArc
 50
247.7094634933
 51
286.3360839426
  0
ARC
  5
B6
330
1F
100
AcDbEntity
  8
0
  6
Continuous
 62
     7
370
    25
100
AcDbCircle
 10
627.1277006955
 20
595.2818911784
 30
0.0
 40
0.389180358797556
100
AcDbArc
 50
40.1110206644
 51
78.7376411134
  0
ARC
  5
B7
330
1F
100
AcDbEntity
  8
0
  6
Continuous
 62
     7
370
    25
100
AcDbCircle
 10
598.3836311123
 20
597.5481259626
 30
0.0
 40
0.3891803588379814
100
AcDbArc
 50
220.1110206664
 51
258.7376411113
  0
SPLINE
  5
B8
330
1F
100
AcDbEntity
  8
0
  6
Continuous
 62
     7
370
    25
100
AcDbSpline
210
0.0
220
0.0
230
1.0
 70
    24
 71
     3
 72
    12
 73
     8
 74
     0
 42
0.00000001
 43
0.00000001
 40
0.0
 40
0.0
 40
0.0
 40
0.0
 40
0.3013828945621505
 40
0.4108442493795786
 40
0.6247185195336595
 40
0.6986171054378616
 40
0.9999999999999999
 40
0.9999999999999999
 40
0.9999999999999999
 40
0.9999999999999999
 10
598.0859869500861
 20
597.2973884416657
 30
0.0
 10
598.282011325887
 20
597.9476183740455
 30
0.0
 10
598.549231161482
 20
598.8340098491848
 30
0.0
 10
598.9575100903699
 20
600.1883066259924
 30
0.0
 10
599.2176059985004
 20
601.0510674130882
 30
0.0
 10
599.6025081205876
 20
602.3278212851255
 30
0.0
 10
599.8465917051697
 20
603.1374678000006
 30
0.0
 10
600.0426115491146
 20
603.7876826998194
 30
0.0
  0
ARC
  5
B9
330
1F
100
AcDbEntity
  8
0
  6
Continuous
 62
     7
370
    25
100
AcDbCircle
 10
600.1520767456
 20
603.4142141972
 30
0.0
 40
0.3891803587969924
100
AcDbArc
 50
67.7094634934
 51
106.3360839425
  0
ARC
  5
BA
330
1F
100
AcDbEntity
  8
0
  6
Continuous
 62
     7
370
    25
100
AcDbCircle
 10
606.5509569551
 20
609.4281145001
 30
0.0
 40
0.3891803588388567
100
AcDbArc
 50
160.1110206665
 51
198.7376411113
  0
SPLINE
  5
BB
330
1F
100
AcDbEntity
  8
0
  6
Continuous
 62
     7
370
    25
100
AcDbSpline
210
0.0
220
0.0
230
1.0
 70
    24
 71
     3
 72
    12
 73
     8
 74
     0
 42
0.00000001
 43
0.00000001
 40
0.0
 40
0.0
 40
0.0
 40
0.0
 40
0.3013828945621499
 40
0.4108442493795587
 40
0.6247185195336379
 40
0.6986171054378638
 40
1.0
 40
1.0
 40
1.0
 40
1.0
 10
606.1849898112129
 20
609.560513145435
 30
0.0
 10
606.8461176388552
 20
609.7158660224203
 30
0.0
 10
607.7473650918212
 20
609.9276425939696
 30
0.0
 10
609.1243599692439
 20
610.2512110581265
 30
0.0
 10
610.0015806823232
 20
610.457341787813
 30
0.0
 10
611.2997330309312
 20
610.7623837081337
 30
0.0
 10
612.1229492731898
 20
610.9558243806765
 30
0.0
 10
612.7840618163244
 20
611.1111736660837
 30
0.0
  0
ARC
  5
BC
330
1F
100
AcDbEntity
  8
0
  6
Continuous
 62
     7
370
    25
100
AcDbCircle
 10
612.5153612038
 20
610.8296397738
 30
0.0
 40
0.3891803587984328
100
AcDbArc
 50
7.7094634935
 51
46.3360839425
  0
SPLINE
  5
BD
330
1F
100
AcDbEntity
  8
0
  6
Continuous
 62
     7
370
    25
100
AcDbSpline
210
0.0
220
0.0
230
1.0
 70
    24
 71
     3
 72
    12
 73
     8
 74
     0
 42
0.00000001
 43
0.00000001
 40
0.0
 40
0.0
 40
0.0
 40
0.0
 40
0.3013828945621527
 40
0.4108442493795541
 40
0.6247185195336461
 40
0.6986171054378585
 40
1.0
 40
1.0
 40
1.0
 40
1.0
 10
620.854668765017
 20
608.6781332742611
 30
0.0
 10
621.3197722168584
 20
608.1832562188666
 30
0.0
 10
621.9537998342294
 20
607.5086413152767
 30
0.0
 10
622.9225157827641
 20
606.4779130026261
 30
0.0
 10
623.5396405877128
 20
605.8212829452168
 30
0.0
 10
624.4528908142339
 20
604.8495709935
 30
0.0
 10
625.0320234719103
 20
604.2333651511676
 30
0.0
 10
625.4971161711
 20
603.7384995367561
 30
0.0
  0
ARC
  5
BE
330
1F
100
AcDbEntity
  8
0
  6
Continuous
 62
     7
370
    25
100
AcDbCircle
 10
625.1189503621
 20
603.830434147
 30
0.0
 40
0.3891803587967026
100
AcDbArc
 50
307.7094634934
 51
346.3360839426
  0
ARC
  5
BF
330
1F
100
AcDbEntity
  8
0
  6
Continuous
 62
     7
370
    25
100
AcDbCircle
 10
620.9229917467
 20
608.2949971081
 30
0.0
 40
0.3891803587969052
100
AcDbArc
 50
100.1110206643
 51
138.7376411135
  0
LINE
  5
C0
330
1F
100
AcDbEntity
  8
0
  6
Continuous
 62
     7
370
    25
100
AcDbLine
 10
600.0142156367
 20
589.0915176042
 30
0.0
 11
598.8175914126
 21
590.3647437437
 31
0.0
  0
LINE
  5
C1
330
1F
100
AcDbEntity
  8
0
  6
Continuous
 62
     7
370
    25
100
AcDbLine
 10
599.1819349987
 20
590.7071670946
 30
0.0
 11
598.8175914126
 21
590.3647437437
 31
0.0
  0
LINE
  5
C2
330
1F
100
AcDbEntity
  8
0
  6
Continuous
 62
     7
370
    25
100
AcDbLine
 10
600.0426115491
 20
603.7876826998
 30
0.0
 11
600.5469456186
 21
605.4606027464
 31
0.0
  0
LINE
  5
C3
330
1F
100
AcDbEntity
  8
0
  6
Continuous
 62
     7
370
    25
100
AcDbLine
 10
600.5469456186
 20
605.4606027464
 30
0.0
 11
601.0256647324
 21
605.3162836205
 31
0.0
  0
LINE
  5
C4
330
1F
100
AcDbEntity
  8
0
  6
Continuous
 62
     7
370
    25
100
AcDbLine
 10
612.7840618163
 20
611.1111736661
 30
0.0
 11
614.4850201099
 21
611.5108675732
 31
0.0
  0
LINE
  5
C5
330
1F
100
AcDbEntity
  8
0
  6
Continuous
 62
     7
370
    25
100
AcDbLine
 10
614.4850201099
 20
611.5108675732
 30
0.0
 11
614.5993956376
 21
611.0241250965
 31
0.0
  0
LINE
  5
C6
330
1F
100
AcDbEntity
  8
0
  6
Continuous
 62
     7
370
    25
100
AcDbLine
 10
625.4687202587
 20
589.0423344412
 30
0.0
 11
624.9643861892
 21
587.3694143946
 31
0.0
  0
LINE
  5
C7
330
1F
100
AcDbEntity
  8
0
  6
Continuous
 62
     7
370
    25
100
AcDbLine
 10
624.9643861892
 20
587.3694143946
 30
0.0
 11
624.4856670754
 21
587.5137335204
 31
0.0
  0
LINE
  5
C8
330
1F
100
AcDbEntity
  8
0
  6
Continuous
 62
     7
370
    25
100
AcDbLine
 10
625.4971161711
 20
603.7384995368
 30
0.0
 11
626.6937403952
 21
602.4652733973
 31
0.0
  0
LINE
  5
C9
330
1F
100
AcDbEntity
  8
0
  6
Continuous
 62
     7
370
    25
100
AcDbLine
 10
626.6937403952
 20
602.4652733973
 30
0.0
 11
626.3293968091
 21
602.1228500464
 31
0.0
  0
LINE
  5
CA
330
1F
100
AcDbEntity
  8
0
  6
Continuous
 62
     7
370
    25
100
AcDbLine
 10
598.0603719944
 20
595.4801492692
 30
0.0
 11
597.5816528806
 21
595.6244683951
 31
0.0
  0
LINE
  5
CB
330
1F
100
AcDbEntity
  8
0
  6
Continuous
 62
     7
370
    25
100
AcDbLine
 10
597.5816528806
 20
595.6244683951
 30
0.0
 11
598.0859869501
 21
597.2973884417
 31
0.0
  0
LINE
  5
CC
330
1F
100
AcDbEntity
  8
0
  6
Continuous
 62
     7
370
    25
100
AcDbLine
 10
604.5984070452
 20
608.6740767615
 30
0.0
 11
604.4840315176
 21
609.1608192383
 31
0.0
  0
LINE
  5
CD
330
1F
100
AcDbEntity
  8
0
  6
Continuous
 62
     7
370
    25
100
AcDbLine
 10
604.4840315176
 20
609.1608192383
 30
0.0
 11
606.1849898112
 21
609.5605131454
 31
0.0
  0
LINE
  5
CE
330
1F
100
AcDbEntity
  8
0
  6
Continuous
 62
     7
370
    25
100
AcDbLine
 10
621.0273002902
 20
583.6691979027
 30
0.0
 11
620.6556659039
 21
583.5818706587
 31
0.0
  0
LINE
  5
CF
330
1F
100
AcDbEntity
  8
0
  6
Continuous
 62
     7
370
    25
100
AcDbLine
 10
621.0273002902
 20
583.6691979027
 30
0.0
 11
620.9129247625
 21
584.1559403794
 31
0.0
  0
LINE
  5
D0
330
1F
100
AcDbEntity
  8
0
  6
Continuous
 62
     7
370
    25
100
AcDbLine
 10
619.6580445409
 20
609.9513594137
 30
0.0
 11
620.854668765
 21
608.6781332743
 31
0.0
  0
LINE
  5
D1
330
1F
100
AcDbEntity
  8
0
  6
Continuous
 62
     7
370
    25
100
AcDbLine
 10
619.2937009547
 20
609.6089360629
 30
0.0
 11
619.6580445409
 21
609.9513594137
 31
0.0
  0
LINE
  5
D2
330
1F
100
AcDbEntity
  8
0
  6
Continuous
 62
     7
370
    25
100
AcDbLine
 10
627.9296789272
 20
597.2055487459
 30
0.0
 11
627.4253448577
 21
595.5326286993
 31
0.0
  0
LINE
  5
D3
330
1F
100
AcDbEntity
  8
0
  6
Continuous
 62
     7
370
    25
100
AcDbLine
 10
627.4509598134
 20
597.3498678718
 30
0.0
 11
627.9296789272
 21
597.2055487459
 31
0.0
  0
LINE
  5
D4
330
1F
100
AcDbEntity
  8
0
  6
Continuous
 62
     7
370
    25
100
AcDbLine
 10
598.0603719944
 20
595.4801492692
 30
0.0
 11
597.5059192663
 21
593.6409812655
 31
0.0
  0
LINE
  5
D5
330
1F
100
AcDbEntity
  8
0
  6
Continuous
 62
     7
370
    25
100
AcDbLine
 10
597.5059192663
 20
593.6409812655
 30
0.0
 11
597.0272001525
 21
593.7853003914
 31
0.0
  0
LINE
  5
D6
330
1F
100
AcDbEntity
  8
0
  6
Continuous
 62
     7
370
    25
100
AcDbLine
 10
597.0272001525
 20
593.7853003914
 30
0.0
 11
597.5816528806
 21
595.6244683951
 31
0.0
  0
ARC
  5
D7
330
1F
100
AcDbEntity
  8
0
  6
Continuous
 62
     7
370
    25
100
AcDbCircle
 10
612.7556659039
 20
596.4150085705
 30
0.0
 40
15.50000000000007
100
AcDbArc
 50
190.309742062
 51
196.1373625449
  0
LINE
  5
D8
330
1F
100
AcDbEntity
  8
0
  6
Continuous
 62
     7
370
    25
100
AcDbLine
 10
597.8663951498
 20
592.1069212441
 30
0.0
 11
597.3860960932
 21
591.9679506852
 31
0.0
  0
ARC
  5
D9
330
1F
100
AcDbEntity
  8
0
  6
Continuous
 62
     7
370
    25
100
AcDbCircle
 10
612.7556659039
 20
596.4150085705
 30
0.0
 40
16.00000000000001
100
AcDbArc
 50
190.309742062
 51
196.1373625449
  0
LINE
  5
DA
330
1F
100
AcDbEntity
  8
0
  6
Continuous
 62
     7
370
    25
100
AcDbLine
 10
597.5059192663
 20
593.6409812655
 30
0.0
 11
597.0139919554
 21
593.5514965138
 31
0.0
  0
ARC
  5
DB
330
1F
100
AcDbEntity
  8
0
  6
Continuous
 62
     7
370
    25
100
AcDbCircle
 10
597.5059192663
 20
593.6409812655
 30
0.0
 40
0.5
100
AcDbArc
 50
163.2235523034
 51
190.309742062
  0
LINE
  5
DC
330
1F
100
AcDbEntity
  8
0
  6
Continuous
 62
     7
370
    25
100
AcDbLine
 10
597.8663951498
 20
592.1069212441
 30
0.0
 11
599.1819349987
 21
590.7071670946
 31
0.0
  0
LINE
  5
DD
330
1F
100
AcDbEntity
  8
0
  6
Continuous
 62
     7
370
    25
100
AcDbLine
 10
598.8175914126
 20
590.3647437437
 30
0.0
 11
597.5020515636
 21
591.7644978933
 31
0.0
  0
LINE
  5
DE
330
1F
100
AcDbEntity
  8
0
  6
Continuous
 62
     7
370
    25
100
AcDbLine
 10
597.8663951498
 20
592.1069212441
 30
0.0
 11
597.5020515636
 21
591.7644978933
 31
0.0
  0
ARC
  5
DF
330
1F
100
AcDbEntity
  8
0
  6
Continuous
 62
     7
370
    25
100
AcDbCircle
 10
597.8663951498
 20
592.1069212441
 30
0.0
 40
0.5000000000000013
100
AcDbArc
 50
196.1373625449
 51
223.2235523034
  0
LINE
  5
E0
330
1F
100
AcDbEntity
  8
0
  6
Continuous
 62
     7
370
    25
100
AcDbLine
 10
600.5469456186
 20
605.4606027464
 30
0.0
 11
601.1013983467
 21
607.2997707501
 31
0.0
  0
LINE
  5
E1
330
1F
100
AcDbEntity
  8
0
  6
Continuous
 62
     7
370
    25
100
AcDbLine
 10
601.1013983467
 20
607.2997707501
 30
0.0
 11
601.5801174605
 21
607.1554516242
 31
0.0
  0
LINE
  5
E2
330
1F
100
AcDbEntity
  8
0
  6
Continuous
 62
     7
370
    25
100
AcDbLine
 10
601.5801174605
 20
607.1554516242
 30
0.0
 11
601.0256647324
 21
605.3162836205
 31
0.0
  0
ARC
  5
E3
330
1F
100
AcDbEntity
  8
0
  6
Continuous
 62
     7
370
    25
100
AcDbCircle
 10
601.5801174605
 20
607.1554516242
 30
0.0
 40
0.5000000000000162
100
AcDbArc
 50
136.1373625449
 51
163.2235523034
  0
LINE
  5
E4
330
1F
100
AcDbEntity
  8
0
  6
Continuous
 62
     7
370
    25
100
AcDbLine
 10
601.5801174605
 20
607.1554516242
 30
0.0
 11
601.2196158978
 21
607.5019175291
 31
0.0
  0
ARC
  5
E5
330
1F
100
AcDbEntity
  8
0
  6
Continuous
 62
     7
370
    25
100
AcDbCircle
 10
612.7556659039
 20
596.4150085705
 30
0.0
 40
15.50000000000006
100
AcDbArc
 50
130.309742062
 51
136.1373625448
  0
ARC
  5
E6
330
1F
100
AcDbEntity
  8
0
  6
Continuous
 62
     7
370
    25
100
AcDbCircle
 10
612.7556659039
 20
596.4150085705
 30
0.0
 40
16.00000000000007
100
AcDbArc
 50
130.309742062
 51
136.1373625449
  0
LINE
  5
E7
330
1F
100
AcDbEntity
  8
0
  6
Continuous
 62
     7
370
    25
100
AcDbLine
 10
602.7284144682
 20
608.2346629075
 30
0.0
 11
602.4049547445
 21
608.6159420796
 31
0.0
  0
LINE
  5
E8
330
1F
100
AcDbEntity
  8
0
  6
Continuous
 62
     7
370
    25
100
AcDbLine
 10
604.5984070452
 20
608.6740767615
 30
0.0
 11
602.7284144682
 21
608.2346629075
 31
0.0
  0
ARC
  5
E9
330
1F
100
AcDbEntity
  8
0
  6
Continuous
 62
     7
370
    25
100
AcDbCircle
 10
602.7284144682
 20
608.2346629075
 30
0.0
 40
0.5000000000000199
100
AcDbArc
 50
103.2235523034
 51
130.309742062
  0
LINE
  5
EA
330
1F
100
AcDbEntity
  8
0
  6
Continuous
 62
     7
370
    25
100
AcDbLine
 10
602.7284144682
 20
608.2346629075
 30
0.0
 11
602.6140389406
 21
608.7214053842
 31
0.0
  0
LINE
  5
EB
330
1F
100
AcDbEntity
  8
0
  6
Continuous
 62
     7
370
    25
100
AcDbLine
 10
602.6140389406
 20
608.7214053842
 30
0.0
 11
604.4840315176
 21
609.1608192383
 31
0.0
  0
LINE
  5
EC
330
1F
100
AcDbEntity
  8
0
  6
Continuous
 62
     7
370
    25
100
AcDbLine
 10
622.8972928672
 20
584.1086117568
 30
0.0
 11
621.0273002902
 21
583.6691979027
 31
0.0
  0
LINE
  5
ED
330
1F
100
AcDbEntity
  8
0
  6
Continuous
 62
     7
370
    25
100
AcDbLine
 10
620.9129247625
 20
584.1559403794
 30
0.0
 11
622.7829173396
 21
584.5953542335
 31
0.0
  0
LINE
  5
EE
330
1F
100
AcDbEntity
  8
0
  6
Continuous
 62
     7
370
    25
100
AcDbLine
 10
622.8972928672
 20
584.1086117568
 30
0.0
 11
622.7829173396
 21
584.5953542335
 31
0.0
  0
LINE
  5
EF
330
1F
100
AcDbEntity
  8
0
  6
Continuous
 62
     7
370
    25
100
AcDbLine
 10
623.9312143473
 20
585.6745655168
 30
0.0
 11
624.4856670754
 21
587.5137335204
 31
0.0
  0
ARC
  5
F0
330
1F
100
AcDbEntity
  8
0
  6
Continuous
 62
     7
370
    25
100
AcDbCircle
 10
612.7556659039
 20
596.4150085705
 30
0.0
 40
15.50000000000002
100
AcDbArc
 50
310.309742062
 51
316.1373625449
  0
LINE
  5
F1
330
1F
100
AcDbEntity
  8
0
  6
Continuous
 62
     7
370
    25
100
AcDbLine
 10
623.1063770633
 20
584.2140750614
 30
0.0
 11
622.7829173396
 21
584.5953542335
 31
0.0
  0
ARC
  5
F2
330
1F
100
AcDbEntity
  8
0
  6
Continuous
 62
     7
370
    25
100
AcDbCircle
 10
622.7829173396
 20
584.5953542335
 30
0.0
 40
0.4999999999999111
100
AcDbArc
 50
283.2235523034
 51
310.309742062
  0
ARC
  5
F3
330
1F
100
AcDbEntity
  8
0
  6
Continuous
 62
     7
370
    25
100
AcDbCircle
 10
612.7556659039
 20
596.4150085705
 30
0.0
 40
15.99999999999999
100
AcDbArc
 50
310.309742062
 51
316.1373625449
  0
LINE
  5
F4
330
1F
100
AcDbEntity
  8
0
  6
Continuous
 62
     7
370
    25
100
AcDbLine
 10
624.29171591
 20
585.3280996119
 30
0.0
 11
623.9312143473
 21
585.6745655168
 31
0.0
  0
LINE
  5
F5
330
1F
100
AcDbEntity
  8
0
  6
Continuous
 62
     7
370
    25
100
AcDbLine
 10
624.9643861892
 20
587.3694143946
 30
0.0
 11
624.4099334611
 21
585.5302463909
 31
0.0
  0
LINE
  5
F6
330
1F
100
AcDbEntity
  8
0
  6
Continuous
 62
     7
370
    25
100
AcDbLine
 10
624.4099334611
 20
585.5302463909
 30
0.0
 11
623.9312143473
 21
585.6745655168
 31
0.0
  0
ARC
  5
F7
330
1F
100
AcDbEntity
  8
0
  6
Continuous
 62
     7
370
    25
100
AcDbCircle
 10
623.9312143473
 20
585.6745655168
 30
0.0
 40
0.5000000000000162
100
AcDbArc
 50
316.1373625449
 51
343.2235523034
  0
LINE
  5
F8
330
1F
100
AcDbEntity
  8
0
  6
Continuous
 62
     7
370
    25
100
AcDbLine
 10
619.2937009547
 20
609.6089360629
 30
0.0
 11
617.9781611058
 21
611.0086902124
 31
0.0
  0
LINE
  5
F9
330
1F
100
AcDbEntity
  8
0
  6
Continuous
 62
     7
370
    25
100
AcDbLine
 10
616.4693882146
 20
611.4635389505
 30
0.0
 11
614.5993956376
 21
611.0241250965
 31
0.0
  0
ARC
  5
FA
330
1F
100
AcDbEntity
  8
0
  6
Continuous
 62
     7
370
    25
100
AcDbCircle
 10
612.7556659039
 20
596.4150085705
 30
0.0
 40
15.50000000000005
100
AcDbArc
 50
70.309742062
 51
76.1373625449
  0
LINE
  5
FB
330
1F
100
AcDbEntity
  8
0
  6
Continuous
 62
     7
370
    25
100
AcDbLine
 10
614.4850201099
 20
611.5108675732
 30
0.0
 11
616.355012687
 21
611.9502814273
 31
0.0
  0
LINE
  5
FC
330
1F
100
AcDbEntity
  8
0
  6
Continuous
 62
     7
370
    25
100
AcDbLine
 10
616.355012687
 20
611.9502814273
 30
0.0
 11
616.4693882146
 21
611.4635389505
 31
0.0
  0
ARC
  5
FD
330
1F
100
AcDbEntity
  8
0
  6
Continuous
 62
     7
370
    25
100
AcDbCircle
 10
617.9781611058
 20
611.0086902124
 30
0.0
 40
0.5000000000001621
100
AcDbArc
 50
43.2235523034
 51
70.309742062
  0
LINE
  5
FE
330
1F
100
AcDbEntity
  8
0
  6
Continuous
 62
     7
370
    25
100
AcDbLine
 10
617.9781611058
 20
611.0086902124
 30
0.0
 11
618.342504692
 21
611.3511135633
 31
0.0
  0
LINE
  5
FF
330
1F
100
AcDbEntity
  8
0
  6
Continuous
 62
     7
370
    25
100
AcDbLine
 10
618.146628693
 20
611.4794541363
 30
0.0
 11
617.9781611058
 21
611.0086902124
 31
0.0
  0
ARC
  5
100
330
1F
100
AcDbEntity
  8
0
  6
Continuous
 62
     7
370
    25
100
AcDbCircle
 10
616.4693882146
 20
611.4635389505
 30
0.0
 40
0.4999999999999938
100
AcDbArc
 50
76.1373625449
 51
103.2235523034
  0
LINE
  5
101
330
1F
100
AcDbEntity
  8
0
  6
Continuous
 62
     7
370
    25
100
AcDbLine
 10
616.4693882146
 20
611.4635389505
 30
0.0
 11
616.5891857085
 21
611.9489754144
 31
0.0
  0
ARC
  5
102
330
1F
100
AcDbEntity
  8
0
  6
Continuous
 62
     7
370
    25
100
AcDbCircle
 10
612.7556659039
 20
596.4150085705
 30
0.0
 40
16.00000000000004
100
AcDbArc
 50
70.309742062
 51
76.1373625449
  0
LINE
  5
103
330
1F
100
AcDbEntity
  8
0
  6
Continuous
 62
     7
370
    25
100
AcDbLine
 10
618.342504692
 20
611.3511135633
 30
0.0
 11
619.6580445409
 21
609.9513594137
 31
0.0
  0
LINE
  5
104
330
1F
100
AcDbEntity
  8
0
  6
Continuous
 62
     7
370
    25
100
AcDbLine
 10
627.4509598134
 20
597.3498678718
 30
0.0
 11
628.0054125415
 21
599.1890358754
 31
0.0
  0
LINE
  5
105
330
1F
100
AcDbEntity
  8
0
  6
Continuous
 62
     7
370
    25
100
AcDbLine
 10
628.0054125415
 20
599.1890358754
 30
0.0
 11
628.4841316553
 21
599.0447167496
 31
0.0
  0
LINE
  5
106
330
1F
100
AcDbEntity
  8
0
  6
Continuous
 62
     7
370
    25
100
AcDbLine
 10
628.4841316553
 20
599.0447167496
 30
0.0
 11
627.9296789272
 21
597.2055487459
 31
0.0
  0
LINE
  5
107
330
1F
100
AcDbEntity
  8
0
  6
Continuous
 62
     7
370
    25
100
AcDbLine
 10
627.644936658
 20
600.7230958969
 30
0.0
 11
626.3293968091
 21
602.1228500464
 31
0.0
  0
ARC
  5
108
330
1F
100
AcDbEntity
  8
0
  6
Continuous
 62
     7
370
    25
100
AcDbCircle
 10
612.7556659039
 20
596.4150085705
 30
0.0
 40
15.50000000000009
100
AcDbArc
 50
10.309742062
 51
16.1373625448
  0
LINE
  5
109
330
1F
100
AcDbEntity
  8
0
  6
Continuous
 62
     7
370
    25
100
AcDbLine
 10
628.1252357146
 20
600.8620664558
 30
0.0
 11
627.644936658
 21
600.7230958969
 31
0.0
  0
LINE
  5
10A
330
1F
100
AcDbEntity
  8
0
  6
Continuous
 62
     7
370
    25
100
AcDbLine
 10
628.0092802441
 20
601.0655192477
 30
0.0
 11
627.644936658
 21
600.7230958969
 31
0.0
  0
ARC
  5
10B
330
1F
100
AcDbEntity
  8
0
  6
Continuous
 62
     7
370
    25
100
AcDbCircle
 10
627.644936658
 20
600.7230958969
 30
0.0
 40
0.5000000000000793
100
AcDbArc
 50
16.1373625449
 51
43.2235523034
  0
ARC
  5
10C
330
1F
100
AcDbEntity
  8
0
  6
Continuous
 62
     7
370
    25
100
AcDbCircle
 10
628.0054125415
 20
599.1890358754
 30
0.0
 40
0.4999999999999568
100
AcDbArc
 50
343.2235523034
 51
10.309742062
  0
LINE
  5
10D
330
1F
100
AcDbEntity
  8
0
  6
Continuous
 62
     7
370
    25
100
AcDbLine
 10
628.4973398524
 20
599.2785206272
 30
0.0
 11
628.0054125415
 21
599.1890358754
 31
0.0
  0
LINE
  5
10E
330
1F
100
AcDbEntity
  8
0
  6
Continuous
 62
     7
370
    25
100
AcDbLine
 10
626.6937403952
 20
602.4652733973
 30
0.0
 11
628.0092802441
 21
601.0655192477
 31
0.0
  0
ARC
  5
10F
330
1F
100
AcDbEntity
  8
0
  6
Continuous
 62
     7
370
    25
100
AcDbCircle
 10
612.7556659039
 20
596.4150085705
 30
0.0
 40
16.00000000000001
100
AcDbArc
 50
10.309742062
 51
16.1373625449
  0
ARC
  5
110
330
1F
100
AcDbEntity
  8
0
  6
Continuous
 62
     7
370
    25
100
AcDbCircle
 10
612.7556659039
 20
596.4150085705
 30
0.0
 40
8.049999999999965
100
AcDbArc
 50
348.9219835539
 51
191.0780164461
  0
ARC
  5
111
330
1F
100
AcDbEntity
  8
0
  6
Continuous
 62
     7
370
    25
100
AcDbCircle
 10
612.7556659039
 20
596.4150085705
 30
0.0
 40
8.24999999999995
100
AcDbArc
 50
343.2508741362
 51
196.7491258638
  0
ARC
  5
112
330
1F
100
AcDbEntity
  8
0
  6
Continuous
 62
     7
370
    25
100
AcDbCircle
 10
612.7556659039
 20
596.4150085705
 30
0.0
 40
9.57499999999987
100
AcDbArc
 50
325.5951096848
 51
214.4048903152
  0
ARC
  5
113
330
1F
100
AcDbEntity
  8
0
  6
Continuous
 62
     7
370
    25
100
AcDbCircle
 10
612.7556659039
 20
291.4150085705
 30
0.0
 40
7.899999999999977
100
AcDbArc
 50
180.0
 51
0.0
  0
ARC
  5
114
330
1F
100
AcDbEntity
  8
0
  6
Continuous
 62
     7
370
    25
100
AcDbCircle
 10
612.7556659039
 20
291.4150085705
 30
0.0
 40
10.82499999999994
100
AcDbArc
 50
136.8689719021
 51
180.0
  0
ARC
  5
115
330
1F
100
AcDbEntity
  8
0
  6
Continuous
 62
     7
370
    25
100
AcDbCircle
 10
612.7556659039
 20
291.4150085705
 30
0.0
 40
10.82499999999994
100
AcDbArc
 50
180.0
 51
43.1310280979
  0
ARC
  5
116
330
1F
100
AcDbEntity
  8
0
  6
Continuous
 62
     7
370
    25
100
AcDbCircle
 10
612.7556659039
 20
596.4150085705
 30
0.0
 40
7.899999999999977
100
AcDbArc
 50
0.0
 51
180.0
  0
SPLINE
  5
117
330
1F
100
AcDbEntity
  8
0
  6
Continuous
 62
     7
370
    25
100
AcDbSpline
210
0.0
220
0.0
230
1.0
 70
     8
 71
     3
 72
    10
 73
     6
 74
     0
 42
0.00000001
 43
0.00000001
 40
0.0
 40
0.0
 40
0.0
 40
0.0
 40
0.4482370048070395
 40
0.9076021902654443
 40
0.9999999999999999
 40
0.9999999999999999
 40
0.9999999999999999
 40
0.9999999999999999
 10
613.9629078542914
 20
604.2115682391338
 30
0.0
 10
614.8070003913126
 20
604.0009989344585
 30
0.0
 10
616.5161413751475
 20
603.5746326146846
 30
0.0
 10
618.0815818939836
 20
602.3430809012152
 30
0.0
 10
618.7694454580482
 20
601.5348968932921
 30
0.0
 10
618.8846345650913
 20
601.3995590166219
 30
0.0
  0
CIRCLE
  5
118
330
1F
100
AcDbEntity
  8
0
  6
Continuous
 62
     7
370
    25
100
AcDbCircle
 10
663.5556659039
 20
596.4150085705
 30
0.0
 40
5.328914336627463
  0
CIRCLE
  5
119
330
1F
100
AcDbEntity
  8
0
  6
Continuous
 62
     7
370
    25
100
AcDbCircle
 10
663.5556659039
 20
596.4150085705
 30
0.0
 40
5.074569253689106
  0
CIRCLE
  5
11A
330
1F
100
AcDbEntity
  8
0
  6
Continuous
 62
     7
370
    25
100
AcDbCircle
 10
663.5556659039
 20
596.4150085705
 30
0.0
 40
5.925127771161556
  0
CIRCLE
  5
11B
330
1F
100
AcDbEntity
  8
0
  6
Continuous
 62
     7
370
    25
100
AcDbCircle
 10
663.5556659039
 20
596.4150085705
 30
0.0
 40
7.150000000000091
  0
LINE
  5
11C
330
1F
100
AcDbEntity
  8
0
  6
Continuous
 62
     7
370
    25
100
AcDbLine
 10
559.5956281806
 20
595.1699294787
 30
0.0
 11
559.2886872248
 21
596.330010187
 31
0.0
  0
LINE
  5
11D
330
1F
100
AcDbEntity
  8
0
  6
Continuous
 62
     7
370
    25
100
AcDbLine
 10
560.804045585
 20
595.4896596411
 30
0.0
 11
559.5956281806
 21
595.1699294787
 31
0.0
  0
SPLINE
  5
11E
330
1F
100
AcDbEntity
  8
0
  6
Continuous
 62
     7
370
    25
100
AcDbSpline
210
0.0
220
0.0
230
1.0
 70
     8
 71
     3
 72
    12
 73
     8
 74
     0
 42
0.00000001
 43
0.00000001
 40
0.0
 40
0.0
 40
0.0
 40
0.0
 40
0.2133534395476129
 40
0.4267919313634445
 40
0.6383539739091494
 40
0.8490950351927571
 40
1.0
 40
1.0
 40
1.0
 40
1.0
 10
561.7209341250771
 20
594.9564472958056
 30
0.0
 10
561.6917456861271
 20
595.0350913227167
 30
0.0
 10
561.6333571724037
 20
595.1924107275821
 30
0.0
 10
561.4529402916589
 20
595.3762141324476
 30
0.0
 10
561.2285306954295
 20
595.491742619506
 30
0.0
 10
561.000871651528
 20
595.5273573992538
 30
0.0
 10
560.8619950011202
 20
595.500758593117
 30
0.0
 10
560.8040455850328
 20
595.4896596410633
 30
0.0
  0
LINE
  5
11F
330
1F
100
AcDbEntity
  8
0
  6
Continuous
 62
     7
370
    25
100
AcDbLine
 10
562.0406642874
 20
593.7480298914
 30
0.0
 11
561.7209341251
 21
594.9564472958
 31
0.0
  0
LINE
  5
120
330
1F
100
AcDbEntity
  8
0
  6
Continuous
 62
     7
370
    25
100
AcDbLine
 10
563.2007449956
 20
594.0549708472
 30
0.0
 11
562.0406642874
 21
593.7480298914
 31
0.0
  0
LINE
  5
121
330
1F
100
AcDbEntity
  8
0
  6
Continuous
 62
     7
370
    25
100
AcDbLine
 10
562.8810148333
 20
595.2633882516
 30
0.0
 11
563.2007449956
 21
594.0549708472
 31
0.0
  0
LINE
  5
122
330
1F
100
AcDbEntity
  8
0
  6
Continuous
 62
     7
370
    25
100
AcDbLine
 10
564.622644583
 20
596.500006954
 30
0.0
 11
563.4142271786
 21
596.1802767917
 31
0.0
  0
LINE
  5
123
330
1F
100
AcDbEntity
  8
0
  6
Continuous
 62
     7
370
    25
100
AcDbLine
 10
564.3157036272
 20
597.6600876622
 30
0.0
 11
564.622644583
 21
596.500006954
 31
0.0
  0
LINE
  5
124
330
1F
100
AcDbEntity
  8
0
  6
Continuous
 62
     7
370
    25
100
AcDbLine
 10
563.1072862227
 20
597.3403574999
 30
0.0
 11
564.3157036272
 21
597.6600876622
 31
0.0
  0
LINE
  5
125
330
1F
100
AcDbEntity
  8
0
  6
Continuous
 62
     7
370
    25
100
AcDbLine
 10
561.8706675204
 20
599.0819872496
 30
0.0
 11
562.1903976827
 21
597.8735698452
 31
0.0
  0
LINE
  5
126
330
1F
100
AcDbEntity
  8
0
  6
Continuous
 62
     7
370
    25
100
AcDbLine
 10
560.7105868121
 20
598.7750462938
 30
0.0
 11
561.8706675204
 21
599.0819872496
 31
0.0
  0
LINE
  5
127
330
1F
100
AcDbEntity
  8
0
  6
Continuous
 62
     7
370
    25
100
AcDbLine
 10
561.0303169745
 20
597.5666288893
 30
0.0
 11
560.7105868121
 21
598.7750462938
 31
0.0
  0
SPLINE
  5
128
330
1F
100
AcDbEntity
  8
0
  6
Continuous
 62
     7
370
    25
100
AcDbSpline
210
0.0
220
0.0
230
1.0
 70
     8
 71
     3
 72
    12
 73
     8
 74
     0
 42
0.00000001
 43
0.00000001
 40
0.0
 40
0.0
 40
0.0
 40
0.0
 40
0.2133534395476105
 40
0.4267919313634458
 40
0.6383539739091508
 40
0.8490950351927568
 40
1.0
 40
1.0
 40
1.0
 40
1.0
 10
560.4971046292037
 20
596.649740349305
 30
0.0
 10
560.5757486561148
 20
596.6789287882551
 30
0.0
 10
560.7330680609803
 20
596.7373173019786
 30
0.0
 10
560.9168714658457
 20
596.9177341827233
 30
0.0
 10
561.0323999529041
 20
597.1421437789527
 30
0.0
 10
561.0680147326518
 20
597.3698028228542
 30
0.0
 10
561.0414159265151
 20
597.5086794732621
 30
0.0
 10
561.0303169744615
 20
597.5666288893494
 30
0.0
  0
LINE
  5
129
330
1F
100
AcDbEntity
  8
0
  6
Continuous
 62
     7
370
    25
100
AcDbLine
 10
559.2886872248
 20
596.330010187
 30
0.0
 11
560.4971046292
 21
596.6497403493
 31
0.0
  0
CIRCLE
  5
12A
330
1F
100
AcDbEntity
  8
0
  6
Continuous
 62
     7
370
    25
100
AcDbCircle
 10
561.9556659039
 20
596.4150085705
 30
0.0
 40
4.197433366238822
  0
SPLINE
  5
12B
330
1F
100
AcDbEntity
  8
0
  6
Continuous
 62
     7
370
    25
100
AcDbSpline
210
0.0
220
0.0
230
1.0
 70
     8
 71
     3
 72
    12
 73
     8
 74
     0
 42
0.00000001
 43
0.00000001
 40
0.0
 40
0.0
 40
0.0
 40
0.0
 40
0.2133534395476105
 40
0.4267919313634458
 40
0.6383539739091507
 40
0.8490950351927564
 40
1.0
 40
1.0
 40
1.0
 40
1.0
 10
563.4142271785767
 20
596.180276791679
 30
0.0
 10
563.3355831516656
 20
596.1510883527291
 30
0.0
 10
563.1782637468001
 20
596.0926998390057
 30
0.0
 10
562.9944603419347
 20
595.9122829582608
 30
0.0
 10
562.8789318548763
 20
595.6878733620315
 30
0.0
 10
562.8433170751284
 20
595.4602143181299
 30
0.0
 10
562.8699158812652
 20
595.3213376677222
 30
0.0
 10
562.8810148333189
 20
595.2633882516348
 30
0.0
  0
SPLINE
  5
12C
330
1F
100
AcDbEntity
  8
0
  6
Continuous
 62
     7
370
    25
100
AcDbSpline
210
0.0
220
0.0
230
1.0
 70
     8
 71
     3
 72
    12
 73
     8
 74
     0
 42
0.00000001
 43
0.00000001
 40
0.0
 40
0.0
 40
0.0
 40
0.0
 40
0.2133534395476133
 40
0.4267919313634492
 40
0.6383539739091546
 40
0.8490950351927566
 40
1.0
 40
1.0
 40
1.0
 40
1.0
 10
562.1903976827032
 20
597.8735698451786
 30
0.0
 10
562.2195861216533
 20
597.7949258182674
 30
0.0
 10
562.2779746353765
 20
597.6376064134021
 30
0.0
 10
562.4583915161214
 20
597.4538030085365
 30
0.0
 10
562.6828011123508
 20
597.3382745214782
 30
0.0
 10
562.9104601562524
 20
597.3026597417304
 30
0.0
 10
563.04933680666
 20
597.3292585478671
 30
0.0
 10
563.1072862227476
 20
597.3403574999207
 30
0.0
  0
CIRCLE
  5
12D
330
1F
100
AcDbEntity
  8
0
  6
Continuous
 62
     7
370
    25
100
AcDbCircle
 10
561.9556659039
 20
596.4150085705
 30
0.0
 40
4.499999999999949
  0
LINE
  5
12E
330
1F
100
AcDbEntity
  8
0
  6
Continuous
 62
     7
370
    25
100
AcDbLine
 10
660.8886872248
 20
596.500006954
 30
0.0
 11
661.1956281806
 21
597.6600876622
 31
0.0
  0
LINE
  5
12F
330
1F
100
AcDbEntity
  8
0
  6
Continuous
 62
     7
370
    25
100
AcDbLine
 10
662.0971046292
 20
596.1802767917
 30
0.0
 11
660.8886872248
 21
596.500006954
 31
0.0
  0
LINE
  5
130
330
1F
100
AcDbEntity
  8
0
  6
Continuous
 62
     7
370
    25
100
AcDbLine
 10
662.3105868121
 20
594.0549708472
 30
0.0
 11
662.6303169745
 21
595.2633882516
 31
0.0
  0
LINE
  5
131
330
1F
100
AcDbEntity
  8
0
  6
Continuous
 62
     7
370
    25
100
AcDbLine
 10
663.4706675204
 20
593.7480298914
 30
0.0
 11
662.3105868121
 21
594.0549708472
 31
0.0
  0
LINE
  5
132
330
1F
100
AcDbEntity
  8
0
  6
Continuous
 62
     7
370
    25
100
AcDbLine
 10
663.7903976827
 20
594.9564472958
 30
0.0
 11
663.4706675204
 21
593.7480298914
 31
0.0
  0
LINE
  5
133
330
1F
100
AcDbEntity
  8
0
  6
Continuous
 62
     7
370
    25
100
AcDbLine
 10
665.9157036272
 20
595.1699294787
 30
0.0
 11
664.7072862227
 21
595.4896596411
 31
0.0
  0
LINE
  5
134
330
1F
100
AcDbEntity
  8
0
  6
Continuous
 62
     7
370
    25
100
AcDbLine
 10
666.222644583
 20
596.330010187
 30
0.0
 11
665.9157036272
 21
595.1699294787
 31
0.0
  0
LINE
  5
135
330
1F
100
AcDbEntity
  8
0
  6
Continuous
 62
     7
370
    25
100
AcDbLine
 10
665.0142271786
 20
596.6497403493
 30
0.0
 11
666.222644583
 21
596.330010187
 31
0.0
  0
SPLINE
  5
136
330
1F
100
AcDbEntity
  8
0
  6
Continuous
 62
     7
370
    25
100
AcDbSpline
210
0.0
220
0.0
230
1.0
 70
     8
 71
     3
 72
    12
 73
     8
 74
     0
 42
0.00000001
 43
0.00000001
 40
0.0
 40
0.0
 40
0.0
 40
0.0
 40
0.2133534395476122
 40
0.4267919313634442
 40
0.6383539739091508
 40
0.8490950351927531
 40
0.9999999999999999
 40
0.9999999999999999
 40
0.9999999999999999
 40
0.9999999999999999
 10
664.4810148333189
 20
597.5666288893494
 30
0.0
 10
664.4674905003643
 20
597.4838403614287
 30
0.0
 10
664.4404364430483
 20
597.31823030236
 30
0.0
 10
664.5063455412022
 20
597.0692525256843
 30
0.0
 10
664.6442562494598
 20
596.857859208028
 30
0.0
 10
664.8245125669615
 20
596.7143157901803
 30
0.0
 10
664.9583715129013
 20
596.6687526130715
 30
0.0
 10
665.0142271785767
 20
596.649740349305
 30
0.0
  0
LINE
  5
137
330
1F
100
AcDbEntity
  8
0
  6
Continuous
 62
     7
370
    25
100
AcDbLine
 10
664.8007449956
 20
598.7750462938
 30
0.0
 11
664.4810148333
 21
597.5666288893
 31
0.0
  0
LINE
  5
138
330
1F
100
AcDbEntity
  8
0
  6
Continuous
 62
     7
370
    25
100
AcDbLine
 10
663.6406642874
 20
599.0819872496
 30
0.0
 11
664.8007449956
 21
598.7750462938
 31
0.0
  0
LINE
  5
139
330
1F
100
AcDbEntity
  8
0
  6
Continuous
 62
     7
370
    25
100
AcDbLine
 10
663.3209341251
 20
597.8735698452
 30
0.0
 11
663.6406642874
 21
599.0819872496
 31
0.0
  0
SPLINE
  5
13A
330
1F
100
AcDbEntity
  8
0
  6
Continuous
 62
     7
370
    25
100
AcDbSpline
210
0.0
220
0.0
230
1.0
 70
     8
 71
     3
 72
    12
 73
     8
 74
     0
 42
0.00000001
 43
0.00000001
 40
0.0
 40
0.0
 40
0.0
 40
0.0
 40
0.2133534395476116
 40
0.4267919313634462
 40
0.6383539739091479
 40
0.8490950351927574
 40
1.0
 40
1.0
 40
1.0
 40
1.0
 10
662.4040455850328
 20
597.3403574999207
 30
0.0
 10
662.4868341129535
 20
597.3268331669663
 30
0.0
 10
662.6524441720223
 20
597.2997791096501
 30
0.0
 10
662.9014219486979
 20
597.3656882078042
 30
0.0
 10
663.1128152663542
 20
597.5035989160616
 30
0.0
 10
663.2563586842019
 20
597.6838552335633
 30
0.0
 10
663.3019218613108
 20
597.8177141795031
 30
0.0
 10
663.3209341250772
 20
597.8735698451786
 30
0.0
  0
LINE
  5
13B
330
1F
100
AcDbEntity
  8
0
  6
Continuous
 62
     7
370
    25
100
AcDbLine
 10
661.1956281806
 20
597.6600876622
 30
0.0
 11
662.404045585
 21
597.3403574999
 31
0.0
  0
CIRCLE
  5
13C
330
1F
100
AcDbEntity
  8
0
  6
Continuous
 62
     7
370
    25
100
AcDbCircle
 10
663.5556659039
 20
596.4150085705
 30
0.0
 40
4.197433366238822
  0
SPLINE
  5
13D
330
1F
100
AcDbEntity
  8
0
  6
Continuous
 62
     7
370
    25
100
AcDbSpline
210
0.0
220
0.0
230
1.0
 70
     8
 71
     3
 72
    12
 73
     8
 74
     0
 42
0.00000001
 43
0.00000001
 40
0.0
 40
0.0
 40
0.0
 40
0.0
 40
0.2133534395476124
 40
0.4267919313634466
 40
0.6383539739091505
 40
0.8490950351927581
 40
1.0
 40
1.0
 40
1.0
 40
1.0
 10
662.6303169744615
 20
595.2633882516348
 30
0.0
 10
662.6438413074162
 20
595.3461767795553
 30
0.0
 10
662.6708953647321
 20
595.5117868386242
 30
0.0
 10
662.6049862665782
 20
595.7607646152998
 30
0.0
 10
662.4670755583206
 20
595.9721579329561
 30
0.0
 10
662.2868192408189
 20
596.1157013508039
 30
0.0
 10
662.1529602948791
 20
596.1612645279126
 30
0.0
 10
662.0971046292037
 20
596.180276791679
 30
0.0
  0
SPLINE
  5
13E
330
1F
100
AcDbEntity
  8
0
  6
Continuous
 62
     7
370
    25
100
AcDbSpline
210
0.0
220
0.0
230
1.0
 70
     8
 71
     3
 72
    12
 73
     8
 74
     0
 42
0.00000001
 43
0.00000001
 40
0.0
 40
0.0
 40
0.0
 40
0.0
 40
0.2133534395476112
 40
0.4267919313634456
 40
0.6383539739091519
 40
0.8490950351927574
 40
1.0
 40
1.0
 40
1.0
 40
1.0
 10
664.7072862227476
 20
595.4896596410633
 30
0.0
 10
664.6244976948269
 20
595.5031839740179
 30
0.0
 10
664.4588876357581
 20
595.530238031334
 30
0.0
 10
664.2099098590825
 20
595.46432893318
 30
0.0
 10
663.9985165414262
 20
595.3264182249225
 30
0.0
 10
663.8549731235785
 20
595.1461619074207
 30
0.0
 10
663.8094099464696
 20
595.012302961481
 30
0.0
 10
663.7903976827033
 20
594.9564472958056
 30
0.0
  0
CIRCLE
  5
13F
330
1F
100
AcDbEntity
  8
0
  6
Continuous
 62
     7
370
    25
100
AcDbCircle
 10
663.5556659039
 20
596.4150085705
 30
0.0
 40
4.499999999999949
  0
CIRCLE
  5
140
330
1F
100
AcDbEntity
  8
0
  6
Continuous
 62
     7
370
    25
100
AcDbCircle
 10
561.9556659039
 20
596.4150085705
 30
0.0
 40
5.32891433662769
  0
CIRCLE
  5
141
330
1F
100
AcDbEntity
  8
0
  6
Continuous
 62
     7
370
    25
100
AcDbCircle
 10
561.9556659039
 20
596.4150085705
 30
0.0
 40
5.074569253689219
  0
CIRCLE
  5
142
330
1F
100
AcDbEntity
  8
0
  6
Continuous
 62
     7
370
    25
100
AcDbCircle
 10
561.9556659039
 20
596.4150085705
 30
0.0
 40
5.925127771161328
  0
CIRCLE
  5
143
330
1F
100
AcDbEntity
  8
0
  6
Continuous
 62
     7
370
    25
100
AcDbCircle
 10
561.9556659039
 20
596.4150085705
 30
0.0
 40
7.149999999999977
  0
SPLINE
  5
144
330
1F
100
AcDbEntity
  8
0
  6
Continuous
 62
     7
370
    25
100
AcDbSpline
210
0.0
220
0.0
230
1.0
 70
     8
 71
     3
 72
    11
 73
     7
 74
     0
 42
0.00000001
 43
0.00000001
 40
0.0
 40
0.0
 40
0.0
 40
0.0
 40
0.2200386424382248
 40
0.6637869905998172
 40
0.8890365590789576
 40
1.0
 40
1.0
 40
1.0
 40
1.0
 10
555.2780757592983
 20
590.6401115523695
 30
0.0
 10
555.0738542962969
 20
590.9051301636282
 30
0.0
 10
554.4577827334133
 20
591.704607493933
 30
0.0
 10
553.9342333823961
 20
592.9677767644608
 30
0.0
 10
553.682604182635
 20
594.134346577785
 30
0.0
 10
553.7033113773573
 20
594.6456263764444
 30
0.0
 10
553.7101455613833
 20
594.8143687039167
 30
0.0
  0
SPLINE
  5
145
330
1F
100
AcDbEntity
  8
0
  6
Continuous
 62
     7
370
    25
100
AcDbSpline
210
0.0
220
0.0
230
1.0
 70
     8
 71
     3
 72
     9
 73
     5
 74
     0
 42
0.00000001
 43
0.00000001
 40
0.0
 40
0.0
 40
0.0
 40
0.0
 40
0.9209630919903058
 40
1.0
 40
1.0
 40
1.0
 40
1.0
 10
553.638033396051
 20
590.960434828003
 30
0.0
 10
554.1524549339239
 20
590.9036077690844
 30
0.0
 10
554.7110240474385
 20
590.8419038208884
 30
0.0
 10
555.236540559108
 20
590.6548923600004
 30
0.0
 10
555.2780757592983
 20
590.6401115523695
 30
0.0
  0
SPLINE
  5
146
330
1F
100
AcDbEntity
  8
0
  6
Continuous
 62
     7
370
    25
100
AcDbSpline
210
0.0
220
0.0
230
1.0
 70
     8
 71
     3
 72
    10
 73
     6
 74
     0
 42
0.00000001
 43
0.00000001
 40
0.0
 40
0.0
 40
0.0
 40
0.0
 40
0.2596150688488839
 40
0.6297606444810658
 40
1.0
 40
1.0
 40
1.0
 40
1.0
 10
506.4628724421137
 20
593.5519923969921
 30
0.0
 10
510.5406926608368
 20
593.2522382598936
 30
0.0
 10
520.432455494202
 20
592.5251103647296
 30
0.0
 10
536.1620281768753
 20
591.6992634948393
 30
0.0
 10
547.8122064381399
 20
591.2067318455737
 30
0.0
 10
553.638033396051
 20
590.960434828003
 30
0.0
  0
SPLINE
  5
147
330
1F
100
AcDbEntity
  8
0
  6
Continuous
 62
     7
370
    25
100
AcDbSpline
210
0.0
220
0.0
230
1.0
 70
     8
 71
     3
 72
    11
 73
     7
 74
     0
 42
0.00000001
 43
0.00000001
 40
0.0
 40
0.0
 40
0.0
 40
0.0
 40
0.0614641195413919
 40
0.4999988937835378
 40
0.9375097801832796
 40
1.0
 40
1.0
 40
1.0
 40
1.0
 10
506.462872442114
 20
599.2780247439939
 30
0.0
 10
506.4512032459116
 20
599.1615677715419
 30
0.0
 10
506.3562765596423
 20
598.2142125042106
 30
0.0
 10
506.272573732376
 20
596.4169683057625
 30
0.0
 10
506.3561436558963
 20
594.6177702815216
 30
0.0
 10
506.4510153609414
 20
593.6703954570886
 30
0.0
 10
506.4628724421137
 20
593.5519923969921
 30
0.0
  0
SPLINE
  5
148
330
1F
100
AcDbEntity
  8
0
  6
Continuous
 62
     7
370
    25
100
AcDbSpline
210
0.0
220
0.0
230
1.0
 70
     8
 71
     3
 72
    10
 73
     6
 74
     0
 42
0.00000001
 43
0.00000001
 40
0.0
 40
0.0
 40
0.0
 40
0.0
 40
0.2594618540778873
 40
0.6296073956705972
 40
1.0
 40
1.0
 40
1.0
 40
1.0
 10
553.638033396051
 20
601.8695823129812
 30
0.0
 10
549.5551651579556
 20
601.7021980034556
 30
0.0
 10
539.6477201988909
 20
601.2960250052279
 30
0.0
 10
523.9164236374215
 20
600.5092416474973
 30
0.0
 10
512.2820166872102
 20
599.688521649656
 30
0.0
 10
506.462872442114
 20
599.2780247439939
 30
0.0
  0
SPLINE
  5
149
330
1F
100
AcDbEntity
  8
0
  6
Continuous
 62
     7
370
    25
100
AcDbSpline
210
0.0
220
0.0
230
1.0
 70
     8
 71
     3
 72
     9
 73
     5
 74
     0
 42
0.00000001
 43
0.00000001
 40
0.0
 40
0.0
 40
0.0
 40
0.0
 40
0.0790369080192175
 40
1.0
 40
1.0
 40
1.0
 40
1.0
 10
555.2780757592975
 20
602.1899055886145
 30
0.0
 10
555.2365405591022
 20
602.1751247809818
 30
0.0
 10
554.7110240474329
 20
601.9881133200939
 30
0.0
 10
554.1524549339183
 20
601.9264093718986
 30
0.0
 10
553.638033396051
 20
601.8695823129812
 30
0.0
  0
SPLINE
  5
14A
330
1F
100
AcDbEntity
  8
0
  6
Continuous
 62
     7
370
    25
100
AcDbSpline
210
0.0
220
0.0
230
1.0
 70
     8
 71
     3
 72
    11
 73
     7
 74
     0
 42
0.00000001
 43
0.00000001
 40
0.0
 40
0.0
 40
0.0
 40
0.0
 40
0.0728838064943292
 40
0.4140719411596028
 40
0.9209668754550557
 40
1.0
 40
1.0
 40
1.0
 40
1.0
 10
553.7101455613871
 20
598.0156484370527
 30
0.0
 10
553.7024304122494
 20
598.1260948712917
 30
0.0
 10
553.6585986348848
 20
598.7535699116227
 30
0.0
 10
554.0030903463229
 20
600.1365619420876
 30
0.0
 10
554.6427796958093
 20
601.4064934598651
 30
0.0
 10
555.202568445242
 20
602.0967941260383
 30
0.0
 10
555.2780757592975
 20
602.1899055886145
 30
0.0
  0
SPLINE
  5
14B
330
1F
100
AcDbEntity
  8
0
  6
Continuous
 62
     7
370
    25
100
AcDbSpline
210
0.0
220
0.0
230
1.0
 70
     8
 71
     3
 72
    10
 73
     6
 74
     0
 42
0.00000001
 43
0.00000001
 40
0.0
 40
0.0
 40
0.0
 40
0.0
 40
0.3880207377811387
 40
0.979063776650686
 40
1.0
 40
1.0
 40
1.0
 40
1.0
 10
553.7101455613833
 20
594.8143687039167
 30
0.0
 10
553.7834600921427
 20
595.2252085657724
 30
0.0
 10
553.968449177466
 20
596.2618501356208
 30
0.0
 10
553.8727422516349
 20
597.355619457192
 30
0.0
 10
553.7155241003871
 20
597.9938153259114
 30
0.0
 10
553.7101455613871
 20
598.0156484370527
 30
0.0
  0
ARC
  5
14C
330
1F
100
AcDbEntity
  8
0
  6
Continuous
 62
     7
370
    25
100
AcDbCircle
 10
561.9556659039
 20
596.4150085705
 30
0.0
 40
8.39944365426456
100
AcDbArc
 50
190.985757993
 51
169.0142420071
  0
SPLINE
  5
14D
330
1F
100
AcDbEntity
  8
0
  6
Continuous
 62
     7
370
    25
100
AcDbSpline
210
0.0
220
0.0
230
1.0
 70
     8
 71
     3
 72
     9
 73
     5
 74
     0
 42
0.00000001
 43
0.00000001
 40
0.0
 40
0.0
 40
0.0
 40
0.0
 40
0.6817923421274298
 40
1.0
 40
1.0
 40
1.0
 40
1.0
 10
555.2780757592975
 20
602.1899055886145
 30
0.0
 10
555.4203393199406
 20
602.3798159437197
 30
0.0
 10
555.629000450101
 20
602.6583616875932
 30
0.0
 10
555.8584262839814
 20
602.8912660605362
 30
0.0
 10
555.9314313412359
 20
602.9653780155586
 30
0.0
  0
ARC
  5
14E
330
1F
100
AcDbEntity
  8
0
  6
Continuous
 62
     7
370
    25
100
AcDbCircle
 10
561.9556659039
 20
596.4150085705
 30
0.0
 40
8.899367501836373
100
AcDbArc
 50
227.3959191961
 51
132.6040808039
  0
LINE
  5
14F
330
1F
100
AcDbEntity
  8
0
  6
Continuous
 62
     7
370
    25
100
AcDbLine
 10
555.9314313412
 20
589.8646391254
 30
0.0
 11
555.2780757593
 21
590.6401115524
 31
0.0
  0
SPLINE
  5
150
330
1F
100
AcDbEntity
  8
0
  6
Continuous
 62
     7
370
    25
100
AcDbSpline
210
0.0
220
0.0
230
1.0
 70
     8
 71
     3
 72
    10
 73
     6
 74
     0
 42
0.00000001
 43
0.00000001
 40
0.0
 40
0.0
 40
0.0
 40
0.0
 40
0.3702896688583042
 40
0.7405318123903297
 40
0.9999999999999999
 40
0.9999999999999999
 40
0.9999999999999999
 40
0.9999999999999999
 10
506.4513529789355
 20
599.7208843248271
 30
0.0
 10
512.2714168251539
 20
600.0410753393535
 30
0.0
 10
523.9107975336575
 20
600.6814162730591
 30
0.0
 10
539.6296659404323
 20
601.5506506049223
 30
0.0
 10
549.5268397564421
 20
602.0993916065315
 30
0.0
 10
553.6049080769062
 20
602.3254968903633
 30
0.0
  0
ARC
  5
151
330
1F
100
AcDbEntity
  8
0
  6
Continuous
 62
     7
370
    25
100
AcDbCircle
 10
546.3898188695
 20
601.5721105237
 30
0.0
 40
7.254316183352731
100
AcDbArc
 50
2.3501399448
 51
5.9611177313
  0
ARC
  5
152
330
1F
100
AcDbEntity
  8
0
  6
Continuous
 62
     7
370
    25
100
AcDbCircle
 10
510.7118755201
 20
599.6101275008
 30
0.0
 40
4.261961918835608
100
AcDbArc
 50
178.5108705386
 51
184.4691613065
  0
SPLINE
  5
153
330
1F
100
AcDbEntity
  8
0
  6
Continuous
 62
     7
370
    25
100
AcDbSpline
210
0.0
220
0.0
230
1.0
 70
     8
 71
     3
 72
    10
 73
     6
 74
     0
 42
0.00000001
 43
0.00000001
 40
0.0
 40
0.0
 40
0.0
 40
0.0
 40
0.3702717503651156
 40
0.7405122151371748
 40
1.0
 40
1.0
 40
1.0
 40
1.0
 10
553.6049080769063
 20
590.5045202506209
 30
0.0
 10
547.785236015237
 20
590.8270487362888
 30
0.0
 10
536.1463836169402
 20
591.4720784560318
 30
0.0
 10
520.4272440329855
 20
592.3408929435108
 30
0.0
 10
510.5297466092869
 20
592.8849478542776
 30
0.0
 10
506.4513529789389
 20
593.1091328161567
 30
0.0
  0
ARC
  5
154
330
1F
100
AcDbEntity
  8
0
  6
Continuous
 62
     7
370
    25
100
AcDbCircle
 10
510.711875523
 20
593.2198896401
 30
0.0
 40
4.261961921791691
100
AcDbArc
 50
175.530838696
 51
181.4891294598
  0
ARC
  5
155
330
1F
100
AcDbEntity
  8
0
  6
Continuous
 62
     7
370
    25
100
AcDbCircle
 10
546.3898188693
 20
591.2579066173
 30
0.0
 40
7.254316183588257
100
AcDbArc
 50
354.0388822687
 51
357.6498600551
  0
SPLINE
  5
156
330
1F
100
AcDbEntity
  8
0
  6
Continuous
 62
     7
370
    25
100
AcDbSpline
210
0.0
220
0.0
230
1.0
 70
     8
 71
     3
 72
    12
 73
     8
 74
     0
 42
0.00000001
 43
0.00000001
 40
0.0
 40
0.0
 40
0.0
 40
0.0
 40
0.1224290494151362
 40
0.3423522449770489
 40
0.5614228816909436
 40
0.7807229538533521
 40
1.0
 40
1.0
 40
1.0
 40
1.0
 10
504.5271450092663
 20
593.6626667666483
 30
0.0
 10
504.5361490851303
 20
593.6603080822074
 30
0.0
 10
504.5613274688614
 20
593.6537124178826
 30
0.0
 10
504.7773151525061
 20
593.6367044501434
 30
0.0
 10
505.2132132822351
 20
593.611193475989
 30
0.0
 10
505.7971388956655
 20
593.5816412934296
 30
0.0
 10
506.2409690272335
 20
593.5618750165506
 30
0.0
 10
506.4628724421137
 20
593.5519923969921
 30
0.0
  0
SPLINE
  5
157
330
1F
100
AcDbEntity
  8
0
  6
Continuous
 62
     7
370
    25
100
AcDbSpline
210
0.0
220
0.0
230
1.0
 70
     8
 71
     3
 72
    11
 73
     7
 74
     0
 42
0.00000001
 43
0.00000001
 40
0.0
 40
0.0
 40
0.0
 40
0.0
 40
0.0800485240044433
 40
0.5000005853538798
 40
0.9209248322279645
 40
1.0
 40
1.0
 40
1.0
 40
1.0
 10
504.5271450092663
 20
593.6626667666483
 30
0.0
 10
504.5274312536805
 20
593.808911191749
 30
0.0
 10
504.529219198885
 20
594.722385850582
 30
0.0
 10
504.5304548957149
 20
596.4167954383406
 30
0.0
 10
504.5292171976201
 20
598.1094222901952
 30
0.0
 10
504.5274279756521
 20
599.0228856658391
 30
0.0
 10
504.5271450092662
 20
599.1673503743303
 30
0.0
  0
SPLINE
  5
158
330
1F
100
AcDbEntity
  8
0
  6
Continuous
 62
     7
370
    25
100
AcDbSpline
210
0.0
220
0.0
230
1.0
 70
     8
 71
     3
 72
    12
 73
     8
 74
     0
 42
0.00000001
 43
0.00000001
 40
0.0
 40
0.0
 40
0.0
 40
0.0
 40
0.1130367476169282
 40
0.3328594693547963
 40
0.5544127937944965
 40
0.7774207483513224
 40
1.0
 40
1.0
 40
1.0
 40
1.0
 10
506.462872442114
 20
599.2780247439939
 30
0.0
 10
506.348801602127
 20
599.2730094982926
 30
0.0
 10
506.0128970395191
 20
599.2582410972368
 30
0.0
 10
505.4788291831245
 20
599.2326488931275
 30
0.0
 10
504.9623035452373
 20
599.2047736302563
 30
0.0
 10
504.6054088280828
 20
599.1813317566658
 30
0.0
 10
504.5532162105644
 20
599.1720078449063
 30
0.0
 10
504.5271450092662
 20
599.1673503743303
 30
0.0
  0
SPLINE
  5
159
330
1F
100
AcDbEntity
  8
0
  6
Continuous
 62
     7
370
    25
100
AcDbSpline
210
0.0
220
0.0
230
1.0
 70
     8
 71
     3
 72
     9
 73
     5
 74
     0
 42
0.00000001
 43
0.00000001
 40
0.0
 40
0.0
 40
0.0
 40
0.0
 40
0.5000106123815449
 40
1.0
 40
1.0
 40
1.0
 40
1.0
 10
556.4310391900789
 20
589.4328074361792
 30
0.0
 10
556.001317823258
 20
589.7206479742725
 30
0.0
 10
555.1418933306974
 20
590.2963168320239
 30
0.0
 10
554.1172292454191
 20
590.4351200931106
 30
0.0
 10
553.6049080769063
 20
590.5045202506209
 30
0.0
  0
SPLINE
  5
15A
330
1F
100
AcDbEntity
  8
0
  6
Continuous
 62
     7
370
    25
100
AcDbSpline
210
0.0
220
0.0
230
1.0
 70
     8
 71
     3
 72
     9
 73
     5
 74
     0
 42
0.00000001
 43
0.00000001
 40
0.0
 40
0.0
 40
0.0
 40
0.0
 40
0.9838702326459322
 40
1.0
 40
1.0
 40
1.0
 40
1.0
 10
555.9314313412359
 20
589.8646391254255
 30
0.0
 10
556.0927721561702
 20
589.7198067124065
 30
0.0
 10
556.2567580250184
 20
589.5725998875496
 30
0.0
 10
556.4282726983009
 20
589.435026463503
 30
0.0
 10
556.4310391900789
 20
589.4328074361792
 30
0.0
  0
SPLINE
  5
15B
330
1F
100
AcDbEntity
  8
0
  6
Continuous
 62
     7
370
    25
100
AcDbSpline
210
0.0
220
0.0
230
1.0
 70
     8
 71
     3
 72
     9
 73
     5
 74
     0
 42
0.00000001
 43
0.00000001
 40
0.0
 40
0.0
 40
0.0
 40
0.0
 40
0.5055561057107315
 40
1.0
 40
1.0
 40
1.0
 40
1.0
 10
553.6049080769062
 20
602.3254968903633
 30
0.0
 10
554.1229675942393
 20
602.3961529246334
 30
0.0
 10
555.1476995903146
 20
602.5359119612107
 30
0.0
 10
556.0064401590762
 20
603.1122452360065
 30
0.0
 10
556.4310391900789
 20
603.3972097048049
 30
0.0
  0
SPLINE
  5
15C
330
1F
100
AcDbEntity
  8
0
  6
Continuous
 62
     7
370
    25
100
AcDbSpline
210
0.0
220
0.0
230
1.0
 70
     8
 71
     3
 72
     9
 73
     5
 74
     0
 42
0.00000001
 43
0.00000001
 40
0.0
 40
0.0
 40
0.0
 40
0.0
 40
0.0161297673533178
 40
1.0
 40
1.0
 40
1.0
 40
1.0
 10
556.4310391900789
 20
603.3972097048049
 30
0.0
 10
556.428272698301
 20
603.394990677481
 30
0.0
 10
556.2567580250144
 20
603.2574172534315
 30
0.0
 10
556.0927721561683
 20
603.1102104285761
 30
0.0
 10
555.9314313412359
 20
602.9653780155586
 30
0.0
  0
SPLINE
  5
15D
330
1F
100
AcDbEntity
  8
0
  6
Continuous
 62
     7
370
    25
100
AcDbSpline
210
0.0
220
0.0
230
1.0
 70
     8
 71
     3
 72
    12
 73
     8
 74
     0
 42
0.00000001
 43
0.00000001
 40
0.0
 40
0.0
 40
0.0
 40
0.0
 40
0.2230315344150378
 40
0.4461337558340359
 40
0.6675099896777023
 40
0.8870667292265011
 40
1.0
 40
1.0
 40
1.0
 40
1.0
 10
504.9994992743507
 20
599.6665134453788
 30
0.0
 10
505.0190330604767
 20
599.664623198084
 30
0.0
 10
505.0581068237132
 20
599.6608421044047
 30
0.0
 10
505.3256960057694
 20
599.6677849406753
 30
0.0
 10
505.7132250895945
 20
599.6833737631652
 30
0.0
 10
506.1139472020575
 20
599.7027110432293
 30
0.0
 10
506.3658066243153
 20
599.7162766444059
 30
0.0
 10
506.4513529789355
 20
599.7208843248271
 30
0.0
  0
ARC
  5
15E
330
1F
100
AcDbEntity
  8
0
  6
Continuous
 62
     7
370
    25
100
AcDbCircle
 10
505.0272448969
 20
599.167183789
 30
0.0
 40
0.5000999153470742
100
AcDbArc
 50
93.1804119247
 51
179.9809145383
  0
SPLINE
  5
15F
330
1F
100
AcDbEntity
  8
0
  6
Continuous
 62
     7
370
    25
100
AcDbSpline
210
0.0
220
0.0
230
1.0
 70
     8
 71
     3
 72
    12
 73
     8
 74
     0
 42
0.00000001
 43
0.00000001
 40
0.0
 40
0.0
 40
0.0
 40
0.0
 40
0.2190444340109337
 40
0.4380981679380299
 40
0.6571027493691836
 40
0.8772791087290026
 40
1.0
 40
1.0
 40
1.0
 40
1.0
 10
506.4513529789389
 20
593.1091328161567
 30
0.0
 10
506.2849352381681
 20
593.1179616291065
 30
0.0
 10
505.952092691069
 20
593.1356196298487
 30
0.0
 10
505.5139342484257
 20
593.1551381192578
 30
0.0
 10
505.1869684216663
 20
593.1664439028901
 30
0.0
 10
505.025124544652
 20
593.1682677709667
 30
0.0
 10
505.0062532122399
 20
593.1647593416419
 30
0.0
 10
504.9994992743507
 20
593.1635036956053
 30
0.0
  0
ARC
  5
160
330
1F
100
AcDbEntity
  8
0
  6
Continuous
 62
     7
370
    25
100
AcDbCircle
 10
505.0272448969
 20
593.662833352
 30
0.0
 40
0.5000999153471877
100
AcDbArc
 50
180.0190854624
 51
266.8195880753
  0
LINE
  5
161
330
1F
100
AcDbEntity
  8
0
  6
Continuous
 62
     7
370
    25
100
AcDbLine
 10
553.6049080769
 20
602.3254968904
 30
0.0
 11
553.5779218952
 21
602.3967871657
 31
0.0
  0
LINE
  5
162
330
1F
100
AcDbEntity
  8
0
  6
Continuous
 62
     7
370
    25
100
AcDbLine
 10
504.9948089137
 20
599.6709518984
 30
0.0
 11
504.9994992744
 21
599.6665134454
 31
0.0
  0
ELLIPSE
  5
163
330
1F
100
AcDbEntity
  8
0
  6
Continuous
 62
     7
370
    25
100
AcDbEllipse
 10
506.4945804564
 20
599.7542443484
 30
0.0
 11
1.499999304622861
 21
0.0828726334386829
 31
0.0
210
0.0
220
0.0
230
1.0
 40
0.0174284859
 41
2.255125316698592
 42
3.158083049611168
  0
LINE
  5
164
330
1F
100
AcDbEntity
  8
0
  6
Continuous
 62
     7
370
    25
100
AcDbLine
 10
509.0101951254
 20
599.9630039365
 30
0.0
 11
505.545231916
 21
599.7221126575
 31
0.0
  0
LINE
  5
165
330
1F
100
AcDbEntity
  8
0
  6
Continuous
 62
     7
370
    25
100
AcDbLine
 10
509.0101951254
 20
599.9629055452
 30
0.0
 11
509.0101951254
 21
599.9630039365
 31
0.0
  0
ELLIPSE
  5
166
330
1F
100
AcDbEntity
  8
0
  6
Continuous
 62
     7
370
    25
100
AcDbEllipse
 10
518.4596815464
 20
600.2925515967
 30
0.0
 11
14.49999327802038
 21
0.801102123240753
 31
0.0
210
0.0
220
0.0
230
1.0
 40
0.0174284859
 41
1.543516838852426
 42
2.279642175407713
  0
ELLIPSE
  5
167
330
1F
100
AcDbEntity
  8
0
  6
Continuous
 62
     7
370
    25
100
AcDbEllipse
 10
519.7806914619
 20
601.242835146
 30
0.0
 11
35.70262504606001
 21
1.972514619921867
 31
0.0
210
0.0
220
0.0
230
1.0
 40
0.0174284859
 41
4.685109492442211
 42
5.167309992307987
  0
ELLIPSE
  5
168
330
1F
100
AcDbEntity
  8
0
  6
Continuous
 62
     7
370
    25
100
AcDbEllipse
 10
538.800918934
 20
601.6152312057
 30
0.0
 11
7.499996523113964
 21
0.4143631671934145
 31
0.0
210
0.0
220
0.0
230
1.0
 40
0.0174284859
 41
1.834826681008195
 42
2.02571733871814
  0
LINE
  5
169
330
1F
100
AcDbEntity
  8
0
  6
Continuous
 62
     7
370
    25
100
AcDbLine
 10
536.8562665329
 20
601.4828867545
 30
0.0
 11
536.8366482756
 21
601.6332772991
 31
0.0
  0
SPLINE
  5
16A
330
1F
100
AcDbEntity
  8
0
  6
Continuous
 62
     7
370
    25
100
AcDbSpline
210
0.0
220
0.0
230
1.0
 70
     8
 71
     3
 72
    10
 73
     6
 74
     0
 42
0.00000001
 43
0.00000001
 40
0.0
 40
0.0
 40
0.0
 40
0.0
 40
0.0186368637457406
 40
0.3939469944633167
 40
1.0
 40
1.0
 40
1.0
 40
1.0
 10
537.0400378186364
 20
601.4833731217673
 30
0.0
 10
537.0375816113878
 20
601.4832853712879
 30
0.0
 10
536.9856621749107
 20
601.4814304970951
 30
0.0
 10
536.881663326433
 20
601.4787505157168
 30
0.0
 10
536.8659626690836
 20
601.4813075971143
 30
0.0
 10
536.8562665329399
 20
601.4828867545223
 30
0.0
  0
LINE
  5
16B
330
1F
100
AcDbEntity
  8
0
  6
Continuous
 62
     7
370
    25
100
AcDbLine
 10
553.5779218952
 20
602.3967871657
 30
0.0
 11
537.0400378186
 21
601.4833731218
 31
0.0
  0
LINE
  5
16C
330
1F
100
AcDbEntity
  8
0
  6
Continuous
 62
     7
370
    25
100
AcDbLine
 10
537.0379720867
 20
591.3304403704
 30
0.0
 11
553.5718805102
 21
590.4172459082
 31
0.0
  0
SPLINE
  5
16D
330
1F
100
AcDbEntity
  8
0
  6
Continuous
 62
     7
370
    25
100
AcDbSpline
210
0.0
220
0.0
230
1.0
 70
     8
 71
     3
 72
    11
 73
     7
 74
     0
 42
0.00000001
 43
0.00000001
 40
0.0
 40
0.0
 40
0.0
 40
0.0
 40
0.417746929449536
 40
0.8392770662410924
 40
0.9817832068819766
 40
1.0
 40
1.0
 40
1.0
 40
1.0
 10
536.8542666460681
 20
591.3317898156754
 30
0.0
 10
536.8589036741
 20
591.332873006859
 30
0.0
 10
536.8682197241014
 20
591.3350491988421
 30
0.0
 10
536.9437161898514
 20
591.3338470219506
 30
0.0
 10
537.0139763904236
 20
591.3313764946106
 30
0.0
 10
537.0355292270812
 20
591.3305356716537
 30
0.0
 10
537.0379720867111
 20
591.3304403703953
 30
0.0
  0
LINE
  5
16E
330
1F
100
AcDbEntity
  8
0
  6
Continuous
 62
     7
370
    25
100
AcDbLine
 10
536.8366482756
 20
591.1967398419
 30
0.0
 11
536.8542666461
 21
591.3317898157
 31
0.0
  0
ELLIPSE
  5
16F
330
1F
100
AcDbEntity
  8
0
  6
Continuous
 62
     7
370
    25
100
AcDbEllipse
 10
538.800918934
 20
591.2147859353
 30
0.0
 11
7.499996523113964
 21
-0.4143631671934145
 31
0.0
210
0.0
220
0.0
230
1.0
 40
0.0174284859
 41
4.257467968461601
 42
4.448358626171899
  0
ELLIPSE
  5
170
330
1F
100
AcDbEntity
  8
0
  6
Continuous
 62
     7
370
    25
100
AcDbEllipse
 10
519.7806914619
 20
591.587181995
 30
0.0
 11
35.70262504606012
 21
-1.972514619921867
 31
0.0
210
0.0
220
0.0
230
1.0
 40
0.0174284859
 41
1.115875314871825
 42
1.598075814737371
  0
ELLIPSE
  5
171
330
1F
100
AcDbEntity
  8
0
  6
Continuous
 62
     7
370
    25
100
AcDbEllipse
 10
518.4596815464
 20
592.5374655443
 30
0.0
 11
14.49999327802038
 21
-0.8011021232406392
 31
0.0
210
0.0
220
0.0
230
1.0
 40
0.0174284859
 41
4.003543131771751
 42
4.739668468327172
  0
LINE
  5
172
330
1F
100
AcDbEntity
  8
0
  6
Continuous
 62
     7
370
    25
100
AcDbLine
 10
509.0101951254
 20
592.8670132045
 30
0.0
 11
509.0101951254
 21
592.8671115957
 31
0.0
  0
LINE
  5
173
330
1F
100
AcDbEntity
  8
0
  6
Continuous
 62
     7
370
    25
100
AcDbLine
 10
505.545231916
 20
593.1079044835
 30
0.0
 11
509.0101951254
 21
592.8670132045
 31
0.0
  0
ELLIPSE
  5
174
330
1F
100
AcDbEntity
  8
0
  6
Continuous
 62
     7
370
    25
100
AcDbEllipse
 10
506.4945804564
 20
593.0757727925
 30
0.0
 11
1.499999304622861
 21
-0.0828726334386829
 31
0.0
210
0.0
220
0.0
230
1.0
 40
0.0174284859
 41
3.125102257569152
 42
4.02805999048058
  0
LINE
  5
175
330
1F
100
AcDbEntity
  8
0
  6
Continuous
 62
     7
370
    25
100
AcDbLine
 10
504.9994992744
 20
593.1635036956
 30
0.0
 11
504.9948089137
 21
593.1590652425
 31
0.0
  0
LINE
  5
176
330
1F
100
AcDbEntity
  8
0
  6
Continuous
 62
     7
370
    25
100
AcDbLine
 10
553.5718805102
 20
590.4172459082
 30
0.0
 11
553.6049080769
 21
590.5045202506
 31
0.0
  0
SPLINE
  5
177
330
1F
100
AcDbEntity
  8
0
  6
Continuous
 62
     7
370
    25
100
AcDbSpline
210
0.0
220
0.0
230
1.0
 70
     8
 71
     3
 72
     9
 73
     5
 74
     0
 42
0.00000001
 43
0.00000001
 40
0.0
 40
0.0
 40
0.0
 40
0.0
 40
0.5001021276704715
 40
0.9999999999999999
 40
0.9999999999999999
 40
0.9999999999999999
 40
0.9999999999999999
 10
556.3978203240234
 20
603.4629011517652
 30
0.0
 10
555.9688725483161
 20
603.1763755176767
 30
0.0
 10
555.1111521908656
 20
602.6034412743788
 30
0.0
 10
554.0889290622504
 20
602.4656624879246
 30
0.0
 10
553.5779218952097
 20
602.396787165724
 30
0.0
  0
LINE
  5
178
330
1F
100
AcDbEntity
  8
0
  6
Continuous
 62
     7
370
    25
100
AcDbLine
 10
556.397820324
 20
603.4629011518
 30
0.0
 11
556.4310391901
 21
603.3972097048
 31
0.0
  0
SPLINE
  5
179
330
1F
100
AcDbEntity
  8
0
  6
Continuous
 62
     7
370
    25
100
AcDbSpline
210
0.0
220
0.0
230
1.0
 70
     8
 71
     3
 72
     9
 73
     5
 74
     0
 42
0.00000001
 43
0.00000001
 40
0.0
 40
0.0
 40
0.0
 40
0.0
 40
0.4007227371565292
 40
1.0
 40
1.0
 40
1.0
 40
1.0
 10
553.571880510158
 20
590.4172459081807
 30
0.0
 10
553.9805666335673
 20
590.368838646115
 30
0.0
 10
555.0004391926071
 20
590.2480387573712
 30
0.0
 10
555.869515236433
 20
589.6879314840176
 30
0.0
 10
556.3903327491798
 20
589.3522719303435
 30
0.0
  0
LINE
  5
17A
330
1F
100
AcDbEntity
  8
0
  6
Continuous
 62
     7
370
    25
100
AcDbLine
 10
556.4310391901
 20
589.4328074362
 30
0.0
 11
556.3903327492
 21
589.3522719303
 31
0.0
  0
ARC
  5
17B
330
1F
100
AcDbEntity
  8
0
  6
Continuous
 62
     7
370
    25
100
AcDbCircle
 10
561.9556659039
 20
596.4150085705
 30
0.0
 40
8.97565804422223
100
AcDbArc
 50
65.1648853947
 51
128.2586979829
  0
LWPOLYLINE
  5
17C
330
1F
100
AcDbEntity
  8
0
  6
Continuous
 62
     7
370
    25
100
AcDbPolyline
 90
        3
 70
   128
 43
0.0
 10
565.8909793281
 20
604.6656682938
 10
565.786397764
 20
604.5994158825
 10
565.7255172213
 20
604.5605999162
  0
ARC
  5
17D
330
1F
100
AcDbEntity
  8
0
  6
Continuous
 62
     7
370
    25
100
AcDbCircle
 10
561.9556659039
 20
596.4150085705
 30
0.0
 40
9.14112015109221
100
AcDbArc
 50
295.4997164176
 51
64.5002794289
  0
LWPOLYLINE
  5
17E
330
1F
100
AcDbEntity
  8
0
  6
Continuous
 62
     7
370
    25
100
AcDbPolyline
 90
        3
 70
   128
 43
0.0
 10
565.7418101317
 20
588.259011154
 10
565.786397764
 20
588.2306012584
 10
565.8909793284
 20
588.164348847
  0
ARC
  5
17F
330
1F
100
AcDbEntity
  8
0
  6
Continuous
 62
     7
370
    25
100
AcDbCircle
 10
561.9556659039
 20
596.4150085705
 30
0.0
 40
8.991950954660663
100
AcDbArc
 50
231.762407147
 51
294.9014811666
  0
LINE
  5
180
330
1F
100
AcDbEntity
  8
0
  6
Continuous
 62
     7
370
    25
100
AcDbLine
 10
504.5224546486
 20
593.6582283136
 30
0.0
 11
504.5271450093
 21
593.6626667666
 31
0.0
  0
LINE
  5
181
330
1F
100
AcDbEntity
  8
0
  6
Continuous
 62
     7
370
    25
100
AcDbLine
 10
504.5224546486
 20
599.1717888274
 30
0.0
 11
504.5224546486
 21
593.6582283136
 31
0.0
  0
LINE
  5
182
330
1F
100
AcDbEntity
  8
0
  6
Continuous
 62
     7
370
    25
100
AcDbLine
 10
504.5271450093
 20
599.1673503743
 30
0.0
 11
504.5224546486
 21
599.1717888274
 31
0.0
  0
ARC
  5
183
330
1F
100
AcDbEntity
  8
0
  6
Continuous
 62
     7
370
    25
100
AcDbCircle
 10
505.0225545362
 20
593.6583948989
 30
0.0
 40
0.5000999153471877
100
AcDbArc
 50
180.0190854617
 51
266.8195880753
  0
ARC
  5
184
330
1F
100
AcDbEntity
  8
0
  6
Continuous
 62
     7
370
    25
100
AcDbCircle
 10
505.0225545362
 20
599.171622242
 30
0.0
 40
0.5000999153471978
100
AcDbArc
 50
93.1804119248
 51
179.9809145383
  0
LINE
  5
185
330
1F
100
AcDbEntity
  8
0
  6
Continuous
 62
     7
370
    25
100
AcDbLine
 10
505.545231916
 20
593.1079044835
 30
0.0
 11
505.5381241852
 21
593.1082715201
 31
0.0
  0
LINE
  5
186
330
1F
100
AcDbEntity
  8
0
  6
Continuous
 62
     7
370
    25
100
AcDbLine
 10
505.545231916
 20
599.7221126575
 30
0.0
 11
505.5381241852
 21
599.7217456208
 31
0.0
  0
SPLINE
  5
187
330
1F
100
AcDbEntity
  8
0
  6
Continuous
 62
     7
370
    25
100
AcDbSpline
210
0.0
220
0.0
230
1.0
 70
     8
 71
     3
 72
    12
 73
     8
 74
     0
 42
0.00000001
 43
0.00000001
 40
0.0
 40
0.0
 40
0.0
 40
0.0
 40
0.1662426524176543
 40
0.3368059756191302
 40
0.6054181071254584
 40
0.8801435087136191
 40
1.0
 40
1.0
 40
1.0
 40
1.0
 10
555.8336066565796
 20
608.091668952163
 30
0.0
 10
556.4712881771158
 20
607.93618377668
 30
0.0
 10
557.7632246539164
 20
607.6211723433248
 30
0.0
 10
559.9474110362657
 20
606.9582072383263
 30
0.0
 10
562.3093853798256
 20
606.1060123215209
 30
0.0
 10
564.2749229417182
 20
605.2633836429088
 30
0.0
 10
565.3886979265137
 20
604.7255255502137
 30
0.0
 10
565.7270134046712
 20
604.5621480993864
 30
0.0
  0
LINE
  5
188
330
1F
100
AcDbEntity
  8
0
  6
Continuous
 62
     7
370
    25
100
AcDbLine
 10
555.8336066566
 20
608.0916689522
 30
0.0
 11
555.8494647335
 21
608.1611424837
 31
0.0
  0
ARC
  5
189
330
1F
100
AcDbEntity
  8
0
  6
Continuous
 62
     7
370
    25
100
AcDbCircle
 10
545.127686497
 20
561.1895076715
 30
0.0
 40
48.17977797259059
100
AcDbArc
 50
64.4718479123
 51
77.1419190681
  0
LWPOLYLINE
  5
18A
330
1F
100
AcDbEntity
  8
0
  6
Continuous
 62
     7
370
    25
100
AcDbPolyline
 90
        3
 70
   128
 43
0.0
 10
565.7270134047
 20
604.5621480994
 10
565.786401255
 20
604.599671803
 10
565.8909793278
 20
604.6656698328
  0
SPLINE
  5
18B
330
1F
100
AcDbEntity
  8
0
  6
Continuous
 62
     7
370
    25
100
AcDbSpline
210
0.0
220
0.0
230
1.0
 70
     8
 71
     3
 72
    11
 73
     7
 74
     0
 42
0.00000001
 43
0.00000001
 40
0.0
 40
0.0
 40
0.0
 40
0.0
 40
0.1345990676765949
 40
0.4126978815969498
 40
0.6969472592954598
 40
1.0
 40
1.0
 40
1.0
 40
1.0
 10
565.7262958277141
 20
604.5614065333125
 30
0.0
 10
565.2969898074658
 20
604.7522904184735
 30
0.0
 10
563.9806828807417
 20
605.3375647178933
 30
0.0
 10
561.6048728298584
 20
605.960032601917
 30
0.0
 10
558.5511834449773
 20
606.3365352844173
 30
0.0
 10
556.3601535366166
 20
606.3636766127502
 30
0.0
 10
555.2295640190787
 20
606.3776817621952
 30
0.0
  0
ARC
  5
18C
330
1F
100
AcDbEntity
  8
0
  6
Continuous
 62
     7
370
    25
100
AcDbCircle
 10
559.7220950121
 20
605.7578577176
 30
0.0
 40
4.535087272516424
100
AcDbArc
 50
149.0284626407
 51
172.1446266983
  0
LINE
  5
18D
330
1F
100
AcDbEntity
  8
0
  6
Continuous
 62
     7
370
    25
100
AcDbLine
 10
565.7270134047
 20
604.5621480994
 30
0.0
 11
565.7262958277
 21
604.5614065333
 31
0.0
  0
LINE
  5
18E
330
1F
100
AcDbEntity
  8
0
  6
Continuous
 62
     7
370
    25
100
AcDbLine
 10
556.397820324
 20
603.4629011518
 30
0.0
 11
554.1999484039
 21
606.2500180261
 31
0.0
  0
ARC
  5
18F
330
1F
100
AcDbEntity
  8
0
  6
Continuous
 62
     7
370
    25
100
AcDbCircle
 10
561.9556659039
 20
596.4150085705
 30
0.0
 40
12.52511736202734
100
AcDbArc
 50
127.8583068702
 51
128.2586979829
  0
LINE
  5
190
330
1F
100
AcDbEntity
  8
0
  6
Continuous
 62
     7
370
    25
100
AcDbLine
 10
555.2295640191
 20
606.3776817622
 30
0.0
 11
554.2688656702
 21
606.3039755084
 31
0.0
  0
LINE
  5
191
330
1F
100
AcDbEntity
  8
0
  6
Continuous
 62
     7
370
    25
100
AcDbLine
 10
565.7255172213
 20
604.5605999162
 30
0.0
 11
565.7262958277
 21
604.5614065333
 31
0.0
  0
LINE
  5
192
330
1F
100
AcDbEntity
  8
0
  6
Continuous
 62
     7
370
    25
100
AcDbLine
 10
551.2820953434
 20
605.8248540215
 30
0.0
 11
553.3821778595
 21
605.9408449702
 31
0.0
  0
LINE
  5
193
330
1F
100
AcDbEntity
  8
0
  6
Continuous
 62
     7
370
    25
100
AcDbLine
 10
553.5779218952
 20
602.3967871657
 30
0.0
 11
553.3821778595
 21
605.9408449702
 31
0.0
  0
SPLINE
  5
194
330
1F
100
AcDbEntity
  8
0
  6
Continuous
 62
     7
370
    25
100
AcDbSpline
210
0.0
220
0.0
230
1.0
 70
     8
 71
     3
 72
    16
 73
    12
 74
     0
 42
0.00000001
 43
0.00000001
 40
0.0
 40
0.0
 40
0.0
 40
0.0
 40
0.2861254310575659
 40
0.7591203623085424
 40
0.8520758313858446
 40
0.9266344548631261
 40
0.9604862301433726
 40
0.9835335436569237
 40
0.9930756629548353
 40
0.997224229202362
 40
1.0
 40
1.0
 40
1.0
 40
1.0
 10
549.8414269813306
 20
605.3007103394772
 30
0.0
 10
548.613280144207
 20
604.7706430301251
 30
0.0
 10
545.3548795591228
 20
603.364319633998
 30
0.0
 10
541.5572981045154
 20
602.3465076311136
 30
0.0
 10
538.7596364546109
 20
601.784587413342
 30
0.0
 10
537.8945035157166
 20
601.630084897449
 30
0.0
 10
537.3689173469824
 20
601.5415642316187
 30
0.0
 10
537.1352550882683
 20
601.5024548479701
 30
0.0
 10
537.0576049411075
 20
601.4881348790004
 30
0.0
 10
537.0415232860723
 20
601.4844011403775
 30
0.0
 10
537.0404628981506
 20
601.4836672982943
 30
0.0
 10
537.0400378186364
 20
601.4833731217673
 30
0.0
  0
LINE
  5
195
330
1F
100
AcDbEntity
  8
0
  6
Continuous
 62
     7
370
    25
100
AcDbLine
 10
551.2820953434
 20
605.8248540215
 30
0.0
 11
549.8414269813
 21
605.3007103395
 31
0.0
  0
ARC
  5
196
330
1F
100
AcDbEntity
  8
0
  6
Continuous
 62
     7
370
    25
100
AcDbCircle
 10
544.0379941902
 20
601.6916079586
 30
0.0
 40
6.834138728231281
100
AcDbArc
 50
31.8771071303
 51
46.9488007428
  0
SPLINE
  5
197
330
1F
100
AcDbEntity
  8
0
  6
Continuous
 62
     7
370
    25
100
AcDbSpline
210
0.0
220
0.0
230
1.0
 70
     8
 71
     3
 72
    10
 73
     6
 74
     0
 42
0.00000001
 43
0.00000001
 40
0.0
 40
0.0
 40
0.0
 40
0.0
 40
0.5975855365574454
 40
0.9790563563181981
 40
1.0
 40
1.0
 40
1.0
 40
1.0
 10
536.9300124989488
 20
601.4925000191066
 30
0.0
 10
536.9274933595955
 20
601.4887607213802
 30
0.0
 10
536.9233661188149
 20
601.4826344298567
 30
0.0
 10
536.99773724537
 20
601.4822578710002
 30
0.0
 10
537.0379451974746
 20
601.4833179500007
 30
0.0
 10
537.0400378186364
 20
601.4833731217673
 30
0.0
  0
SPLINE
  5
198
330
1F
100
AcDbEntity
  8
0
  6
Continuous
 62
     7
370
    25
100
AcDbSpline
210
0.0
220
0.0
230
1.0
 70
     8
 71
     3
 72
    14
 73
    10
 74
     0
 42
0.00000001
 43
0.00000001
 40
0.0
 40
0.0
 40
0.0
 40
0.0
 40
0.0129036569231464
 40
0.0519665716781148
 40
0.1318891824261205
 40
0.2280032005552168
 40
0.4679440229400844
 40
0.7079115564493632
 40
1.0
 40
1.0
 40
1.0
 40
1.0
 10
536.9300124989488
 20
601.4925000191066
 30
0.0
 10
536.9634810754131
 20
601.5003449931678
 30
0.0
 10
537.0982682282458
 20
601.5319388591004
 30
0.0
 10
537.5375416732384
 20
601.6343209063942
 30
0.0
 10
538.3489690914641
 20
601.8367224152113
 30
0.0
 10
540.0024462732848
 20
602.3037730959774
 30
0.0
 10
542.3467363455286
 20
603.1412301553678
 30
0.0
 10
545.4918305220257
 20
604.586170395718
 30
0.0
 10
547.5651291962181
 20
605.9415412785129
 30
0.0
 10
548.7033300789653
 20
606.6856136856626
 30
0.0
  0
LWPOLYLINE
  5
199
330
1F
100
AcDbEntity
  8
0
  6
Continuous
 62
     7
370
    25
100
AcDbPolyline
 90
        4
 70
   128
 43
0.0
 10
536.9104856849
 20
601.6435955954
 10
536.9127303205
 20
601.6262374485
 10
536.9217053545
 20
601.5568047023
 10
536.9300124989
 20
601.4925000191
  0
LINE
  5
19A
330
1F
100
AcDbEntity
  8
0
  6
Continuous
 62
     7
370
    25
100
AcDbLine
 10
538.6986099687
 20
602.0731230987
 30
0.0
 11
536.9104856849
 21
601.6435955954
 31
0.0
  0
ARC
  5
19B
330
1F
100
AcDbEntity
  8
0
  6
Continuous
 62
     7
370
    25
100
AcDbCircle
 10
530.5130515701
 20
632.4988166925
 30
0.0
 40
31.5075577752834
100
AcDbArc
 50
285.0579972479
 51
305.1719294169
  0
LINE
  5
19C
330
1F
100
AcDbEntity
  8
0
  6
Continuous
 62
     7
370
    25
100
AcDbLine
 10
548.703330079
 20
606.6856136857
 30
0.0
 11
548.6624101928
 21
606.7436816987
 31
0.0
  0
SPLINE
  5
19D
330
1F
100
AcDbEntity
  8
0
  6
Continuous
 62
     7
370
    25
100
AcDbSpline
210
0.0
220
0.0
230
1.0
 70
     8
 71
     3
 72
     9
 73
     5
 74
     0
 42
0.00000001
 43
0.00000001
 40
0.0
 40
0.0
 40
0.0
 40
0.0
 40
0.4998978730609696
 40
0.9999999999999999
 40
0.9999999999999999
 40
0.9999999999999999
 40
0.9999999999999999
 10
553.3821778595044
 20
605.940844970168
 30
0.0
 10
553.5303727754002
 20
605.9608113081703
 30
0.0
 10
553.8268231583322
 20
606.0007521422449
 30
0.0
 10
554.0755563871088
 20
606.1669180848155
 30
0.0
 10
554.1999484038604
 20
606.2500180261198
 30
0.0
  0
ARC
  5
19E
330
1F
100
AcDbEntity
  8
0
  6
Continuous
 62
     7
370
    25
100
AcDbCircle
 10
536.8286771841
 20
601.9822014589
 30
0.0
 40
0.5000763403850291
100
AcDbArc
 50
273.16262964
 51
281.6913635617
  0
ARC
  5
19F
330
1F
100
AcDbEntity
  8
0
  6
Continuous
 62
     7
370
    25
100
AcDbCircle
 10
545.127686497
 20
631.6405094695
 30
0.0
 40
48.10950076354642
100
AcDbArc
 50
282.8580809319
 51
283.1066633214
  0
SPLINE
  5
1A0
330
1F
100
AcDbEntity
  8
0
  6
Continuous
 62
     7
370
    25
100
AcDbSpline
210
0.0
220
0.0
230
1.0
 70
     8
 71
     3
 72
    12
 73
     8
 74
     0
 42
0.00000001
 43
0.00000001
 40
0.0
 40
0.0
 40
0.0
 40
0.0
 40
0.0460732444350177
 40
0.2494607408078304
 40
0.477940520937889
 40
0.7057893369168755
 40
1.0
 40
1.0
 40
1.0
 40
1.0
 10
565.7430443783614
 20
588.2577368103896
 30
0.0
 10
565.6147071506397
 20
588.1952314129738
 30
0.0
 10
564.9198331452757
 20
587.8567997931686
 30
0.0
 10
563.5605771943209
 20
587.2382576963435
 30
0.0
 10
561.5506226796307
 20
586.4305331447748
 30
0.0
 10
559.0554202705171
 20
585.5584552312351
 30
0.0
 10
557.1250769710864
 20
585.0633184972609
 30
0.0
 10
556.0372170530483
 20
584.7842803557045
 30
0.0
  0
LWPOLYLINE
  5
1A1
330
1F
100
AcDbEntity
  8
0
  6
Continuous
 62
     7
370
    25
100
AcDbPolyline
 90
        3
 70
   128
 43
0.0
 10
565.7430443784
 20
588.2577368104
 10
565.786401255
 20
588.230345338
 10
565.8909793281
 20
588.164347308
  0
ARC
  5
1A2
330
1F
100
AcDbEntity
  8
0
  6
Continuous
 62
     7
370
    25
100
AcDbCircle
 10
545.127686497
 20
631.6405094695
 30
0.0
 40
48.17977797259062
100
AcDbArc
 50
282.8580809319
 51
295.5281512988
  0
LINE
  5
1A3
330
1F
100
AcDbEntity
  8
0
  6
Continuous
 62
     7
370
    25
100
AcDbLine
 10
555.8338254616
 20
584.7373896139
 30
0.0
 11
555.8494647335
 21
584.6688746573
 31
0.0
  0
LINE
  5
1A4
330
1F
100
AcDbEntity
  8
0
  6
Continuous
 62
     7
370
    25
100
AcDbLine
 10
555.5837569752
 20
586.7318828849
 30
0.0
 11
556.037217053
 21
584.7842803557
 31
0.0
  0
SPLINE
  5
1A5
330
1F
100
AcDbEntity
  8
0
  6
Continuous
 62
     7
370
    25
100
AcDbSpline
210
0.0
220
0.0
230
1.0
 70
     8
 71
     3
 72
    13
 73
     9
 74
     0
 42
0.00000001
 43
0.00000001
 40
0.0
 40
0.0
 40
0.0
 40
0.0
 40
0.2574896950994369
 40
0.4890886589321034
 40
0.7206004760683484
 40
0.9447506334961274
 40
0.9460032291293298
 40
0.9999999999999999
 40
0.9999999999999999
 40
0.9999999999999999
 40
0.9999999999999999
 10
555.5837569751612
 20
586.7318828849185
 30
0.0
 10
556.5024825511492
 20
586.7038199208038
 30
0.0
 10
558.2475553382873
 20
586.6505157391384
 30
0.0
 10
560.7421205842006
 20
586.8150798579765
 30
0.0
 10
563.0577703902022
 20
587.2284538529866
 30
0.0
 10
564.5348789918042
 20
587.7280110395499
 30
0.0
 10
565.4061404363466
 20
588.1022538944799
 30
0.0
 10
565.5761868451693
 20
588.181234312965
 30
0.0
 10
565.7423780172245
 20
588.2584241131397
 30
0.0
  0
LINE
  5
1A6
330
1F
100
AcDbEntity
  8
0
  6
Continuous
 62
     7
370
    25
100
AcDbLine
 10
565.7423780172
 20
588.2584241131
 30
0.0
 11
565.7430443784
 21
588.2577368104
 31
0.0
  0
LINE
  5
1A7
330
1F
100
AcDbEntity
  8
0
  6
Continuous
 62
     7
370
    25
100
AcDbLine
 10
549.4784376594
 20
588.0397672924
 30
0.0
 11
548.3489622419
 21
586.3895955028
 31
0.0
  0
SPLINE
  5
1A8
330
1F
100
AcDbEntity
  8
0
  6
Continuous
 62
     7
370
    25
100
AcDbSpline
210
0.0
220
0.0
230
1.0
 70
     8
 71
     3
 72
    14
 73
    10
 74
     0
 42
0.00000001
 43
0.00000001
 40
0.0
 40
0.0
 40
0.0
 40
0.0
 40
0.2256458607195977
 40
0.4518169308148962
 40
0.8157761447763432
 40
0.8946140573305367
 40
0.9637846180221649
 40
0.9940799143125669
 40
1.0
 40
1.0
 40
1.0
 40
1.0
 10
548.3489622418925
 20
586.3895955027618
 30
0.0
 10
547.5032146948214
 20
586.9346192252631
 30
0.0
 10
545.8097510534176
 20
588.0259352579902
 30
0.0
 10
542.6295289533653
 20
589.5913763427924
 30
0.0
 10
539.9582508901987
 20
590.5447551770282
 30
0.0
 10
538.0077224029477
 20
591.0662033231573
 30
0.0
 10
537.3636458925057
 20
591.2215839977995
 30
0.0
 10
537.0356949962792
 20
591.2971340586439
 30
0.0
 10
536.9431576636803
 20
591.318654832789
 30
0.0
 10
536.9280306952942
 20
591.3221728083022
 30
0.0
  0
SPLINE
  5
1A9
330
1F
100
AcDbEntity
  8
0
  6
Continuous
 62
     7
370
    25
100
AcDbSpline
210
0.0
220
0.0
230
1.0
 70
     8
 71
     3
 72
    11
 73
     7
 74
     0
 42
0.00000001
 43
0.00000001
 40
0.0
 40
0.0
 40
0.0
 40
0.0
 40
0.0195561212295929
 40
0.1681891996744423
 40
0.5898876540792745
 40
1.0
 40
1.0
 40
1.0
 40
1.0
 10
537.0379720867111
 20
591.3304403703953
 30
0.0
 10
537.0360133735632
 20
591.330498484111
 30
0.0
 10
537.0191677837405
 20
591.3309982815516
 30
0.0
 10
536.9672672199812
 20
591.3318446989651
 30
0.0
 10
536.9179825879157
 20
591.3297554004432
 30
0.0
 10
536.9247125729921
 20
591.3246767592595
 30
0.0
 10
536.9280306952942
 20
591.3221728083022
 30
0.0
  0
SPLINE
  5
1AA
330
1F
100
AcDbEntity
  8
0
  6
Continuous
 62
     7
370
    25
100
AcDbSpline
210
0.0
220
0.0
230
1.0
 70
     8
 71
     3
 72
    17
 73
    13
 74
     0
 42
0.00000001
 43
0.00000001
 40
0.0
 40
0.0
 40
0.0
 40
0.0
 40
0.0068263121770683
 40
0.008844850729726
 40
0.0223990310416126
 40
0.0309593028397538
 40
0.0563218912149133
 40
0.1198824177066675
 40
0.1957460556357056
 40
0.555862194488003
 40
0.77803360979772
 40
0.9999999999999999
 40
0.9999999999999999
 40
0.9999999999999999
 40
0.9999999999999999
 10
537.0379720867111
 20
591.3304403703953
 30
0.0
 10
537.0415922318728
 20
591.3294021873501
 30
0.0
 10
537.0462828529202
 20
591.3280570138763
 30
0.0
 10
537.0898155656237
 20
591.3204670258016
 30
0.0
 10
537.164347488056
 20
591.3087155189949
 30
0.0
 10
537.3311797335581
 20
591.2829966237717
 30
0.0
 10
537.7127558506254
 20
591.2244820447495
 30
0.0
 10
538.3956568173596
 20
591.1152850601624
 30
0.0
 10
540.5006561342774
 20
590.7481128277382
 30
0.0
 10
543.3135907160635
 20
590.113935143773
 30
0.0
 10
546.7123749306302
 20
589.1009948519144
 30
0.0
 10
548.5567005453939
 20
588.3934009312277
 30
0.0
 10
549.4784376593846
 20
588.0397672924006
 30
0.0
  0
LINE
  5
1AB
330
1F
100
AcDbEntity
  8
0
  6
Continuous
 62
     7
370
    25
100
AcDbLine
 10
553.5718805102
 20
590.4172459082
 30
0.0
 11
553.4285186812
 21
587.8215979387
 31
0.0
  0
LINE
  5
1AC
330
1F
100
AcDbEntity
  8
0
  6
Continuous
 62
     7
370
    25
100
AcDbLine
 10
553.4285186812
 20
587.8215979387
 30
0.0
 11
549.4784376594
 21
588.0397672924
 31
0.0
  0
LINE
  5
1AD
330
1F
100
AcDbEntity
  8
0
  6
Continuous
 62
     7
370
    25
100
AcDbLine
 10
556.3903327492
 20
589.3522719303
 30
0.0
 11
554.7813757559
 21
587.3104104294
 31
0.0
  0
LINE
  5
1AE
330
1F
100
AcDbEntity
  8
0
  6
Continuous
 62
     7
370
    25
100
AcDbLine
 10
565.7423780172
 20
588.2584241131
 30
0.0
 11
565.7418101317
 21
588.259011154
 31
0.0
  0
ARC
  5
1AF
330
1F
100
AcDbEntity
  8
0
  6
Continuous
 62
     7
370
    25
100
AcDbCircle
 10
561.9556659039
 20
596.4150085705
 30
0.0
 40
11.5915549620674
100
AcDbArc
 50
231.762407147
 51
236.6533814372
  0
LWPOLYLINE
  5
1B0
330
1F
100
AcDbEntity
  8
0
  6
Continuous
 62
     7
370
    25
100
AcDbPolyline
 90
        4
 70
   128
 43
0.0
 10
536.9280306953
 20
591.3221728083
 10
536.925788449
 20
591.3048145533
 10
536.9168159661
 20
591.2353816917
 10
536.9104856849
 20
591.1864215456
  0
ARC
  5
1B1
330
1F
100
AcDbEntity
  8
0
  6
Continuous
 62
     7
370
    25
100
AcDbCircle
 10
530.5130515701
 20
560.3312004485
 30
0.0
 40
31.57783498432752
100
AcDbArc
 50
54.8280705831
 51
55.6099480104
  0
LINE
  5
1B2
330
1F
100
AcDbEntity
  8
0
  6
Continuous
 62
     7
370
    25
100
AcDbLine
 10
548.7028921076
 20
586.1437819451
 30
0.0
 11
548.6624101928
 21
586.0863354423
 31
0.0
  0
ARC
  5
1B3
330
1F
100
AcDbEntity
  8
0
  6
Continuous
 62
     7
370
    25
100
AcDbCircle
 10
530.5130515701
 20
560.3312004485
 30
0.0
 40
31.5075577752834
100
AcDbArc
 50
54.8280705831
 51
74.9420027521
  0
LINE
  5
1B4
330
1F
100
AcDbEntity
  8
0
  6
Continuous
 62
     7
370
    25
100
AcDbLine
 10
536.9104856849
 20
591.1864215456
 30
0.0
 11
538.6986099687
 21
590.7568940423
 31
0.0
  0
LINE
  5
1B5
330
1F
100
AcDbEntity
  8
0
  6
Continuous
 62
     7
370
    25
100
AcDbLine
 10
536.8366482756
 20
601.6332772991
 30
0.0
 11
536.9104856849
 21
601.6435955954
 31
0.0
  0
SPLINE
  5
1B6
330
1F
100
AcDbEntity
  8
0
  6
Continuous
 62
     7
370
    25
100
AcDbSpline
210
0.0
220
0.0
230
1.0
 70
     8
 71
     3
 72
    10
 73
     6
 74
     0
 42
0.00000001
 43
0.00000001
 40
0.0
 40
0.0
 40
0.0
 40
0.0
 40
0.0490769085761621
 40
0.5995805843665267
 40
1.0
 40
1.0
 40
1.0
 40
1.0
 10
554.7813757559213
 20
587.3104104293672
 30
0.0
 10
554.7624282175523
 20
587.3250331649685
 30
0.0
 10
554.5309430556456
 20
587.5036815071577
 30
0.0
 10
554.0850692808284
 20
587.7377335005789
 30
0.0
 10
553.623062703944
 20
587.7967478735965
 30
0.0
 10
553.4285186811903
 20
587.8215979387288
 30
0.0
  0
ARC
  5
1B7
330
1F
100
AcDbEntity
  8
0
  6
Continuous
 62
     7
370
    25
100
AcDbCircle
 10
536.8266772943
 20
590.8324751113
 30
0.0
 40
0.5000763405388461
100
AcDbArc
 50
78.306520338
 51
86.8373700343
  0
SPLINE
  5
1B8
330
1F
100
AcDbEntity
  8
0
  6
Continuous
 62
     7
370
    25
100
AcDbSpline
210
0.0
220
0.0
230
1.0
 70
     8
 71
     3
 72
     9
 73
     5
 74
     0
 42
0.00000001
 43
0.00000001
 40
0.0
 40
0.0
 40
0.0
 40
0.0
 40
0.8458911907784387
 40
0.9999999999999999
 40
0.9999999999999999
 40
0.9999999999999999
 40
0.9999999999999999
 10
536.9104856848836
 20
591.186421545616
 30
0.0
 10
536.8896450887726
 20
591.1902363526084
 30
0.0
 10
536.8650076456377
 20
591.1947461607656
 30
0.0
 10
536.8404351184614
 20
591.1964736245167
 30
0.0
 10
536.8366482755588
 20
591.1967398418982
 30
0.0
  0
LINE
  5
1B9
330
1F
100
AcDbEntity
  8
0
  6
Continuous
 62
     7
370
    25
100
AcDbLine
 10
518.8412280779
 20
592.2629956952
 30
0.0
 11
518.8416860977
 21
592.2629706087
 31
0.0
  0
LINE
  5
1BA
330
1F
100
AcDbEntity
  8
0
  6
Continuous
 62
     7
370
    25
100
AcDbLine
 10
548.703330079
 20
606.6856136857
 30
0.0
 11
550.5420709283
 21
607.6825799213
 31
0.0
  0
LINE
  5
1BB
330
1F
100
AcDbEntity
  8
0
  6
Continuous
 62
     7
370
    25
100
AcDbLine
 10
551.2820953434
 20
605.8248540215
 30
0.0
 11
550.5420709283
 21
607.6825799213
 31
0.0
  0
LINE
  5
1BC
330
1F
100
AcDbEntity
  8
0
  6
Continuous
 62
     7
370
    25
100
AcDbLine
 10
554.2688656702
 20
606.3039755084
 30
0.0
 11
554.3906994168
 21
608.2999560174
 31
0.0
  0
LINE
  5
1BD
330
1F
100
AcDbEntity
  8
0
  6
Continuous
 62
     7
370
    25
100
AcDbLine
 10
554.3906994168
 20
608.2999560174
 30
0.0
 11
555.8336066566
 21
608.0916689522
 31
0.0
  0
ARC
  5
1BE
330
1F
100
AcDbEntity
  8
0
  6
Continuous
 62
     7
370
    25
100
AcDbCircle
 10
530.5130515701
 20
560.3312004485
 30
0.0
 40
33.57753037464031
100
AcDbArc
 50
54.8280705831
 51
55.6099480104
  0
LINE
  5
1BF
330
1F
100
AcDbEntity
  8
0
  6
Continuous
 62
     7
370
    25
100
AcDbLine
 10
549.8547804587
 20
587.7783873655
 30
0.0
 11
548.7028921076
 21
586.1437819451
 31
0.0
  0
ARC
  5
1C0
330
1F
100
AcDbEntity
  8
0
  6
Continuous
 62
     7
370
    25
100
AcDbCircle
 10
545.127686497
 20
631.6405094695
 30
0.0
 40
46.10980537323366
100
AcDbArc
 50
282.8580809319
 51
283.1066633214
  0
LINE
  5
1C1
330
1F
100
AcDbEntity
  8
0
  6
Continuous
 62
     7
370
    25
100
AcDbLine
 10
555.3888194566
 20
586.6869411802
 30
0.0
 11
555.8338254616
 21
584.7373896139
 31
0.0
  0
ARC
  5
1C2
330
1F
100
AcDbEntity
  8
0
  6
Continuous
 62
     7
370
    25
100
AcDbCircle
 10
553.8466506987
 20
593.4431140947
 30
0.0
 40
6.929946387144395
100
AcDbArc
 50
234.8280705831
 51
282.8580809319
  0
ARC
  5
1C3
330
1F
100
AcDbEntity
  8
0
  6
Continuous
 62
     7
370
    25
100
AcDbCircle
 10
553.8466506987
 20
593.4431140947
 30
0.0
 40
8.929641777457157
100
AcDbArc
 50
234.8280705831
 51
282.8580809319
  0
ARC
  5
1C4
330
1F
100
AcDbEntity
  8
0
  6
Continuous
 62
     7
370
    25
100
AcDbCircle
 10
553.8466506987
 20
599.3869030463
 30
0.0
 40
6.929946387144363
100
AcDbArc
 50
86.5070253286
 51
111.7198462835
  0
ARC
  5
1C5
330
1F
100
AcDbEntity
  8
0
  6
Continuous
 62
     7
370
    25
100
AcDbCircle
 10
553.8466506987
 20
599.3869030463
 30
0.0
 40
8.929641777457107
100
AcDbArc
 50
86.5070253286
 51
111.7198462835
  0
ARC
  5
1C6
330
1F
100
AcDbEntity
  8
0
  6
Continuous
 62
     7
370
    25
100
AcDbCircle
 10
553.8466506987
 20
599.3869030463
 30
0.0
 40
8.999918986501271
100
AcDbArc
 50
77.1419190681
 51
125.1719294169
  0
ARC
  5
1C7
330
1F
100
AcDbEntity
  8
0
  6
Continuous
 62
     7
370
    25
100
AcDbCircle
 10
553.8466506987
 20
593.4431140947
 30
0.0
 40
8.999918986501354
100
AcDbArc
 50
234.8280705831
 51
282.8580809319
  0
SPLINE
  5
1C8
330
1F
100
AcDbEntity
  8
0
  6
Continuous
 62
     7
370
    25
100
AcDbSpline
210
0.0
220
0.0
230
1.0
 70
     8
 71
     3
 72
    11
 73
     7
 74
     0
 42
0.00000001
 43
0.00000001
 40
0.0
 40
0.0
 40
0.0
 40
0.0
 40
0.2200386424382247
 40
0.6637869905998173
 40
0.8890365590789576
 40
1.0
 40
1.0
 40
1.0
 40
1.0
 10
670.2332560484821
 20
602.435326877443
 30
0.0
 10
670.4374775114835
 20
602.1703082661842
 30
0.0
 10
671.0535490743671
 20
601.3708309358796
 30
0.0
 10
671.5770984253843
 20
600.1076616653517
 30
0.0
 10
671.8287276251455
 20
598.9410918520275
 30
0.0
 10
671.8080204304231
 20
598.4298120533681
 30
0.0
 10
671.801186246397
 20
598.2610697258958
 30
0.0
  0
SPLINE
  5
1C9
330
1F
100
AcDbEntity
  8
0
  6
Continuous
 62
     7
370
    25
100
AcDbSpline
210
0.0
220
0.0
230
1.0
 70
     8
 71
     3
 72
     9
 73
     5
 74
     0
 42
0.00000001
 43
0.00000001
 40
0.0
 40
0.0
 40
0.0
 40
0.0
 40
0.9209630919903095
 40
0.9999999999999999
 40
0.9999999999999999
 40
0.9999999999999999
 40
0.9999999999999999
 10
671.8732984117294
 20
602.1150036018095
 30
0.0
 10
671.3588768738565
 20
602.1718306607281
 30
0.0
 10
670.8003077603418
 20
602.2335346089241
 30
0.0
 10
670.2747912486724
 20
602.4205460698121
 30
0.0
 10
670.2332560484821
 20
602.435326877443
 30
0.0
  0
SPLINE
  5
1CA
330
1F
100
AcDbEntity
  8
0
  6
Continuous
 62
     7
370
    25
100
AcDbSpline
210
0.0
220
0.0
230
1.0
 70
     8
 71
     3
 72
    10
 73
     6
 74
     0
 42
0.00000001
 43
0.00000001
 40
0.0
 40
0.0
 40
0.0
 40
0.0
 40
0.2596150688488839
 40
0.629760644481066
 40
1.0
 40
1.0
 40
1.0
 40
1.0
 10
719.0484593656666
 20
599.5234460328205
 30
0.0
 10
714.9706391469435
 20
599.8232001699189
 30
0.0
 10
705.0788763135783
 20
600.550328065083
 30
0.0
 10
689.3493036309051
 20
601.376174934973
 30
0.0
 10
677.6991253696405
 20
601.8687065842389
 30
0.0
 10
671.8732984117294
 20
602.1150036018095
 30
0.0
  0
SPLINE
  5
1CB
330
1F
100
AcDbEntity
  8
0
  6
Continuous
 62
     7
370
    25
100
AcDbSpline
210
0.0
220
0.0
230
1.0
 70
     8
 71
     3
 72
    11
 73
     7
 74
     0
 42
0.00000001
 43
0.00000001
 40
0.0
 40
0.0
 40
0.0
 40
0.0
 40
0.061464119541392
 40
0.4999988937835378
 40
0.9375097801832794
 40
1.0
 40
1.0
 40
1.0
 40
1.0
 10
719.0484593656664
 20
593.7974136858185
 30
0.0
 10
719.0601285618687
 20
593.9138706582706
 30
0.0
 10
719.1550552481382
 20
594.8612259256018
 30
0.0
 10
719.2387580754042
 20
596.65847012405
 30
0.0
 10
719.1551881518843
 20
598.457668148291
 30
0.0
 10
719.060316446839
 20
599.405042972724
 30
0.0
 10
719.0484593656666
 20
599.5234460328205
 30
0.0
  0
SPLINE
  5
1CC
330
1F
100
AcDbEntity
  8
0
  6
Continuous
 62
     7
370
    25
100
AcDbSpline
210
0.0
220
0.0
230
1.0
 70
     8
 71
     3
 72
    10
 73
     6
 74
     0
 42
0.00000001
 43
0.00000001
 40
0.0
 40
0.0
 40
0.0
 40
0.0
 40
0.2594618540778875
 40
0.6296073956705976
 40
1.0
 40
1.0
 40
1.0
 40
1.0
 10
671.8732984117294
 20
591.2058561168313
 30
0.0
 10
675.9561666498249
 20
591.3732404263569
 30
0.0
 10
685.8636116088895
 20
591.7794134245846
 30
0.0
 10
701.5949081703587
 20
592.5661967823152
 30
0.0
 10
713.2293151205702
 20
593.3869167801565
 30
0.0
 10
719.0484593656664
 20
593.7974136858185
 30
0.0
  0
SPLINE
  5
1CD
330
1F
100
AcDbEntity
  8
0
  6
Continuous
 62
     7
370
    25
100
AcDbSpline
210
0.0
220
0.0
230
1.0
 70
     8
 71
     3
 72
     9
 73
     5
 74
     0
 42
0.00000001
 43
0.00000001
 40
0.0
 40
0.0
 40
0.0
 40
0.0
 40
0.0790369080192211
 40
1.0
 40
1.0
 40
1.0
 40
1.0
 10
670.2332560484829
 20
590.8855328411979
 30
0.0
 10
670.2747912486782
 20
590.9003136488307
 30
0.0
 10
670.8003077603474
 20
591.0873251097187
 30
0.0
 10
671.358876873862
 20
591.1490290579139
 30
0.0
 10
671.8732984117294
 20
591.2058561168313
 30
0.0
  0
SPLINE
  5
1CE
330
1F
100
AcDbEntity
  8
0
  6
Continuous
 62
     7
370
    25
100
AcDbSpline
210
0.0
220
0.0
230
1.0
 70
     8
 71
     3
 72
    11
 73
     7
 74
     0
 42
0.00000001
 43
0.00000001
 40
0.0
 40
0.0
 40
0.0
 40
0.0
 40
0.0728838064943292
 40
0.4140719411596023
 40
0.9209668754550557
 40
1.0
 40
1.0
 40
1.0
 40
1.0
 10
671.8011862463933
 20
595.0597899927599
 30
0.0
 10
671.8089013955309
 20
594.9493435585208
 30
0.0
 10
671.8527331728955
 20
594.3218685181898
 30
0.0
 10
671.5082414614575
 20
592.9388764877248
 30
0.0
 10
670.8685521119711
 20
591.6689449699472
 30
0.0
 10
670.3087633625383
 20
590.9786443037742
 30
0.0
 10
670.2332560484829
 20
590.8855328411979
 30
0.0
  0
SPLINE
  5
1CF
330
1F
100
AcDbEntity
  8
0
  6
Continuous
 62
     7
370
    25
100
AcDbSpline
210
0.0
220
0.0
230
1.0
 70
     8
 71
     3
 72
    10
 73
     6
 74
     0
 42
0.00000001
 43
0.00000001
 40
0.0
 40
0.0
 40
0.0
 40
0.0
 40
0.3880207377811387
 40
0.9790637766506859
 40
1.0
 40
1.0
 40
1.0
 40
1.0
 10
671.801186246397
 20
598.2610697258958
 30
0.0
 10
671.7278717156377
 20
597.85022986404
 30
0.0
 10
671.5428826303144
 20
596.8135882941917
 30
0.0
 10
671.6385895561456
 20
595.7198189726205
 30
0.0
 10
671.7958077073932
 20
595.081623103901
 30
0.0
 10
671.8011862463933
 20
595.0597899927599
 30
0.0
  0
ARC
  5
1D0
330
1F
100
AcDbEntity
  8
0
  6
Continuous
 62
     7
370
    25
100
AcDbCircle
 10
663.5556659039
 20
596.6604298593
 30
0.0
 40
8.399443654264582
100
AcDbArc
 50
10.985757993
 51
349.0142420071
  0
SPLINE
  5
1D1
330
1F
100
AcDbEntity
  8
0
  6
Continuous
 62
     7
370
    25
100
AcDbSpline
210
0.0
220
0.0
230
1.0
 70
     8
 71
     3
 72
     9
 73
     5
 74
     0
 42
0.00000001
 43
0.00000001
 40
0.0
 40
0.0
 40
0.0
 40
0.0
 40
0.6817923421274255
 40
1.0
 40
1.0
 40
1.0
 40
1.0
 10
670.2332560484829
 20
590.8855328411979
 30
0.0
 10
670.0909924878398
 20
590.6956224860928
 30
0.0
 10
669.8823313576794
 20
590.4170767422194
 30
0.0
 10
669.652905523799
 20
590.1841723692763
 30
0.0
 10
669.5799004665445
 20
590.1100604142539
 30
0.0
  0
ARC
  5
1D2
330
1F
100
AcDbEntity
  8
0
  6
Continuous
 62
     7
370
    25
100
AcDbCircle
 10
663.5556659039
 20
596.6604298593
 30
0.0
 40
8.899367501836373
100
AcDbArc
 50
47.3959191961
 51
312.6040808039
  0
LINE
  5
1D3
330
1F
100
AcDbEntity
  8
0
  6
Continuous
 62
     7
370
    25
100
AcDbLine
 10
669.5799004665
 20
603.2107993044
 30
0.0
 11
670.2332560485
 21
602.4353268774
 31
0.0
  0
SPLINE
  5
1D4
330
1F
100
AcDbEntity
  8
0
  6
Continuous
 62
     7
370
    25
100
AcDbSpline
210
0.0
220
0.0
230
1.0
 70
     8
 71
     3
 72
    10
 73
     6
 74
     0
 42
0.00000001
 43
0.00000001
 40
0.0
 40
0.0
 40
0.0
 40
0.0
 40
0.3702896688583041
 40
0.7405318123903295
 40
1.0
 40
1.0
 40
1.0
 40
1.0
 10
719.0599788288448
 20
593.3545541049853
 30
0.0
 10
713.2399149826264
 20
593.034363090459
 30
0.0
 10
701.6005342741229
 20
592.3940221567534
 30
0.0
 10
685.881665867348
 20
591.5247878248902
 30
0.0
 10
675.9844920513383
 20
590.976046823281
 30
0.0
 10
671.9064237308742
 20
590.7499415394492
 30
0.0
  0
ARC
  5
1D5
330
1F
100
AcDbEntity
  8
0
  6
Continuous
 62
     7
370
    25
100
AcDbCircle
 10
679.1215129383
 20
591.5033279061
 30
0.0
 40
7.254316183352612
100
AcDbArc
 50
182.3501399448
 51
185.9611177313
  0
ARC
  5
1D6
330
1F
100
AcDbEntity
  8
0
  6
Continuous
 62
     7
370
    25
100
AcDbCircle
 10
714.7994562877
 20
593.465310929
 30
0.0
 40
4.261961918890758
100
AcDbArc
 50
358.5108705386
 51
4.4691613065
  0
SPLINE
  5
1D7
330
1F
100
AcDbEntity
  8
0
  6
Continuous
 62
     7
370
    25
100
AcDbSpline
210
0.0
220
0.0
230
1.0
 70
     8
 71
     3
 72
    10
 73
     6
 74
     0
 42
0.00000001
 43
0.00000001
 40
0.0
 40
0.0
 40
0.0
 40
0.0
 40
0.3702717503651154
 40
0.740512215137175
 40
1.0
 40
1.0
 40
1.0
 40
1.0
 10
671.906423730874
 20
602.5709181791916
 30
0.0
 10
677.7260957925433
 20
602.2483896935238
 30
0.0
 10
689.3649481908402
 20
601.6033599737807
 30
0.0
 10
705.0840877747949
 20
600.7345454863017
 30
0.0
 10
714.9815851984936
 20
600.1904905755349
 30
0.0
 10
719.0599788288414
 20
599.9663056136557
 30
0.0
  0
ARC
  5
1D8
330
1F
100
AcDbEntity
  8
0
  6
Continuous
 62
     7
370
    25
100
AcDbCircle
 10
714.7994562847
 20
599.8555487897
 30
0.0
 40
4.261961921794603
100
AcDbArc
 50
355.530838696
 51
1.4891294598
  0
ARC
  5
1D9
330
1F
100
AcDbEntity
  8
0
  6
Continuous
 62
     7
370
    25
100
AcDbCircle
 10
679.1215129385
 20
601.8175318125
 30
0.0
 40
7.254316183588711
100
AcDbArc
 50
174.0388822687
 51
177.6498600551
  0
SPLINE
  5
1DA
330
1F
100
AcDbEntity
  8
0
  6
Continuous
 62
     7
370
    25
100
AcDbSpline
210
0.0
220
0.0
230
1.0
 70
     8
 71
     3
 72
    12
 73
     8
 74
     0
 42
0.00000001
 43
0.00000001
 40
0.0
 40
0.0
 40
0.0
 40
0.0
 40
0.122429049415135
 40
0.3423522449770488
 40
0.5614228816909436
 40
0.7807229538533572
 40
1.0
 40
1.0
 40
1.0
 40
1.0
 10
720.9841867985141
 20
599.4127716631642
 30
0.0
 10
720.9751827226501
 20
599.4151303476051
 30
0.0
 10
720.950004338919
 20
599.4217260119299
 30
0.0
 10
720.7340166552742
 20
599.4387339796692
 30
0.0
 10
720.2981185255452
 20
599.4642449538236
 30
0.0
 10
719.714192912115
 20
599.4937971363828
 30
0.0
 10
719.2703627805469
 20
599.5135634132619
 30
0.0
 10
719.0484593656666
 20
599.5234460328205
 30
0.0
  0
SPLINE
  5
1DB
330
1F
100
AcDbEntity
  8
0
  6
Continuous
 62
     7
370
    25
100
AcDbSpline
210
0.0
220
0.0
230
1.0
 70
     8
 71
     3
 72
    11
 73
     7
 74
     0
 42
0.00000001
 43
0.00000001
 40
0.0
 40
0.0
 40
0.0
 40
0.0
 40
0.0800485240044433
 40
0.5000005853538798
 40
0.9209248322279645
 40
1.0
 40
1.0
 40
1.0
 40
1.0
 10
720.9841867985141
 20
599.4127716631642
 30
0.0
 10
720.9839005540999
 20
599.2665272380636
 30
0.0
 10
720.9821126088954
 20
598.3530525792304
 30
0.0
 10
720.9808769120655
 20
596.658642991472
 30
0.0
 10
720.9821146101602
 20
594.9660161396173
 30
0.0
 10
720.9839038321281
 20
594.0525527639734
 30
0.0
 10
720.9841867985141
 20
593.9080880554822
 30
0.0
  0
SPLINE
  5
1DC
330
1F
100
AcDbEntity
  8
0
  6
Continuous
 62
     7
370
    25
100
AcDbSpline
210
0.0
220
0.0
230
1.0
 70
     8
 71
     3
 72
    12
 73
     8
 74
     0
 42
0.00000001
 43
0.00000001
 40
0.0
 40
0.0
 40
0.0
 40
0.0
 40
0.1130367476169276
 40
0.3328594693547989
 40
0.5544127937945017
 40
0.7774207483513241
 40
1.0
 40
1.0
 40
1.0
 40
1.0
 10
719.0484593656664
 20
593.7974136858185
 30
0.0
 10
719.1625302056532
 20
593.8024289315199
 30
0.0
 10
719.4984347682612
 20
593.8171973325758
 30
0.0
 10
720.0325026246559
 20
593.842789536685
 30
0.0
 10
720.5490282625432
 20
593.870664799556
 30
0.0
 10
720.9059229796976
 20
593.8941066731466
 30
0.0
 10
720.958115597216
 20
593.9034305849062
 30
0.0
 10
720.9841867985141
 20
593.9080880554822
 30
0.0
  0
SPLINE
  5
1DD
330
1F
100
AcDbEntity
  8
0
  6
Continuous
 62
     7
370
    25
100
AcDbSpline
210
0.0
220
0.0
230
1.0
 70
     8
 71
     3
 72
     9
 73
     5
 74
     0
 42
0.00000001
 43
0.00000001
 40
0.0
 40
0.0
 40
0.0
 40
0.0
 40
0.500010612381545
 40
1.0
 40
1.0
 40
1.0
 40
1.0
 10
669.0802926177015
 20
603.6426309936334
 30
0.0
 10
669.5100139845224
 20
603.3547904555401
 30
0.0
 10
670.369438477083
 20
602.7791215977886
 30
0.0
 10
671.3941025623612
 20
602.6403183367019
 30
0.0
 10
671.906423730874
 20
602.5709181791916
 30
0.0
  0
SPLINE
  5
1DE
330
1F
100
AcDbEntity
  8
0
  6
Continuous
 62
     7
370
    25
100
AcDbSpline
210
0.0
220
0.0
230
1.0
 70
     8
 71
     3
 72
     9
 73
     5
 74
     0
 42
0.00000001
 43
0.00000001
 40
0.0
 40
0.0
 40
0.0
 40
0.0
 40
0.9838702326459388
 40
1.0
 40
1.0
 40
1.0
 40
1.0
 10
669.5799004665445
 20
603.210799304387
 30
0.0
 10
669.41855965161
 20
603.3556317174059
 30
0.0
 10
669.2545737827618
 20
603.5028385422627
 30
0.0
 10
669.0830591094794
 20
603.6404119663093
 30
0.0
 10
669.0802926177015
 20
603.6426309936334
 30
0.0
  0
SPLINE
  5
1DF
330
1F
100
AcDbEntity
  8
0
  6
Continuous
 62
     7
370
    25
100
AcDbSpline
210
0.0
220
0.0
230
1.0
 70
     8
 71
     3
 72
     9
 73
     5
 74
     0
 42
0.00000001
 43
0.00000001
 40
0.0
 40
0.0
 40
0.0
 40
0.0
 40
0.5055561057107295
 40
1.0
 40
1.0
 40
1.0
 40
1.0
 10
671.9064237308742
 20
590.7499415394492
 30
0.0
 10
671.3883642135411
 20
590.6792855051792
 30
0.0
 10
670.3636322174658
 20
590.5395264686017
 30
0.0
 10
669.5048916487042
 20
589.963193193806
 30
0.0
 10
669.0802926177015
 20
589.6782287250076
 30
0.0
  0
SPLINE
  5
1E0
330
1F
100
AcDbEntity
  8
0
  6
Continuous
 62
     7
370
    25
100
AcDbSpline
210
0.0
220
0.0
230
1.0
 70
     8
 71
     3
 72
     9
 73
     5
 74
     0
 42
0.00000001
 43
0.00000001
 40
0.0
 40
0.0
 40
0.0
 40
0.0
 40
0.016129767353325
 40
1.0
 40
1.0
 40
1.0
 40
1.0
 10
669.0802926177015
 20
589.6782287250076
 30
0.0
 10
669.0830591094793
 20
589.6804477523314
 30
0.0
 10
669.2545737827661
 20
589.818021176381
 30
0.0
 10
669.4185596516121
 20
589.9652280012361
 30
0.0
 10
669.5799004665445
 20
590.1100604142539
 30
0.0
  0
SPLINE
  5
1E1
330
1F
100
AcDbEntity
  8
0
  6
Continuous
 62
     7
370
    25
100
AcDbSpline
210
0.0
220
0.0
230
1.0
 70
     8
 71
     3
 72
    12
 73
     8
 74
     0
 42
0.00000001
 43
0.00000001
 40
0.0
 40
0.0
 40
0.0
 40
0.0
 40
0.2230315344150424
 40
0.446133755834037
 40
0.6675099896776974
 40
0.8870667292264951
 40
1.0
 40
1.0
 40
1.0
 40
1.0
 10
720.5118325334297
 20
593.4089249844336
 30
0.0
 10
720.4922987473037
 20
593.4108152317284
 30
0.0
 10
720.4532249840672
 20
593.4145963254078
 30
0.0
 10
720.185635802011
 20
593.4076534891371
 30
0.0
 10
719.7981067181859
 20
593.3920646666473
 30
0.0
 10
719.3973846057229
 20
593.372727386583
 30
0.0
 10
719.145525183465
 20
593.3591617854067
 30
0.0
 10
719.0599788288448
 20
593.3545541049853
 30
0.0
  0
ARC
  5
1E2
330
1F
100
AcDbEntity
  8
0
  6
Continuous
 62
     7
370
    25
100
AcDbCircle
 10
720.4840869109
 20
593.9082546408
 30
0.0
 40
0.5000999153472002
100
AcDbArc
 50
273.1804119248
 51
359.9809145383
  0
SPLINE
  5
1E3
330
1F
100
AcDbEntity
  8
0
  6
Continuous
 62
     7
370
    25
100
AcDbSpline
210
0.0
220
0.0
230
1.0
 70
     8
 71
     3
 72
    12
 73
     8
 74
     0
 42
0.00000001
 43
0.00000001
 40
0.0
 40
0.0
 40
0.0
 40
0.0
 40
0.2190444340109335
 40
0.4380981679380244
 40
0.6571027493691858
 40
0.8772791087290026
 40
1.0
 40
1.0
 40
1.0
 40
1.0
 10
719.0599788288414
 20
599.9663056136557
 30
0.0
 10
719.2263965696123
 20
599.957476800706
 30
0.0
 10
719.5592391167114
 20
599.9398187999637
 30
0.0
 10
719.9973975593546
 20
599.9203003105547
 30
0.0
 10
720.3243633861142
 20
599.9089945269224
 30
0.0
 10
720.4862072631283
 20
599.9071706588456
 30
0.0
 10
720.5050785955405
 20
599.9106790881706
 30
0.0
 10
720.5118325334296
 20
599.9119347342071
 30
0.0
  0
ARC
  5
1E4
330
1F
100
AcDbEntity
  8
0
  6
Continuous
 62
     7
370
    25
100
AcDbCircle
 10
720.4840869109
 20
599.4126050778
 30
0.0
 40
0.5000999153469543
100
AcDbArc
 50
0.0190854623
 51
86.8195880753
  0
LINE
  5
1E5
330
1F
100
AcDbEntity
  8
0
  6
Continuous
 62
     7
370
    25
100
AcDbLine
 10
671.9064237309
 20
590.7499415394
 30
0.0
 11
671.9334099126
 21
590.6786512641
 31
0.0
  0
LINE
  5
1E6
330
1F
100
AcDbEntity
  8
0
  6
Continuous
 62
     7
370
    25
100
AcDbLine
 10
720.5165228941
 20
593.4044865314
 30
0.0
 11
720.5118325334
 21
593.4089249844
 31
0.0
  0
ELLIPSE
  5
1E7
330
1F
100
AcDbEntity
  8
0
  6
Continuous
 62
     7
370
    25
100
AcDbEllipse
 10
719.0167513514
 20
593.3211940814
 30
0.0
 11
1.499999304622861
 21
0.08287263343879658
 31
0.0
210
0.0
220
0.0
230
1.0
 40
0.0174284859
 41
5.396717970287499
 42
6.299675703199956
  0
LINE
  5
1E8
330
1F
100
AcDbEntity
  8
0
  6
Continuous
 62
     7
370
    25
100
AcDbLine
 10
716.5011366823
 20
593.1124344933
 30
0.0
 11
719.9660998918
 21
593.3533257723
 31
0.0
  0
LINE
  5
1E9
330
1F
100
AcDbEntity
  8
0
  6
Continuous
 62
     7
370
    25
100
AcDbLine
 10
716.5011366823
 20
593.1125328846
 30
0.0
 11
716.5011366823
 21
593.1124344933
 31
0.0
  0
ELLIPSE
  5
1EA
330
1F
100
AcDbEntity
  8
0
  6
Continuous
 62
     7
370
    25
100
AcDbEllipse
 10
707.0516502614
 20
592.7828868331
 30
0.0
 11
14.4999932780205
 21
0.8011021232407529
 31
0.0
210
0.0
220
0.0
230
1.0
 40
0.0174284859
 41
4.685109492442209
 42
5.421234828998426
  0
ELLIPSE
  5
1EB
330
1F
100
AcDbEntity
  8
0
  6
Continuous
 62
     7
370
    25
100
AcDbEllipse
 10
705.7306403458
 20
591.8326032838
 30
0.0
 11
35.70262504606012
 21
1.972514619921867
 31
0.0
210
0.0
220
0.0
230
1.0
 40
0.0174284859
 41
1.543516838852413
 42
2.02571733871812
  0
ELLIPSE
  5
1EC
330
1F
100
AcDbEntity
  8
0
  6
Continuous
 62
     7
370
    25
100
AcDbEllipse
 10
686.7104128738
 20
591.4602072241
 30
0.0
 11
7.499996523113964
 21
0.4143631671934145
 31
0.0
210
0.0
220
0.0
230
1.0
 40
0.0174284859
 41
4.976419334597816
 42
5.167309992308089
  0
LINE
  5
1ED
330
1F
100
AcDbEntity
  8
0
  6
Continuous
 62
     7
370
    25
100
AcDbLine
 10
688.6550652748
 20
591.5925516753
 30
0.0
 11
688.6746835322
 21
591.4421611307
 31
0.0
  0
SPLINE
  5
1EE
330
1F
100
AcDbEntity
  8
0
  6
Continuous
 62
     7
370
    25
100
AcDbSpline
210
0.0
220
0.0
230
1.0
 70
     8
 71
     3
 72
    10
 73
     6
 74
     0
 42
0.00000001
 43
0.00000001
 40
0.0
 40
0.0
 40
0.0
 40
0.0
 40
0.0186368637457253
 40
0.3939469944633057
 40
1.0
 40
1.0
 40
1.0
 40
1.0
 10
688.471293989144
 20
591.5920653080453
 30
0.0
 10
688.4737501963925
 20
591.5921530585247
 30
0.0
 10
688.5256696328695
 20
591.5940079327175
 30
0.0
 10
688.6296684813475
 20
591.5966879140957
 30
0.0
 10
688.6453691386968
 20
591.594130832698
 30
0.0
 10
688.6550652748405
 20
591.5925516752902
 30
0.0
  0
LINE
  5
1EF
330
1F
100
AcDbEntity
  8
0
  6
Continuous
 62
     7
370
    25
100
AcDbLine
 10
671.9334099126
 20
590.6786512641
 30
0.0
 11
688.4712939891
 21
591.592065308
 31
0.0
  0
LINE
  5
1F0
330
1F
100
AcDbEntity
  8
0
  6
Continuous
 62
     7
370
    25
100
AcDbLine
 10
688.4733597211
 20
601.7449980594
 30
0.0
 11
671.9394512976
 21
602.6581925216
 31
0.0
  0
SPLINE
  5
1F1
330
1F
100
AcDbEntity
  8
0
  6
Continuous
 62
     7
370
    25
100
AcDbSpline
210
0.0
220
0.0
230
1.0
 70
     8
 71
     3
 72
    11
 73
     7
 74
     0
 42
0.00000001
 43
0.00000001
 40
0.0
 40
0.0
 40
0.0
 40
0.0
 40
0.4177469294495335
 40
0.8392770662410767
 40
0.9817832068819767
 40
1.0
 40
1.0
 40
1.0
 40
1.0
 10
688.6570651617122
 20
601.7436486141371
 30
0.0
 10
688.6524281336804
 20
601.7425654229535
 30
0.0
 10
688.643112083679
 20
601.7403892309704
 30
0.0
 10
688.5676156179289
 20
601.7415914078617
 30
0.0
 10
688.4973554173567
 20
601.7440619352018
 30
0.0
 10
688.4758025806992
 20
601.7449027581587
 30
0.0
 10
688.4733597210693
 20
601.7449980594173
 30
0.0
  0
LINE
  5
1F2
330
1F
100
AcDbEntity
  8
0
  6
Continuous
 62
     7
370
    25
100
AcDbLine
 10
688.6746835322
 20
601.8786985879
 30
0.0
 11
688.6570651617
 21
601.7436486141
 31
0.0
  0
ELLIPSE
  5
1F3
330
1F
100
AcDbEntity
  8
0
  6
Continuous
 62
     7
370
    25
100
AcDbEllipse
 10
686.7104128738
 20
601.8606524945
 30
0.0
 11
7.499996523113964
 21
-0.4143631671935282
 31
0.0
210
0.0
220
0.0
230
1.0
 40
0.0174284859
 41
1.11587531487182
 42
1.306765972581885
  0
ELLIPSE
  5
1F4
330
1F
100
AcDbEntity
  8
0
  6
Continuous
 62
     7
370
    25
100
AcDbEllipse
 10
705.7306403458
 20
601.4882564348
 30
0.0
 11
35.70262504606012
 21
-1.972514619921981
 31
0.0
210
0.0
220
0.0
230
1.0
 40
0.0174284859
 41
4.257467968461734
 42
4.73966846832717
  0
ELLIPSE
  5
1F5
330
1F
100
AcDbEntity
  8
0
  6
Continuous
 62
     7
370
    25
100
AcDbEllipse
 10
707.0516502614
 20
600.5379728855
 30
0.0
 11
14.4999932780205
 21
-0.8011021232407529
 31
0.0
210
0.0
220
0.0
230
1.0
 40
0.0174284859
 41
0.8619504781819982
 42
1.598075814737367
  0
LINE
  5
1F6
330
1F
100
AcDbEntity
  8
0
  6
Continuous
 62
     7
370
    25
100
AcDbLine
 10
716.5011366823
 20
600.2084252253
 30
0.0
 11
716.5011366823
 21
600.2083268341
 31
0.0
  0
LINE
  5
1F7
330
1F
100
AcDbEntity
  8
0
  6
Continuous
 62
     7
370
    25
100
AcDbLine
 10
719.9660998918
 20
599.9675339463
 30
0.0
 11
716.5011366823
 21
600.2084252253
 31
0.0
  0
ELLIPSE
  5
1F8
330
1F
100
AcDbEntity
  8
0
  6
Continuous
 62
     7
370
    25
100
AcDbEllipse
 10
719.0167513514
 20
599.9996656373
 30
0.0
 11
1.499999304622861
 21
-0.08287263343856921
 31
0.0
210
0.0
220
0.0
230
1.0
 40
0.0174284859
 41
6.266694911155745
 42
7.169652644069147
  0
LINE
  5
1F9
330
1F
100
AcDbEntity
  8
0
  6
Continuous
 62
     7
370
    25
100
AcDbLine
 10
720.5118325334
 20
599.9119347342
 30
0.0
 11
720.5165228941
 21
599.9163731873
 31
0.0
  0
LINE
  5
1FA
330
1F
100
AcDbEntity
  8
0
  6
Continuous
 62
     7
370
    25
100
AcDbLine
 10
671.9394512976
 20
602.6581925216
 30
0.0
 11
671.9064237309
 21
602.5709181792
 31
0.0
  0
SPLINE
  5
1FB
330
1F
100
AcDbEntity
  8
0
  6
Continuous
 62
     7
370
    25
100
AcDbSpline
210
0.0
220
0.0
230
1.0
 70
     8
 71
     3
 72
     9
 73
     5
 74
     0
 42
0.00000001
 43
0.00000001
 40
0.0
 40
0.0
 40
0.0
 40
0.0
 40
0.5001021276704715
 40
0.9999999999999999
 40
0.9999999999999999
 40
0.9999999999999999
 40
0.9999999999999999
 10
669.113511483757
 20
589.6125372780474
 30
0.0
 10
669.5424592594643
 20
589.899062912136
 30
0.0
 10
670.4001796169148
 20
590.4719971554337
 30
0.0
 10
671.42240274553
 20
590.6097759418878
 30
0.0
 10
671.9334099125707
 20
590.6786512640883
 30
0.0
  0
LINE
  5
1FC
330
1F
100
AcDbEntity
  8
0
  6
Continuous
 62
     7
370
    25
100
AcDbLine
 10
669.1135114838
 20
589.612537278
 30
0.0
 11
669.0802926177
 21
589.678228725
 31
0.0
  0
SPLINE
  5
1FD
330
1F
100
AcDbEntity
  8
0
  6
Continuous
 62
     7
370
    25
100
AcDbSpline
210
0.0
220
0.0
230
1.0
 70
     8
 71
     3
 72
     9
 73
     5
 74
     0
 42
0.00000001
 43
0.00000001
 40
0.0
 40
0.0
 40
0.0
 40
0.0
 40
0.4007227371565293
 40
1.0
 40
1.0
 40
1.0
 40
1.0
 10
671.9394512976223
 20
602.6581925216318
 30
0.0
 10
671.5307651742131
 20
602.7065997836975
 30
0.0
 10
670.5108926151732
 20
602.8273996724413
 30
0.0
 10
669.6418165713474
 20
603.3875069457949
 30
0.0
 10
669.1209990586005
 20
603.723166499469
 30
0.0
  0
LINE
  5
1FE
330
1F
100
AcDbEntity
  8
0
  6
Continuous
 62
     7
370
    25
100
AcDbLine
 10
669.0802926177
 20
603.6426309936
 30
0.0
 11
669.1209990586
 21
603.7231664995
 31
0.0
  0
ARC
  5
1FF
330
1F
100
AcDbEntity
  8
0
  6
Continuous
 62
     7
370
    25
100
AcDbCircle
 10
663.5556659039
 20
596.6604298593
 30
0.0
 40
8.975658044222099
100
AcDbArc
 50
245.1648853947
 51
308.2586979829
  0
LWPOLYLINE
  5
200
330
1F
100
AcDbEntity
  8
0
  6
Continuous
 62
     7
370
    25
100
AcDbPolyline
 90
        3
 70
   128
 43
0.0
 10
659.6203524796
 20
588.409770136
 10
659.7249340438
 20
588.4760225473
 10
659.7858145865
 20
588.5148385136
  0
ARC
  5
201
330
1F
100
AcDbEntity
  8
0
  6
Continuous
 62
     7
370
    25
100
AcDbCircle
 10
663.5556659039
 20
596.6604298593
 30
0.0
 40
9.141120151092107
100
AcDbArc
 50
115.4997164176
 51
244.5002794289
  0
LWPOLYLINE
  5
202
330
1F
100
AcDbEntity
  8
0
  6
Continuous
 62
     7
370
    25
100
AcDbPolyline
 90
        3
 70
   128
 43
0.0
 10
659.7695216761
 20
604.8164272758
 10
659.7249340438
 20
604.8448371714
 10
659.6203524793
 20
604.9110895828
  0
ARC
  5
203
330
1F
100
AcDbEntity
  8
0
  6
Continuous
 62
     7
370
    25
100
AcDbCircle
 10
663.5556659039
 20
596.6604298593
 30
0.0
 40
8.991950954660766
100
AcDbArc
 50
51.762407147
 51
114.9014811666
  0
LINE
  5
204
330
1F
100
AcDbEntity
  8
0
  6
Continuous
 62
     7
370
    25
100
AcDbLine
 10
720.9888771592
 20
599.4172101162
 30
0.0
 11
720.9841867985
 21
599.4127716632
 31
0.0
  0
LINE
  5
205
330
1F
100
AcDbEntity
  8
0
  6
Continuous
 62
     7
370
    25
100
AcDbLine
 10
720.9888771592
 20
593.9036496024
 30
0.0
 11
720.9888771592
 21
599.4172101162
 31
0.0
  0
LINE
  5
206
330
1F
100
AcDbEntity
  8
0
  6
Continuous
 62
     7
370
    25
100
AcDbLine
 10
720.9841867985
 20
593.9080880555
 30
0.0
 11
720.9888771592
 21
593.9036496024
 31
0.0
  0
ARC
  5
207
330
1F
100
AcDbEntity
  8
0
  6
Continuous
 62
     7
370
    25
100
AcDbCircle
 10
720.4887772716
 20
599.4170435309
 30
0.0
 40
0.5000999153469133
100
AcDbArc
 50
0.0190854617
 51
86.8195880753
  0
ARC
  5
208
330
1F
100
AcDbEntity
  8
0
  6
Continuous
 62
     7
370
    25
100
AcDbCircle
 10
720.4887772716
 20
593.9038161878
 30
0.0
 40
0.5000999153469134
100
AcDbArc
 50
273.1804119247
 51
359.9809145383
  0
LINE
  5
209
330
1F
100
AcDbEntity
  8
0
  6
Continuous
 62
     7
370
    25
100
AcDbLine
 10
719.9660998918
 20
593.3533257723
 30
0.0
 11
719.9732076226
 21
593.353692809
 31
0.0
  0
LINE
  5
20A
330
1F
100
AcDbEntity
  8
0
  6
Continuous
 62
     7
370
    25
100
AcDbLine
 10
719.9660998918
 20
599.9675339463
 30
0.0
 11
719.9732076226
 21
599.9671669097
 31
0.0
  0
SPLINE
  5
20B
330
1F
100
AcDbEntity
  8
0
  6
Continuous
 62
     7
370
    25
100
AcDbSpline
210
0.0
220
0.0
230
1.0
 70
     8
 71
     3
 72
    12
 73
     8
 74
     0
 42
0.00000001
 43
0.00000001
 40
0.0
 40
0.0
 40
0.0
 40
0.0
 40
0.1662426524176549
 40
0.3368059756191304
 40
0.6054181071254592
 40
0.8801435087136196
 40
1.0
 40
1.0
 40
1.0
 40
1.0
 10
669.6777251512008
 20
584.9837694776494
 30
0.0
 10
669.0400436306646
 20
585.1392546531324
 30
0.0
 10
667.748107153864
 20
585.4542660864877
 30
0.0
 10
665.5639207715146
 20
586.1172311914862
 30
0.0
 10
663.2019464279548
 20
586.9694261082916
 30
0.0
 10
661.2364088660622
 20
587.8120547869037
 30
0.0
 10
660.1226338812667
 20
588.349912879599
 30
0.0
 10
659.7843184031092
 20
588.5132903304261
 30
0.0
  0
LINE
  5
20C
330
1F
100
AcDbEntity
  8
0
  6
Continuous
 62
     7
370
    25
100
AcDbLine
 10
669.6777251512
 20
584.9837694776
 30
0.0
 11
669.6618670743
 21
584.9142959461
 31
0.0
  0
ARC
  5
20D
330
1F
100
AcDbEntity
  8
0
  6
Continuous
 62
     7
370
    25
100
AcDbCircle
 10
680.3836453107
 20
631.8859307583
 30
0.0
 40
48.17977797259051
100
AcDbArc
 50
244.4718479123
 51
257.1419190681
  0
LWPOLYLINE
  5
20E
330
1F
100
AcDbEntity
  8
0
  6
Continuous
 62
     7
370
    25
100
AcDbPolyline
 90
        3
 70
   128
 43
0.0
 10
659.7843184031
 20
588.5132903304
 10
659.7249305528
 20
588.4757666269
 10
659.6203524799
 20
588.409768597
  0
SPLINE
  5
20F
330
1F
100
AcDbEntity
  8
0
  6
Continuous
 62
     7
370
    25
100
AcDbSpline
210
0.0
220
0.0
230
1.0
 70
     8
 71
     3
 72
    11
 73
     7
 74
     0
 42
0.00000001
 43
0.00000001
 40
0.0
 40
0.0
 40
0.0
 40
0.0
 40
0.1345990676765955
 40
0.41269788159695
 40
0.6969472592954596
 40
0.9999999999999999
 40
0.9999999999999999
 40
0.9999999999999999
 40
0.9999999999999999
 10
659.7850359800663
 20
588.5140318965001
 30
0.0
 10
660.2143420003146
 20
588.323148011339
 30
0.0
 10
661.5306489270387
 20
587.7378737119191
 30
0.0
 10
663.906458977922
 20
587.1154058278954
 30
0.0
 10
666.9601483628031
 20
586.7389031453953
 30
0.0
 10
669.1511782711638
 20
586.7117618170623
 30
0.0
 10
670.2817677887017
 20
586.6977566676172
 30
0.0
  0
ARC
  5
210
330
1F
100
AcDbEntity
  8
0
  6
Continuous
 62
     7
370
    25
100
AcDbCircle
 10
665.7892367957
 20
587.3175807122
 30
0.0
 40
4.535087272522222
100
AcDbArc
 50
329.0284626407
 51
352.1446266983
  0
LINE
  5
211
330
1F
100
AcDbEntity
  8
0
  6
Continuous
 62
     7
370
    25
100
AcDbLine
 10
659.7843184031
 20
588.5132903304
 30
0.0
 11
659.7850359801
 21
588.5140318965
 31
0.0
  0
LINE
  5
212
330
1F
100
AcDbEntity
  8
0
  6
Continuous
 62
     7
370
    25
100
AcDbLine
 10
669.1135114838
 20
589.612537278
 30
0.0
 11
671.3113834039
 21
586.8254204037
 31
0.0
  0
ARC
  5
213
330
1F
100
AcDbEntity
  8
0
  6
Continuous
 62
     7
370
    25
100
AcDbCircle
 10
663.5556659039
 20
596.6604298593
 30
0.0
 40
12.52511736202734
100
AcDbArc
 50
307.8583068702
 51
308.2586979829
  0
LINE
  5
214
330
1F
100
AcDbEntity
  8
0
  6
Continuous
 62
     7
370
    25
100
AcDbLine
 10
670.2817677887
 20
586.6977566676
 30
0.0
 11
671.2424661376
 21
586.7714629214
 31
0.0
  0
LINE
  5
215
330
1F
100
AcDbEntity
  8
0
  6
Continuous
 62
     7
370
    25
100
AcDbLine
 10
659.7858145865
 20
588.5148385136
 30
0.0
 11
659.7850359801
 21
588.5140318965
 31
0.0
  0
ARC
  5
216
330
1F
100
AcDbEntity
  8
0
  6
Continuous
 62
     7
370
    25
100
AcDbCircle
 10
681.4733376176
 20
591.3838304712
 30
0.0
 40
6.834138728219195
100
AcDbArc
 50
211.8771071303
 51
226.9488007428
  0
SPLINE
  5
217
330
1F
100
AcDbEntity
  8
0
  6
Continuous
 62
     7
370
    25
100
AcDbSpline
210
0.0
220
0.0
230
1.0
 70
     8
 71
     3
 72
    16
 73
    12
 74
     0
 42
0.00000001
 43
0.00000001
 40
0.0
 40
0.0
 40
0.0
 40
0.0
 40
0.2861254310575662
 40
0.7591203623085429
 40
0.8520758313858452
 40
0.9266344548631258
 40
0.9604862301433732
 40
0.9835335436569235
 40
0.9930756629548355
 40
0.997224229202362
 40
1.0
 40
1.0
 40
1.0
 40
1.0
 10
675.6699048264497
 20
587.7747280903353
 30
0.0
 10
676.8980516635734
 20
588.3047953996872
 30
0.0
 10
680.1564522486576
 20
589.7111187958145
 30
0.0
 10
683.9540337032649
 20
590.7289307986989
 30
0.0
 10
686.7516953531695
 20
591.2908510164705
 30
0.0
 10
687.6168282920638
 20
591.4453535323634
 30
0.0
 10
688.142414460798
 20
591.5338741981936
 30
0.0
 10
688.3760767195121
 20
591.5729835818424
 30
0.0
 10
688.4537268666728
 20
591.5873035508121
 30
0.0
 10
688.469808521708
 20
591.591037289435
 30
0.0
 10
688.4708689096298
 20
591.5917711315182
 30
0.0
 10
688.471293989144
 20
591.5920653080453
 30
0.0
  0
SPLINE
  5
218
330
1F
100
AcDbEntity
  8
0
  6
Continuous
 62
     7
370
    25
100
AcDbSpline
210
0.0
220
0.0
230
1.0
 70
     8
 71
     3
 72
    10
 73
     6
 74
     0
 42
0.00000001
 43
0.00000001
 40
0.0
 40
0.0
 40
0.0
 40
0.0
 40
0.5975855365574468
 40
0.9790563563182108
 40
1.0
 40
1.0
 40
1.0
 40
1.0
 10
688.5813193088316
 20
591.5829384107059
 30
0.0
 10
688.5838384481849
 20
591.5866777084323
 30
0.0
 10
688.5879656889655
 20
591.5928039999558
 30
0.0
 10
688.5135945624104
 20
591.5931805588123
 30
0.0
 10
688.4733866103057
 20
591.5921204798119
 30
0.0
 10
688.471293989144
 20
591.5920653080453
 30
0.0
  0
SPLINE
  5
219
330
1F
100
AcDbEntity
  8
0
  6
Continuous
 62
     7
370
    25
100
AcDbSpline
210
0.0
220
0.0
230
1.0
 70
     8
 71
     3
 72
    14
 73
    10
 74
     0
 42
0.00000001
 43
0.00000001
 40
0.0
 40
0.0
 40
0.0
 40
0.0
 40
0.0129036569231464
 40
0.0519665716781149
 40
0.1318891824261205
 40
0.2280032005552169
 40
0.4679440229400838
 40
0.7079115564493629
 40
0.9999999999999999
 40
0.9999999999999999
 40
0.9999999999999999
 40
0.9999999999999999
 10
688.5813193088316
 20
591.5829384107059
 30
0.0
 10
688.5478507323672
 20
591.5750934366446
 30
0.0
 10
688.4130635795345
 20
591.543499570712
 30
0.0
 10
687.9737901345421
 20
591.4411175234183
 30
0.0
 10
687.1623627163161
 20
591.2387160146012
 30
0.0
 10
685.5088855344956
 20
590.771665333835
 30
0.0
 10
683.1645954622518
 20
589.9342082744448
 30
0.0
 10
680.0195012857547
 20
588.4892680340944
 30
0.0
 10
677.9462026115622
 20
587.1338971512997
 30
0.0
 10
676.808001728815
 20
586.38982474415
 30
0.0
  0
LINE
  5
21A
330
1F
100
AcDbEntity
  8
0
  6
Continuous
 62
     7
370
    25
100
AcDbLine
 10
674.2292364644
 20
587.2505844084
 30
0.0
 11
672.1291539483
 21
587.1345934596
 31
0.0
  0
LINE
  5
21B
330
1F
100
AcDbEntity
  8
0
  6
Continuous
 62
     7
370
    25
100
AcDbLine
 10
671.9334099126
 20
590.6786512641
 30
0.0
 11
672.1291539483
 21
587.1345934596
 31
0.0
  0
LINE
  5
21C
330
1F
100
AcDbEntity
  8
0
  6
Continuous
 62
     7
370
    25
100
AcDbLine
 10
674.2292364644
 20
587.2505844084
 30
0.0
 11
675.6699048264
 21
587.7747280903
 31
0.0
  0
LWPOLYLINE
  5
21D
330
1F
100
AcDbEntity
  8
0
  6
Continuous
 62
     7
370
    25
100
AcDbPolyline
 90
        4
 70
   128
 43
0.0
 10
688.6008461229
 20
591.4318428344
 10
688.5986014872
 20
591.4492009813
 10
688.5896264533
 20
591.5186337275
 10
688.5813193088
 20
591.5829384107
  0
LINE
  5
21E
330
1F
100
AcDbEntity
  8
0
  6
Continuous
 62
     7
370
    25
100
AcDbLine
 10
686.8127218391
 20
591.0023153312
 30
0.0
 11
688.6008461229
 21
591.4318428344
 31
0.0
  0
ARC
  5
21F
330
1F
100
AcDbEntity
  8
0
  6
Continuous
 62
     7
370
    25
100
AcDbCircle
 10
694.9982802377
 20
560.5766217373
 30
0.0
 40
31.5075577752834
100
AcDbArc
 50
105.0579972479
 51
125.1719294169
  0
LINE
  5
220
330
1F
100
AcDbEntity
  8
0
  6
Continuous
 62
     7
370
    25
100
AcDbLine
 10
676.8080017288
 20
586.3898247442
 30
0.0
 11
676.848921615
 21
586.3317567311
 31
0.0
  0
SPLINE
  5
221
330
1F
100
AcDbEntity
  8
0
  6
Continuous
 62
     7
370
    25
100
AcDbSpline
210
0.0
220
0.0
230
1.0
 70
     8
 71
     3
 72
     9
 73
     5
 74
     0
 42
0.00000001
 43
0.00000001
 40
0.0
 40
0.0
 40
0.0
 40
0.0
 40
0.499897873060973
 40
0.9999999999999999
 40
0.9999999999999999
 40
0.9999999999999999
 40
0.9999999999999999
 10
672.129153948276
 20
587.1345934596445
 30
0.0
 10
671.9809590323802
 20
587.1146271216423
 30
0.0
 10
671.6845086494482
 20
587.0746862875675
 30
0.0
 10
671.4357754206716
 20
586.908520344997
 30
0.0
 10
671.31138340392
 20
586.8254204036925
 30
0.0
  0
ARC
  5
222
330
1F
100
AcDbEntity
  8
0
  6
Continuous
 62
     7
370
    25
100
AcDbCircle
 10
688.6826546237
 20
591.0932369709
 30
0.0
 40
0.5000763403533582
100
AcDbArc
 50
93.1626296397
 51
101.6913635619
  0
SPLINE
  5
223
330
1F
100
AcDbEntity
  8
0
  6
Continuous
 62
     7
370
    25
100
AcDbSpline
210
0.0
220
0.0
230
1.0
 70
     8
 71
     3
 72
    12
 73
     8
 74
     0
 42
0.00000001
 43
0.00000001
 40
0.0
 40
0.0
 40
0.0
 40
0.0
 40
0.0460732444350178
 40
0.2494607408078305
 40
0.4779405209378891
 40
0.7057893369168755
 40
1.0
 40
1.0
 40
1.0
 40
1.0
 10
659.7682874294189
 20
604.8177016194229
 30
0.0
 10
659.8966246571407
 20
604.8802070168387
 30
0.0
 10
660.5914986625047
 20
605.218638636644
 30
0.0
 10
661.9507546134595
 20
605.837180733469
 30
0.0
 10
663.9607091281497
 20
606.6449052850377
 30
0.0
 10
666.4559115372633
 20
607.5169831985772
 30
0.0
 10
668.386254836694
 20
608.0121199325515
 30
0.0
 10
669.4741147547321
 20
608.2911580741079
 30
0.0
  0
LINE
  5
224
330
1F
100
AcDbEntity
  8
0
  6
Continuous
 62
     7
370
    25
100
AcDbLine
 10
669.9275748326
 20
606.3435555449
 30
0.0
 11
669.4741147547
 21
608.2911580741
 31
0.0
  0
SPLINE
  5
225
330
1F
100
AcDbEntity
  8
0
  6
Continuous
 62
     7
370
    25
100
AcDbSpline
210
0.0
220
0.0
230
1.0
 70
     8
 71
     3
 72
    13
 73
     9
 74
     0
 42
0.00000001
 43
0.00000001
 40
0.0
 40
0.0
 40
0.0
 40
0.0
 40
0.2574896950994369
 40
0.4890886589321034
 40
0.7206004760683483
 40
0.9447506334961274
 40
0.9460032291293298
 40
0.9999999999999999
 40
0.9999999999999999
 40
0.9999999999999999
 40
0.9999999999999999
 10
669.9275748326191
 20
606.3435555448939
 30
0.0
 10
669.0088492566312
 20
606.3716185090086
 30
0.0
 10
667.2637764694931
 20
606.4249226906742
 30
0.0
 10
664.7692112235796
 20
606.260358571836
 30
0.0
 10
662.4535614175785
 20
605.846984576826
 30
0.0
 10
660.9764528159753
 20
605.3474273902624
 30
0.0
 10
660.105191371434
 20
604.9731845353326
 30
0.0
 10
659.935144962611
 20
604.8942041168475
 30
0.0
 10
659.7689537905559
 20
604.8170143166728
 30
0.0
  0
LINE
  5
226
330
1F
100
AcDbEntity
  8
0
  6
Continuous
 62
     7
370
    25
100
AcDbLine
 10
659.7689537906
 20
604.8170143167
 30
0.0
 11
659.7682874294
 21
604.8177016194
 31
0.0
  0
ARC
  5
227
330
1F
100
AcDbEntity
  8
0
  6
Continuous
 62
     7
370
    25
100
AcDbCircle
 10
680.3836453107
 20
561.4349289603
 30
0.0
 40
48.10950076354631
100
AcDbArc
 50
102.8580809319
 51
103.1066633214
  0
LWPOLYLINE
  5
228
330
1F
100
AcDbEntity
  8
0
  6
Continuous
 62
     7
370
    25
100
AcDbPolyline
 90
        3
 70
   128
 43
0.0
 10
659.7682874294
 20
604.8177016194
 10
659.7249305528
 20
604.8450930918
 10
659.6203524796
 20
604.9110911219
  0
ARC
  5
229
330
1F
100
AcDbEntity
  8
0
  6
Continuous
 62
     7
370
    25
100
AcDbCircle
 10
680.3836453107
 20
561.4349289603
 30
0.0
 40
48.17977797259051
100
AcDbArc
 50
102.8580809319
 51
115.5281512988
  0
LINE
  5
22A
330
1F
100
AcDbEntity
  8
0
  6
Continuous
 62
     7
370
    25
100
AcDbLine
 10
669.6775063462
 20
608.3380488159
 30
0.0
 11
669.6618670743
 21
608.4065637726
 31
0.0
  0
LINE
  5
22B
330
1F
100
AcDbEntity
  8
0
  6
Continuous
 62
     7
370
    25
100
AcDbLine
 10
671.9394512976
 20
602.6581925216
 30
0.0
 11
672.0828131266
 21
605.2538404911
 31
0.0
  0
LINE
  5
22C
330
1F
100
AcDbEntity
  8
0
  6
Continuous
 62
     7
370
    25
100
AcDbLine
 10
672.0828131266
 20
605.2538404911
 30
0.0
 11
676.0328941484
 21
605.0356711374
 31
0.0
  0
SPLINE
  5
22D
330
1F
100
AcDbEntity
  8
0
  6
Continuous
 62
     7
370
    25
100
AcDbSpline
210
0.0
220
0.0
230
1.0
 70
     8
 71
     3
 72
    17
 73
    13
 74
     0
 42
0.00000001
 43
0.00000001
 40
0.0
 40
0.0
 40
0.0
 40
0.0
 40
0.0068263121770683
 40
0.008844850729726
 40
0.0223990310416119
 40
0.0309593028397531
 40
0.0563218912149136
 40
0.1198824177066677
 40
0.1957460556357049
 40
0.5558621944880022
 40
0.7780336097977192
 40
1.0
 40
1.0
 40
1.0
 40
1.0
 10
688.4733597210693
 20
601.7449980594173
 30
0.0
 10
688.4697395759076
 20
601.7460362424624
 30
0.0
 10
688.4650489548602
 20
601.747381415936
 30
0.0
 10
688.4215162421566
 20
601.7549714040109
 30
0.0
 10
688.3469843197244
 20
601.7667229108175
 30
0.0
 10
688.1801520742223
 20
601.7924418060408
 30
0.0
 10
687.7985759571551
 20
601.8509563850629
 30
0.0
 10
687.1156749904206
 20
601.9601533696501
 30
0.0
 10
685.0106756735031
 20
602.3273256020742
 30
0.0
 10
682.1977410917168
 20
602.9615032860396
 30
0.0
 10
678.7989568771502
 20
603.9744435778981
 30
0.0
 10
676.9546312623864
 20
604.6820374985847
 30
0.0
 10
676.0328941483958
 20
605.0356711374119
 30
0.0
  0
LINE
  5
22E
330
1F
100
AcDbEntity
  8
0
  6
Continuous
 62
     7
370
    25
100
AcDbLine
 10
676.0328941484
 20
605.0356711374
 30
0.0
 11
677.1623695659
 21
606.6858429271
 31
0.0
  0
SPLINE
  5
22F
330
1F
100
AcDbEntity
  8
0
  6
Continuous
 62
     7
370
    25
100
AcDbSpline
210
0.0
220
0.0
230
1.0
 70
     8
 71
     3
 72
    14
 73
    10
 74
     0
 42
0.00000001
 43
0.00000001
 40
0.0
 40
0.0
 40
0.0
 40
0.0
 40
0.225645860719597
 40
0.4518169308148968
 40
0.8157761447763437
 40
0.8946140573305363
 40
0.9637846180221653
 40
0.9940799143125675
 40
1.0
 40
1.0
 40
1.0
 40
1.0
 10
677.1623695658878
 20
606.6858429270507
 30
0.0
 10
678.008117112959
 20
606.1408192045494
 30
0.0
 10
679.7015807543628
 20
605.0495031718223
 30
0.0
 10
682.8818028544151
 20
603.4840620870202
 30
0.0
 10
685.5530809175816
 20
602.5306832527842
 30
0.0
 10
687.5036094048327
 20
602.0092351066552
 30
0.0
 10
688.1476859152747
 20
601.853854432013
 30
0.0
 10
688.4756368115012
 20
601.7783043711685
 30
0.0
 10
688.5681741441001
 20
601.7567835970234
 30
0.0
 10
688.5833011124862
 20
601.7532656215102
 30
0.0
  0
SPLINE
  5
230
330
1F
100
AcDbEntity
  8
0
  6
Continuous
 62
     7
370
    25
100
AcDbSpline
210
0.0
220
0.0
230
1.0
 70
     8
 71
     3
 72
    11
 73
     7
 74
     0
 42
0.00000001
 43
0.00000001
 40
0.0
 40
0.0
 40
0.0
 40
0.0
 40
0.0195561212295859
 40
0.1681891996744558
 40
0.5898876540792811
 40
1.0
 40
1.0
 40
1.0
 40
1.0
 10
688.4733597210692
 20
601.7449980594173
 30
0.0
 10
688.4753184342171
 20
601.7449399457015
 30
0.0
 10
688.49216402404
 20
601.7444401482608
 30
0.0
 10
688.5440645877991
 20
601.7435937308472
 30
0.0
 10
688.5933492198646
 20
601.7456830293694
 30
0.0
 10
688.5866192347883
 20
601.7507616705528
 30
0.0
 10
688.5833011124862
 20
601.7532656215102
 30
0.0
  0
LINE
  5
231
330
1F
100
AcDbEntity
  8
0
  6
Continuous
 62
     7
370
    25
100
AcDbLine
 10
669.1209990586
 20
603.7231664995
 30
0.0
 11
670.7299560519
 21
605.7650280004
 31
0.0
  0
LINE
  5
232
330
1F
100
AcDbEntity
  8
0
  6
Continuous
 62
     7
370
    25
100
AcDbLine
 10
659.7689537906
 20
604.8170143167
 30
0.0
 11
659.7695216761
 21
604.8164272758
 31
0.0
  0
ARC
  5
233
330
1F
100
AcDbEntity
  8
0
  6
Continuous
 62
     7
370
    25
100
AcDbCircle
 10
663.5556659039
 20
596.6604298593
 30
0.0
 40
11.5915549620674
100
AcDbArc
 50
51.762407147
 51
56.6533814372
  0
LWPOLYLINE
  5
234
330
1F
100
AcDbEntity
  8
0
  6
Continuous
 62
     7
370
    25
100
AcDbPolyline
 90
        4
 70
   128
 43
0.0
 10
688.5833011125
 20
601.7532656215
 10
688.5855433588
 20
601.7706238765
 10
688.5945158417
 20
601.8400567381
 10
688.6008461229
 20
601.8890168842
  0
ARC
  5
235
330
1F
100
AcDbEntity
  8
0
  6
Continuous
 62
     7
370
    25
100
AcDbCircle
 10
694.9982802377
 20
632.7442379813
 30
0.0
 40
31.57783498432761
100
AcDbArc
 50
234.8280705831
 51
235.6099480104
  0
LINE
  5
236
330
1F
100
AcDbEntity
  8
0
  6
Continuous
 62
     7
370
    25
100
AcDbLine
 10
676.8084397002
 20
606.9316564847
 30
0.0
 11
676.848921615
 21
606.9891029875
 31
0.0
  0
ARC
  5
237
330
1F
100
AcDbEntity
  8
0
  6
Continuous
 62
     7
370
    25
100
AcDbCircle
 10
694.9982802377
 20
632.7442379813
 30
0.0
 40
31.5075577752834
100
AcDbArc
 50
234.8280705831
 51
254.9420027521
  0
LINE
  5
238
330
1F
100
AcDbEntity
  8
0
  6
Continuous
 62
     7
370
    25
100
AcDbLine
 10
688.6008461229
 20
601.8890168842
 30
0.0
 11
686.8127218391
 21
602.3185443875
 31
0.0
  0
LINE
  5
239
330
1F
100
AcDbEntity
  8
0
  6
Continuous
 62
     7
370
    25
100
AcDbLine
 10
688.6746835322
 20
591.4421611307
 30
0.0
 11
688.6008461229
 21
591.4318428344
 31
0.0
  0
SPLINE
  5
23A
330
1F
100
AcDbEntity
  8
0
  6
Continuous
 62
     7
370
    25
100
AcDbSpline
210
0.0
220
0.0
230
1.0
 70
     8
 71
     3
 72
    10
 73
     6
 74
     0
 42
0.00000001
 43
0.00000001
 40
0.0
 40
0.0
 40
0.0
 40
0.0
 40
0.0490769085761621
 40
0.5995805843665267
 40
1.0
 40
1.0
 40
1.0
 40
1.0
 10
670.7299560518591
 20
605.7650280004453
 30
0.0
 10
670.7489035902281
 20
605.750405264844
 30
0.0
 10
670.9803887521348
 20
605.5717569226549
 30
0.0
 10
671.426262526952
 20
605.3377049292336
 30
0.0
 10
671.8882691038364
 20
605.278690556216
 30
0.0
 10
672.08281312659
 20
605.2538404910837
 30
0.0
  0
ARC
  5
23B
330
1F
100
AcDbEntity
  8
0
  6
Continuous
 62
     7
370
    25
100
AcDbCircle
 10
688.6846545134
 20
602.2429633185
 30
0.0
 40
0.5000763405274891
100
AcDbArc
 50
258.306520338
 51
266.8373700344
  0
SPLINE
  5
23C
330
1F
100
AcDbEntity
  8
0
  6
Continuous
 62
     7
370
    25
100
AcDbSpline
210
0.0
220
0.0
230
1.0
 70
     8
 71
     3
 72
     9
 73
     5
 74
     0
 42
0.00000001
 43
0.00000001
 40
0.0
 40
0.0
 40
0.0
 40
0.0
 40
0.845891190778427
 40
0.9999999999999999
 40
0.9999999999999999
 40
0.9999999999999999
 40
0.9999999999999999
 10
688.6008461228968
 20
601.8890168841965
 30
0.0
 10
688.6216867190078
 20
601.8852020772042
 30
0.0
 10
688.6463241621427
 20
601.8806922690468
 30
0.0
 10
688.670896689319
 20
601.8789648052958
 30
0.0
 10
688.6746835322216
 20
601.8786985879142
 30
0.0
  0
LINE
  5
23D
330
1F
100
AcDbEntity
  8
0
  6
Continuous
 62
     7
370
    25
100
AcDbLine
 10
706.6701037299
 20
600.8124427346
 30
0.0
 11
706.6696457101
 21
600.8124678211
 31
0.0
  0
LINE
  5
23E
330
1F
100
AcDbEntity
  8
0
  6
Continuous
 62
     7
370
    25
100
AcDbLine
 10
676.8080017288
 20
586.3898247442
 30
0.0
 11
674.9692608795
 21
585.3928585085
 31
0.0
  0
LINE
  5
23F
330
1F
100
AcDbEntity
  8
0
  6
Continuous
 62
     7
370
    25
100
AcDbLine
 10
674.2292364644
 20
587.2505844084
 30
0.0
 11
674.9692608795
 21
585.3928585085
 31
0.0
  0
LINE
  5
240
330
1F
100
AcDbEntity
  8
0
  6
Continuous
 62
     7
370
    25
100
AcDbLine
 10
671.2424661376
 20
586.7714629214
 30
0.0
 11
671.120632391
 21
584.7754824124
 31
0.0
  0
LINE
  5
241
330
1F
100
AcDbEntity
  8
0
  6
Continuous
 62
     7
370
    25
100
AcDbLine
 10
671.120632391
 20
584.7754824124
 30
0.0
 11
669.6777251512
 21
584.9837694776
 31
0.0
  0
ARC
  5
242
330
1F
100
AcDbEntity
  8
0
  6
Continuous
 62
     7
370
    25
100
AcDbCircle
 10
671.6646811091
 20
593.6885353835
 30
0.0
 40
6.929946387144304
100
AcDbArc
 50
266.5070253286
 51
291.7198462835
  0
ARC
  5
243
330
1F
100
AcDbEntity
  8
0
  6
Continuous
 62
     7
370
    25
100
AcDbCircle
 10
671.6646811091
 20
593.6885353835
 30
0.0
 40
8.929641777457107
100
AcDbArc
 50
266.5070253286
 51
291.7198462835
  0
ARC
  5
244
330
1F
100
AcDbEntity
  8
0
  6
Continuous
 62
     7
370
    25
100
AcDbCircle
 10
680.3836453107
 20
561.4349289603
 30
0.0
 40
46.10980537323343
100
AcDbArc
 50
102.8580809319
 51
103.1066633214
  0
LINE
  5
245
330
1F
100
AcDbEntity
  8
0
  6
Continuous
 62
     7
370
    25
100
AcDbLine
 10
670.1225123512
 20
606.3884972496
 30
0.0
 11
669.6775063462
 21
608.3380488159
 31
0.0
  0
ARC
  5
246
330
1F
100
AcDbEntity
  8
0
  6
Continuous
 62
     7
370
    25
100
AcDbCircle
 10
671.6646811091
 20
599.6323243351
 30
0.0
 40
6.929946387144206
100
AcDbArc
 50
54.8280705831
 51
102.8580809319
  0
ARC
  5
247
330
1F
100
AcDbEntity
  8
0
  6
Continuous
 62
     7
370
    25
100
AcDbCircle
 10
671.6646811091
 20
599.6323243351
 30
0.0
 40
8.929641777457046
100
AcDbArc
 50
54.8280705831
 51
102.8580809319
  0
LINE
  5
248
330
1F
100
AcDbEntity
  8
0
  6
Continuous
 62
     7
370
    25
100
AcDbLine
 10
675.656551349
 20
605.2970510643
 30
0.0
 11
676.8084397002
 21
606.9316564847
 31
0.0
  0
ARC
  5
249
330
1F
100
AcDbEntity
  8
0
  6
Continuous
 62
     7
370
    25
100
AcDbCircle
 10
694.9982802377
 20
632.7442379813
 30
0.0
 40
33.57753037464038
100
AcDbArc
 50
234.8280705831
 51
235.6099480104
  0
ARC
  5
24A
330
1F
100
AcDbEntity
  8
0
  6
Continuous
 62
     7
370
    25
100
AcDbCircle
 10
671.6646811091
 20
593.6885353835
 30
0.0
 40
8.999918986501271
100
AcDbArc
 50
257.1419190681
 51
305.1719294169
  0
ARC
  5
24B
330
1F
100
AcDbEntity
  8
0
  6
Continuous
 62
     7
370
    25
100
AcDbCircle
 10
671.6646811091
 20
599.6323243351
 30
0.0
 40
8.999918986501177
100
AcDbArc
 50
54.8280705831
 51
102.8580809319
  0
SPLINE
  5
24C
330
1F
100
AcDbEntity
  8
0
  6
Continuous
 62
     7
370
    25
100
AcDbSpline
210
0.0
220
0.0
230
1.0
 70
    24
 71
     3
 72
    10
 73
     6
 74
     0
 42
0.00000001
 43
0.00000001
 40
0.0
 40
0.0
 40
0.0
 40
0.0
 40
0.4623833335285075
 40
0.9418968880273317
 40
1.0
 40
1.0
 40
1.0
 40
1.0
 10
663.5612120904859
 20
586.9150085704921
 30
0.0
 10
662.9319941871732
 20
586.9150085704921
 30
0.0
 10
661.6502473290013
 20
586.9150085704921
 30
0.0
 10
660.3347692214489
 20
586.9150085704921
 30
0.0
 10
659.6497498654093
 20
586.9150085704921
 30
0.0
 10
659.5757161554637
 20
586.9150085704921
 30
0.0
  0
ARC
  5
24D
330
1F
100
AcDbEntity
  8
0
  6
Continuous
 62
     7
370
    25
100
AcDbCircle
 10
663.5556659039
 20
596.4150085705
 30
0.0
 40
10.29999999999993
100
AcDbArc
 50
232.7308609266
 51
247.2691390734
  0
SPLINE
  5
24E
330
1F
100
AcDbEntity
  8
0
  6
Continuous
 62
     7
370
    25
100
AcDbSpline
210
0.0
220
0.0
230
1.0
 70
    24
 71
     3
 72
    11
 73
     7
 74
     0
 42
0.00000001
 43
0.00000001
 40
0.0
 40
0.0
 40
0.0
 40
0.0
 40
0.243164119738092
 40
0.4936284730588937
 40
0.7421706076863289
 40
1.0
 40
1.0
 40
1.0
 40
1.0
 10
657.3183994421513
 20
588.2182709825693
 30
0.0
 10
657.0046404404546
 20
588.76171751484
 30
0.0
 10
656.3677028154345
 20
589.8649258426268
 30
0.0
 10
655.357313846428
 20
591.6149708723535
 30
0.0
 10
654.325606718592
 20
593.4019400362963
 30
0.0
 10
653.6715009756938
 20
594.5348844165186
 30
0.0
 10
653.3384496937248
 20
595.1117461584149
 30
0.0
  0
ARC
  5
24F
330
1F
100
AcDbEntity
  8
0
  6
Continuous
 62
     7
370
    25
100
AcDbCircle
 10
663.5556659039
 20
596.4150085705
 30
0.0
 40
10.30000000000008
100
AcDbArc
 50
172.7308609266
 51
187.2691390734
  0
SPLINE
  5
250
330
1F
100
AcDbEntity
  8
0
  6
Continuous
 62
     7
370
    25
100
AcDbSpline
210
0.0
220
0.0
230
1.0
 70
    24
 71
     3
 72
    11
 73
     7
 74
     0
 42
0.00000001
 43
0.00000001
 40
0.0
 40
0.0
 40
0.0
 40
0.0
 40
0.2431641197380916
 40
0.4936284730588936
 40
0.7421706076863288
 40
0.9999999999999999
 40
0.9999999999999999
 40
0.9999999999999999
 40
0.9999999999999999
 10
653.3384496937248
 20
597.7182709825693
 30
0.0
 10
653.6522086954216
 20
598.2617175148401
 30
0.0
 10
654.2891463204414
 20
599.3649258426269
 30
0.0
 10
655.299535289448
 20
601.1149708723534
 30
0.0
 10
656.331242417284
 20
602.9019400362963
 30
0.0
 10
656.9853481601823
 20
604.0348844165186
 30
0.0
 10
657.3183994421513
 20
604.6117461584148
 30
0.0
  0
ARC
  5
251
330
1F
100
AcDbEntity
  8
0
  6
Continuous
 62
     7
370
    25
100
AcDbCircle
 10
663.5556659039
 20
596.4150085705
 30
0.0
 40
10.30000000000012
100
AcDbArc
 50
112.7308609266
 51
127.2691390734
  0
SPLINE
  5
252
330
1F
100
AcDbEntity
  8
0
  6
Continuous
 62
     7
370
    25
100
AcDbSpline
210
0.0
220
0.0
230
1.0
 70
    24
 71
     3
 72
    10
 73
     6
 74
     0
 42
0.00000001
 43
0.00000001
 40
0.0
 40
0.0
 40
0.0
 40
0.0
 40
0.0980818446315592
 40
0.9075320161336359
 40
1.0
 40
1.0
 40
1.0
 40
1.0
 10
659.5757161554637
 20
605.9150085704921
 30
0.0
 10
659.649772904019
 20
605.9150085704921
 30
0.0
 10
660.3350054317827
 20
605.9150085704921
 30
0.0
 10
661.1080016524722
 20
605.9150085704921
 30
0.0
 10
661.8320263312494
 20
605.9150085704921
 30
0.0
 10
661.9062560181866
 20
605.9150085704921
 30
0.0
  0
SPLINE
  5
253
330
1F
100
AcDbEntity
  8
0
  6
Continuous
 62
     7
370
    25
100
AcDbSpline
210
0.0
220
0.0
230
1.0
 70
    24
 71
     3
 72
    10
 73
     6
 74
     0
 42
0.00000001
 43
0.00000001
 40
0.0
 40
0.0
 40
0.0
 40
0.0
 40
0.0993449454715196
 40
0.5414131067043148
 40
1.0
 40
1.0
 40
1.0
 40
1.0
 10
562.6238168051145
 20
605.9048979155888
 30
0.0
 10
562.7732932100946
 20
605.8863680148135
 30
0.0
 10
563.5879142702312
 20
605.7853831977395
 30
0.0
 10
565.1169792132865
 20
605.5958320663917
 30
0.0
 10
566.4138035917281
 20
605.4350707271108
 30
0.0
 10
567.074108177673
 20
605.3532158118774
 30
0.0
  0
ARC
  5
254
330
1F
100
AcDbEntity
  8
0
  6
Continuous
 62
     7
370
    25
100
AcDbCircle
 10
561.9556659039
 20
596.4150085705
 30
0.0
 40
10.30000000000003
100
AcDbArc
 50
45.6642188199
 51
60.2024969667
  0
SPLINE
  5
255
330
1F
100
AcDbEntity
  8
0
  6
Continuous
 62
     7
370
    25
100
AcDbSpline
210
0.0
220
0.0
230
1.0
 70
    24
 71
     3
 72
    11
 73
     7
 74
     0
 42
0.00000001
 43
0.00000001
 40
0.0
 40
0.0
 40
0.0
 40
0.0
 40
0.2431641197380915
 40
0.4936284730588936
 40
0.7421706076863288
 40
1.0
 40
1.0
 40
1.0
 40
1.0
 10
569.1539455225162
 20
603.7821498432024
 30
0.0
 10
569.3984643150882
 20
603.2042316788729
 30
0.0
 10
569.8948428035822
 20
602.0310451852476
 30
0.0
 10
570.6822595450734
 20
600.1699921634398
 30
0.0
 10
571.4862899627576
 20
598.2696728539687
 30
0.0
 10
571.9960479158458
 20
597.0648641053148
 30
0.0
 10
572.2556015761113
 20
596.4514111542846
 30
0.0
  0
ARC
  5
256
330
1F
100
AcDbEntity
  8
0
  6
Continuous
 62
     7
370
    25
100
AcDbCircle
 10
561.9556659039
 20
596.4150085705
 30
0.0
 40
10.29999999999994
100
AcDbArc
 50
345.6642188199
 51
0.2024969667
  0
SPLINE
  5
257
330
1F
100
AcDbEntity
  8
0
  6
Continuous
 62
     7
370
    25
100
AcDbSpline
210
0.0
220
0.0
230
1.0
 70
    24
 71
     3
 72
    13
 73
     9
 74
     0
 42
0.00000001
 43
0.00000001
 40
0.0
 40
0.0
 40
0.0
 40
0.0
 40
0.0290865078712628
 40
0.2691317361521215
 40
0.5086847447945269
 40
0.7393528760311809
 40
0.9704551097945746
 40
1.0
 40
1.0
 40
1.0
 40
1.0
 10
571.9349372086392
 20
593.8646861935733
 30
0.0
 10
571.8903139422947
 20
593.8056122032746
 30
0.0
 10
571.4774236359972
 20
593.2590121906184
 30
0.0
 10
570.6716906078763
 20
592.192351926013
 30
0.0
 10
569.5074241625646
 20
590.6510513819311
 30
0.0
 10
568.3597108239842
 20
589.1316644749843
 30
0.0
 10
567.5823750960988
 20
588.1025976448368
 30
0.0
 10
567.1824873992512
 20
587.573210984932
 30
0.0
 10
567.1371593023285
 20
587.5132039128993
 30
0.0
  0
ARC
  5
258
330
1F
100
AcDbEntity
  8
0
  6
Continuous
 62
     7
370
    25
100
AcDbCircle
 10
561.9556659039
 20
596.4150085705
 30
0.0
 40
10.29999999999999
100
AcDbArc
 50
285.6642188199
 51
300.2024969667
  0
SPLINE
  5
259
330
1F
100
AcDbEntity
  8
0
  6
Continuous
 62
     7
370
    25
100
AcDbSpline
210
0.0
220
0.0
230
1.0
 70
    24
 71
     3
 72
     9
 73
     5
 74
     0
 42
0.00000001
 43
0.00000001
 40
0.0
 40
0.0
 40
0.0
 40
0.0
 40
0.8429116667906252
 40
1.0
 40
1.0
 40
1.0
 40
1.0
 10
564.7366575900132
 20
586.4975449208629
 30
0.0
 10
564.1179730026209
 20
586.5742403967618
 30
0.0
 10
563.3839879223716
 20
586.6652291431755
 30
0.0
 10
562.6090474027052
 20
586.7612949465914
 30
0.0
 10
562.4873132881345
 20
586.7763857635285
 30
0.0
  0
LINE
  5
25A
330
1F
100
AcDbEntity
  8
0
  6
Continuous
 62
     7
370
    25
100
AcDbLine
 10
655.111918217
 20
591.5400085705
 30
0.0
 11
654.5128879566
 21
592.7693718639
 31
0.0
  0
LINE
  5
25B
330
1F
100
AcDbEntity
  8
0
  6
Continuous
 62
     7
370
    25
100
AcDbLine
 10
654.4289454806
 20
599.845092289
 30
0.0
 11
654.540845903
 21
600.1292407054
 31
0.0
  0
LINE
  5
25C
330
1F
100
AcDbEntity
  8
0
  6
Continuous
 62
     7
370
    25
100
AcDbLine
 10
655.8794926525
 20
590.4034476905
 30
0.0
 11
655.111918217
 21
591.5400085705
 31
0.0
  0
ARC
  5
25D
330
1F
100
AcDbEntity
  8
0
  6
Continuous
 62
     7
370
    25
100
AcDbCircle
 10
663.5556659039
 20
596.4150085705
 30
0.0
 40
10.57500000000014
100
AcDbArc
 50
84.5490172093
 51
281.0490866707
  0
ARC
  5
25E
330
1F
100
AcDbEntity
  8
0
  6
Continuous
 62
     7
370
    25
100
AcDbCircle
 10
663.5556659039
 20
596.4150085705
 30
0.0
 40
14.87500000000008
100
AcDbArc
 50
55.1611835908
 51
308.4167037132
  0
ARC
  5
25F
330
1F
100
AcDbEntity
  8
0
  6
Continuous
 62
     7
370
    25
100
AcDbCircle
 10
663.5556659039
 20
596.4150085705
 30
0.0
 40
16.20000000000002
100
AcDbArc
 50
210.0
 51
318.1420914366
  0
ARC
  5
260
330
1F
100
AcDbEntity
  8
0
  6
Continuous
 62
     7
370
    25
100
AcDbCircle
 10
663.5556659039
 20
596.4150085705
 30
0.0
 40
16.20000000000002
100
AcDbArc
 50
45.9729863763
 51
210.0
  0
SPLINE
  5
261
330
1F
100
AcDbEntity
  8
0
  6
Continuous
 62
     7
370
    25
100
AcDbSpline
210
0.0
220
0.0
230
1.0
 70
     8
 71
     3
 72
     9
 73
     5
 74
     0
 42
0.00000001
 43
0.00000001
 40
0.0
 40
0.0
 40
0.0
 40
0.0
 40
0.5850553834534129
 40
1.0
 40
1.0
 40
1.0
 40
1.0
 10
652.4292552559754
 20
583.1865171185558
 30
0.0
 10
652.6890301757843
 20
582.7999705929918
 30
0.0
 10
653.1330478314726
 20
582.1392698516667
 30
0.0
 10
653.8048990235054
 20
581.6611110195405
 30
0.0
 10
654.0836800587599
 20
581.4627015862956
 30
0.0
  0
SPLINE
  5
262
330
1F
100
AcDbEntity
  8
0
  6
Continuous
 62
     7
370
    25
100
AcDbSpline
210
0.0
220
0.0
230
1.0
 70
    24
 71
     3
 72
    11
 73
     7
 74
     0
 42
0.00000001
 43
0.00000001
 40
0.0
 40
0.0
 40
0.0
 40
0.0
 40
0.2379053903768482
 40
0.4814905141303173
 40
0.7366519444348056
 40
0.9999999999999999
 40
0.9999999999999999
 40
0.9999999999999999
 40
0.9999999999999999
 10
646.5362509288099
 20
593.3935000224299
 30
0.0
 10
646.992983039585
 20
592.602416801119
 30
0.0
 10
647.9173512453186
 20
591.0013641038872
 30
0.0
 10
649.3936773378384
 20
588.4442923031035
 30
0.0
 10
650.9258107223018
 20
585.7905594372402
 30
0.0
 10
651.9228596869483
 20
584.0636199728386
 30
0.0
 10
652.4292552559754
 20
583.1865171185558
 30
0.0
  0
SPLINE
  5
263
330
1F
100
AcDbEntity
  8
0
  6
Continuous
 62
     7
370
    25
100
AcDbSpline
210
0.0
220
0.0
230
1.0
 70
     8
 71
     3
 72
     9
 73
     5
 74
     0
 42
0.00000001
 43
0.00000001
 40
0.0
 40
0.0
 40
0.0
 40
0.0
 40
0.5841917497409947
 40
1.0
 40
1.0
 40
1.0
 40
1.0
 10
645.8705952878274
 20
595.6881816964208
 30
0.0
 10
645.9272874362356
 20
595.2078235708545
 30
0.0
 10
646.0243311696216
 20
594.3855625139684
 30
0.0
 10
646.3859053863946
 20
593.6848585229038
 30
0.0
 10
646.5362509288099
 20
593.3935000224299
 30
0.0
  0
ARC
  5
264
330
1F
100
AcDbEntity
  8
0
  6
Continuous
 62
     7
370
    25
100
AcDbCircle
 10
663.5556659039
 20
596.4150085705
 30
0.0
 40
17.70000000000003
100
AcDbArc
 50
177.6465635726
 51
182.3534364274
  0
SPLINE
  5
265
330
1F
100
AcDbEntity
  8
0
  6
Continuous
 62
     7
370
    25
100
AcDbSpline
210
0.0
220
0.0
230
1.0
 70
     8
 71
     3
 72
     9
 73
     5
 74
     0
 42
0.00000001
 43
0.00000001
 40
0.0
 40
0.0
 40
0.0
 40
0.0
 40
0.585055383453618
 40
1.0
 40
1.0
 40
1.0
 40
1.0
 10
646.53625092881
 20
599.4365171185545
 30
0.0
 10
646.3313792778316
 20
599.018272175952
 30
0.0
 10
645.9812044793892
 20
598.3033912357347
 30
0.0
 10
645.9030323797407
 20
597.4824716198091
 30
0.0
 10
645.8705952878274
 20
597.1418354445633
 30
0.0
  0
SPLINE
  5
266
330
1F
100
AcDbEntity
  8
0
  6
Continuous
 62
     7
370
    25
100
AcDbSpline
210
0.0
220
0.0
230
1.0
 70
    24
 71
     3
 72
    11
 73
     7
 74
     0
 42
0.00000001
 43
0.00000001
 40
0.0
 40
0.0
 40
0.0
 40
0.0
 40
0.2328716322111471
 40
0.4710265024313225
 40
0.7311421212560291
 40
1.0
 40
1.0
 40
1.0
 40
1.0
 10
652.4292552559762
 20
609.6435000224296
 30
0.0
 10
651.9823270408159
 20
608.8693976464361
 30
0.0
 10
651.0783309979064
 20
607.3036305702753
 30
0.0
 10
649.6144946276249
 20
604.7681916029806
 30
0.0
 10
648.0709451723858
 20
602.0946855225114
 30
0.0
 10
647.0534211618927
 20
600.3322822384162
 30
0.0
 10
646.53625092881
 20
599.4365171185545
 30
0.0
  0
SPLINE
  5
267
330
1F
100
AcDbEntity
  8
0
  6
Continuous
 62
     7
370
    25
100
AcDbSpline
210
0.0
220
0.0
230
1.0
 70
     8
 71
     3
 72
     9
 73
     5
 74
     0
 42
0.00000001
 43
0.00000001
 40
0.0
 40
0.0
 40
0.0
 40
0.0
 40
0.5841917497409241
 40
1.0
 40
1.0
 40
1.0
 40
1.0
 10
654.0836800587599
 20
611.3673155546886
 30
0.0
 10
653.6960237933093
 20
611.0780396511888
 30
0.0
 10
653.0324466961961
 20
610.5828667843552
 30
0.0
 10
652.6064063477877
 20
609.919382331744
 30
0.0
 10
652.4292552559762
 20
609.6435000224296
 30
0.0
  0
ARC
  5
268
330
1F
100
AcDbEntity
  8
0
  6
Continuous
 62
     7
370
    25
100
AcDbCircle
 10
663.5556659039
 20
596.4150085705
 30
0.0
 40
17.70000000000015
100
AcDbArc
 50
117.6465635726
 51
122.3534364274
  0
SPLINE
  5
269
330
1F
100
AcDbEntity
  8
0
  6
Continuous
 62
     7
370
    25
100
AcDbSpline
210
0.0
220
0.0
230
1.0
 70
     8
 71
     3
 72
     9
 73
     5
 74
     0
 42
0.00000001
 43
0.00000001
 40
0.0
 40
0.0
 40
0.0
 40
0.0
 40
0.5850553834536188
 40
1.0
 40
1.0
 40
1.0
 40
1.0
 10
657.662661576724
 20
612.6650085704921
 30
0.0
 10
657.1980150059367
 20
612.6333101534533
 30
0.0
 10
656.4038225518061
 20
612.5791299545609
 30
0.0
 10
655.6537992601251
 20
612.2363691707609
 30
0.0
 10
655.3425811329578
 20
612.0941424287598
 30
0.0
  0
SPLINE
  5
26A
330
1F
100
AcDbEntity
  8
0
  6
Continuous
 62
     7
370
    25
100
AcDbSpline
210
0.0
220
0.0
230
1.0
 70
    24
 71
     3
 72
    11
 73
     7
 74
     0
 42
0.00000001
 43
0.00000001
 40
0.0
 40
0.0
 40
0.0
 40
0.0
 40
0.2328716322111483
 40
0.4710265024313251
 40
0.731142121256031
 40
1.0
 40
1.0
 40
1.0
 40
1.0
 10
669.4486702310564
 20
612.6650085704921
 30
0.0
 10
668.554813800736
 20
612.6650085704921
 30
0.0
 10
666.7468217149167
 20
612.6650085704921
 30
0.0
 10
663.8191489743537
 20
612.6650085704921
 30
0.0
 10
660.7320500638758
 20
612.6650085704921
 30
0.0
 10
658.6970020428896
 20
612.6650085704921
 30
0.0
 10
657.662661576724
 20
612.6650085704921
 30
0.0
  0
SPLINE
  5
26B
330
1F
100
AcDbEntity
  8
0
  6
Continuous
 62
     7
370
    25
100
AcDbSpline
210
0.0
220
0.0
230
1.0
 70
     8
 71
     3
 72
     9
 73
     5
 74
     0
 42
0.00000001
 43
0.00000001
 40
0.0
 40
0.0
 40
0.0
 40
0.0
 40
0.584191749740921
 40
1.0
 40
1.0
 40
1.0
 40
1.0
 10
671.7687506748226
 20
612.0941424287598
 30
0.0
 10
671.3244022609639
 20
612.2852246508263
 30
0.0
 10
670.5637814304648
 20
612.6123128408791
 30
0.0
 10
669.7761668652831
 20
612.6495323793324
 30
0.0
 10
669.4486702310564
 20
612.6650085704921
 30
0.0
  0
ARC
  5
26C
330
1F
100
AcDbEntity
  8
0
  6
Continuous
 62
     7
370
    25
100
AcDbCircle
 10
663.5556659039
 20
596.4150085705
 30
0.0
 40
17.70000000000015
100
AcDbArc
 50
57.6465635726
 51
62.3534364274
  0
SPLINE
  5
26D
330
1F
100
AcDbEntity
  8
0
  6
Continuous
 62
     7
370
    25
100
AcDbSpline
210
0.0
220
0.0
230
1.0
 70
     8
 71
     3
 72
     9
 73
     5
 74
     0
 42
0.00000001
 43
0.00000001
 40
0.0
 40
0.0
 40
0.0
 40
0.0
 40
0.5850553834536193
 40
1.0
 40
1.0
 40
1.0
 40
1.0
 10
674.6820765518042
 20
609.6435000224296
 30
0.0
 10
674.4223016319953
 20
610.0300465479934
 30
0.0
 10
673.978283976307
 20
610.6907472893182
 30
0.0
 10
673.3064327842746
 20
611.1689061214439
 30
0.0
 10
673.0276517490206
 20
611.3673155546886
 30
0.0
  0
LINE
  5
26E
330
1F
100
AcDbEntity
  8
0
  6
Continuous
 62
     7
370
    25
100
AcDbLine
 10
675.9929934814
 20
607.3729252959
 30
0.0
 11
674.6820765518
 21
609.6435000224
 31
0.0
  0
SPLINE
  5
26F
330
1F
100
AcDbEntity
  8
0
  6
Continuous
 62
     7
370
    25
100
AcDbSpline
210
0.0
220
0.0
230
1.0
 70
    24
 71
     3
 72
     9
 73
     5
 74
     0
 42
0.00000001
 43
0.00000001
 40
0.0
 40
0.0
 40
0.0
 40
0.0
 40
0.7634992056138998
 40
1.0
 40
1.0
 40
1.0
 40
1.0
 10
674.6820765518042
 20
583.1865171185545
 30
0.0
 10
675.1271311618888
 20
583.9573743153635
 30
0.0
 10
675.71004546856
 20
584.9670115109769
 30
0.0
 10
676.318978681292
 20
586.0217147738451
 30
0.0
 10
676.4629918698313
 20
586.2711529333551
 30
0.0
  0
SPLINE
  5
270
330
1F
100
AcDbEntity
  8
0
  6
Continuous
 62
     7
370
    25
100
AcDbSpline
210
0.0
220
0.0
230
1.0
 70
     8
 71
     3
 72
     9
 73
     5
 74
     0
 42
0.00000001
 43
0.00000001
 40
0.0
 40
0.0
 40
0.0
 40
0.0
 40
0.5841917497409247
 40
1.0
 40
1.0
 40
1.0
 40
1.0
 10
673.0276517490206
 20
581.4627015862956
 30
0.0
 10
673.4153080144712
 20
581.7519774897953
 30
0.0
 10
674.0788851115843
 20
582.2471503566289
 30
0.0
 10
674.5049254599927
 20
582.9106348092402
 30
0.0
 10
674.6820765518042
 20
583.1865171185545
 30
0.0
  0
ARC
  5
271
330
1F
100
AcDbEntity
  8
0
  6
Continuous
 62
     7
370
    25
100
AcDbCircle
 10
663.5556659039
 20
596.4150085705
 30
0.0
 40
17.69999999999996
100
AcDbArc
 50
297.6465635726
 51
302.3534364274
  0
SPLINE
  5
272
330
1F
100
AcDbEntity
  8
0
  6
Continuous
 62
     7
370
    25
100
AcDbSpline
210
0.0
220
0.0
230
1.0
 70
     8
 71
     3
 72
     9
 73
     5
 74
     0
 42
0.00000001
 43
0.00000001
 40
0.0
 40
0.0
 40
0.0
 40
0.0
 40
0.5850553834536198
 40
1.0
 40
1.0
 40
1.0
 40
1.0
 10
669.4486702310564
 20
580.165008570492
 30
0.0
 10
669.9133168018437
 20
580.1967069875307
 30
0.0
 10
670.7075092559743
 20
580.2508871864233
 30
0.0
 10
671.4575325476553
 20
580.5936479702233
 30
0.0
 10
671.7687506748226
 20
580.7358747122244
 30
0.0
  0
SPLINE
  5
273
330
1F
100
AcDbEntity
  8
0
  6
Continuous
 62
     7
370
    25
100
AcDbSpline
210
0.0
220
0.0
230
1.0
 70
    24
 71
     3
 72
    11
 73
     7
 74
     0
 42
0.00000001
 43
0.00000001
 40
0.0
 40
0.0
 40
0.0
 40
0.0
 40
0.2328716322111492
 40
0.4710265024313262
 40
0.7311421212560313
 40
1.0
 40
1.0
 40
1.0
 40
1.0
 10
657.662661576724
 20
580.165008570492
 30
0.0
 10
658.5565180070444
 20
580.165008570492
 30
0.0
 10
660.3645100928638
 20
580.165008570492
 30
0.0
 10
663.2921828334268
 20
580.165008570492
 30
0.0
 10
666.3792817439046
 20
580.165008570492
 30
0.0
 10
668.4143297648908
 20
580.165008570492
 30
0.0
 10
669.4486702310564
 20
580.165008570492
 30
0.0
  0
SPLINE
  5
274
330
1F
100
AcDbEntity
  8
0
  6
Continuous
 62
     7
370
    25
100
AcDbSpline
210
0.0
220
0.0
230
1.0
 70
     8
 71
     3
 72
     9
 73
     5
 74
     0
 42
0.00000001
 43
0.00000001
 40
0.0
 40
0.0
 40
0.0
 40
0.0
 40
0.5841917497409255
 40
1.0
 40
1.0
 40
1.0
 40
1.0
 10
655.3425811329578
 20
580.7358747122244
 30
0.0
 10
655.7869295468165
 20
580.5447924901578
 30
0.0
 10
656.5475503773157
 20
580.217704300105
 30
0.0
 10
657.3351649424973
 20
580.1804847616518
 30
0.0
 10
657.6626615767241
 20
580.165008570492
 30
0.0
  0
ARC
  5
275
330
1F
100
AcDbEntity
  8
0
  6
Continuous
 62
     7
370
    25
100
AcDbCircle
 10
663.5556659039
 20
596.4150085705
 30
0.0
 40
17.69999999999996
100
AcDbArc
 50
237.6465635726
 51
242.3534364274
  0
LINE
  5
276
330
1F
100
AcDbEntity
  8
0
  6
Continuous
 62
     7
370
    25
100
AcDbLine
 10
563.1551471265
 20
606.0909449488
 30
0.0
 11
564.4971607195
 21
605.8279413814
 31
0.0
  0
LINE
  5
277
330
1F
100
AcDbEntity
  8
0
  6
Continuous
 62
     7
370
    25
100
AcDbLine
 10
570.1937213704
 20
601.6300773266
 30
0.0
 11
570.3530060773
 21
601.3695194457
 31
0.0
  0
LINE
  5
278
330
1F
100
AcDbEntity
  8
0
  6
Continuous
 62
     7
370
    25
100
AcDbLine
 10
562.4354168965
 20
606.1531982886
 30
0.0
 11
563.1551471265
 21
606.0909449488
 31
0.0
  0
ARC
  5
279
330
1F
100
AcDbEntity
  8
0
  6
Continuous
 62
     7
370
    25
100
AcDbCircle
 10
561.9556659039
 20
596.4150085705
 30
0.0
 40
14.875
100
AcDbArc
 50
233.3837470415
 51
262.9333578933
  0
ARC
  5
27A
330
1F
100
AcDbEntity
  8
0
  6
Continuous
 62
     7
370
    25
100
AcDbCircle
 10
561.9556659039
 20
596.4150085705
 30
0.0
 40
14.87500000000002
100
AcDbArc
 50
262.9333578933
 51
126.6156955593
  0
LINE
  5
27B
330
1F
100
AcDbEntity
  8
0
  6
Continuous
 62
     7
370
    25
100
AcDbLine
 10
560.6546901163
 20
585.920339114
 30
0.0
 11
560.4201325654
 21
585.9520853477
 31
0.0
  0
ARC
  5
27C
330
1F
100
AcDbEntity
  8
0
  6
Continuous
 62
     7
370
    25
100
AcDbCircle
 10
561.9556659039
 20
596.4150085705
 30
0.0
 40
10.57500000000005
100
AcDbArc
 50
262.9333578933
 51
98.3490982393
  0
SPLINE
  5
27D
330
1F
100
AcDbEntity
  8
0
  6
Continuous
 62
     7
370
    25
100
AcDbSpline
210
0.0
220
0.0
230
1.0
 70
     8
 71
     3
 72
     9
 73
     5
 74
     0
 42
0.00000001
 43
0.00000001
 40
0.0
 40
0.0
 40
0.0
 40
0.0
 40
0.5850553834534096
 40
1.0
 40
1.0
 40
1.0
 40
1.0
 10
558.1065617932128
 20
613.2665484866287
 30
0.0
 10
557.6415451456896
 20
613.2922534066549
 30
0.0
 10
556.8467201416389
 20
613.3361892813655
 30
0.0
 10
556.0602265235303
 20
613.0883028524295
 30
0.0
 10
555.733875230748
 20
612.9854437132275
 30
0.0
  0
SPLINE
  5
27E
330
1F
100
AcDbEntity
  8
0
  6
Continuous
 62
     7
370
    25
100
AcDbSpline
210
0.0
220
0.0
230
1.0
 70
    24
 71
     3
 72
    11
 73
     7
 74
     0
 42
0.00000001
 43
0.00000001
 40
0.0
 40
0.0
 40
0.0
 40
0.0
 40
0.2379053903768481
 40
0.4814905141303175
 40
0.7366519444348052
 40
1.0
 40
1.0
 40
1.0
 40
1.0
 10
569.803040756619
 20
611.8165899153008
 30
0.0
 10
568.8965154549205
 20
611.9289676774835
 30
0.0
 10
567.061822542349
 20
612.1564060991367
 30
0.0
 10
564.1315994972574
 20
612.5196523404564
 30
0.0
 10
561.0906097226701
 20
612.8966298225499
 30
0.0
 10
559.111659497449
 20
613.1419511581645
 30
0.0
 10
558.1065617932128
 20
613.2665484866287
 30
0.0
  0
SPLINE
  5
27F
330
1F
100
AcDbEntity
  8
0
  6
Continuous
 62
     7
370
    25
100
AcDbSpline
210
0.0
220
0.0
230
1.0
 70
     8
 71
     3
 72
     9
 73
     5
 74
     0
 42
0.00000001
 43
0.00000001
 40
0.0
 40
0.0
 40
0.0
 40
0.0
 40
0.5841917497409934
 40
1.0
 40
1.0
 40
1.0
 40
1.0
 10
572.0352671718749
 20
610.9646353106679
 30
0.0
 10
571.6178017929062
 20
611.2089314134843
 30
0.0
 10
570.9031984470807
 20
611.6271093540742
 30
0.0
 10
570.1261456998175
 20
611.7609414328123
 30
0.0
 10
569.8030407566189
 20
611.8165899153008
 30
0.0
  0
ARC
  5
280
330
1F
100
AcDbEntity
  8
0
  6
Continuous
 62
     7
370
    25
100
AcDbCircle
 10
561.9556659039
 20
596.4150085705
 30
0.0
 40
17.69999999999999
100
AcDbArc
 50
50.5799214659
 51
55.2867943207
  0
SPLINE
  5
281
330
1F
100
AcDbEntity
  8
0
  6
Continuous
 62
     7
370
    25
100
AcDbSpline
210
0.0
220
0.0
230
1.0
 70
     8
 71
     3
 72
     9
 73
     5
 74
     0
 42
0.00000001
 43
0.00000001
 40
0.0
 40
0.0
 40
0.0
 40
0.0
 40
0.5850553834536202
 40
1.0
 40
1.0
 40
1.0
 40
1.0
 10
574.6249755088128
 20
608.1742004702195
 30
0.0
 10
574.4147282987959
 20
608.5897691601702
 30
0.0
 10
574.0553653804075
 20
609.3000757425959
 30
0.0
 10
573.4474426266416
 20
609.8572559813238
 30
0.0
 10
573.1951883526904
 20
610.0884549218299
 30
0.0
  0
SPLINE
  5
282
330
1F
100
AcDbEntity
  8
0
  6
Continuous
 62
     7
370
    25
100
AcDbSpline
210
0.0
220
0.0
230
1.0
 70
    24
 71
     3
 72
    11
 73
     7
 74
     0
 42
0.00000001
 43
0.00000001
 40
0.0
 40
0.0
 40
0.0
 40
0.0
 40
0.232871632211147
 40
0.4710265024313224
 40
0.7311421212560292
 40
1.0
 40
1.0
 40
1.0
 40
1.0
 10
579.2175140333114
 20
597.3197732674145
 30
0.0
 10
578.8692137552432
 20
598.1429781230385
 30
0.0
 10
578.1647111921078
 20
599.808064163134
 30
0.0
 10
577.0239136377791
 20
602.5043298428978
 30
0.0
 10
575.8209940497219
 20
605.3474204407759
 30
0.0
 10
575.0280168248029
 20
607.2216156196405
 30
0.0
 10
574.6249755088128
 20
608.1742004702195
 30
0.0
  0
SPLINE
  5
283
330
1F
100
AcDbEntity
  8
0
  6
Continuous
 62
     7
370
    25
100
AcDbSpline
210
0.0
220
0.0
230
1.0
 70
     8
 71
     3
 72
     9
 73
     5
 74
     0
 42
0.00000001
 43
0.00000001
 40
0.0
 40
0.0
 40
0.0
 40
0.0
 40
0.5841917497409242
 40
1.0
 40
1.0
 40
1.0
 40
1.0
 10
579.5958129104563
 20
594.9606311824874
 30
0.0
 10
579.5986468520564
 20
595.4443148572828
 30
0.0
 10
579.6034978989967
 20
596.2722684786924
 30
0.0
 10
579.3308735053935
 20
597.0121319372719
 30
0.0
 10
579.2175140333114
 20
597.3197732674145
 30
0.0
  0
ARC
  5
284
330
1F
100
AcDbEntity
  8
0
  6
Continuous
 62
     7
370
    25
100
AcDbCircle
 10
561.9556659039
 20
596.4150085705
 30
0.0
 40
17.70000000000001
100
AcDbArc
 50
350.5799214659
 51
355.2867943207
  0
SPLINE
  5
285
330
1F
100
AcDbEntity
  8
0
  6
Continuous
 62
     7
370
    25
100
AcDbSpline
210
0.0
220
0.0
230
1.0
 70
     8
 71
     3
 72
     9
 73
     5
 74
     0
 42
0.00000001
 43
0.00000001
 40
0.0
 40
0.0
 40
0.0
 40
0.0
 40
0.585055383453619
 40
0.9999999999999999
 40
0.9999999999999999
 40
0.9999999999999999
 40
0.9999999999999999
 10
578.4740796194917
 20
591.3226605540826
 30
0.0
 10
578.728849056998
 20
591.7125243240073
 30
0.0
 10
579.1643111426597
 20
592.3788950317228
 30
0.0
 10
579.3428820070018
 20
593.1839616993866
 30
0.0
 10
579.4169790258326
 20
593.5180197790946
 30
0.0
  0
SPLINE
  5
286
330
1F
100
AcDbEntity
  8
0
  6
Continuous
 62
     7
370
    25
100
AcDbSpline
210
0.0
220
0.0
230
1.0
 70
    24
 71
     3
 72
    11
 73
     7
 74
     0
 42
0.00000001
 43
0.00000001
 40
0.0
 40
0.0
 40
0.0
 40
0.0
 40
0.2328716322111486
 40
0.4710265024313255
 40
0.7311421212560308
 40
1.0
 40
1.0
 40
1.0
 40
1.0
 10
571.3701391805829
 20
581.9181919226056
 30
0.0
 10
571.9089053590378
 20
582.6314312393698
 30
0.0
 10
572.9986608876796
 20
584.0740913761241
 30
0.0
 10
574.763296684543
 20
586.4101838786298
 30
0.0
 10
576.6240255735376
 20
588.8734880995363
 30
0.0
 10
577.8506375976251
 20
590.497324110371
 30
0.0
 10
578.4740796194917
 20
591.3226605540826
 30
0.0
  0
SPLINE
  5
287
330
1F
100
AcDbEntity
  8
0
  6
Continuous
 62
     7
370
    25
100
AcDbSpline
210
0.0
220
0.0
230
1.0
 70
     8
 71
     3
 72
     9
 73
     5
 74
     0
 42
0.00000001
 43
0.00000001
 40
0.0
 40
0.0
 40
0.0
 40
0.0
 40
0.584191749740921
 40
1.0
 40
1.0
 40
1.0
 40
1.0
 10
569.5162116424716
 20
580.4110044423115
 30
0.0
 10
569.9365109630403
 20
580.6503920142907
 30
0.0
 10
570.6559653558063
 20
581.0601676951102
 30
0.0
 10
571.1603937094665
 20
581.6661990749517
 30
0.0
 10
571.3701391805829
 20
581.9181919226056
 30
0.0
  0
ARC
  5
288
330
1F
100
AcDbEntity
  8
0
  6
Continuous
 62
     7
370
    25
100
AcDbCircle
 10
561.9556659039
 20
596.4150085705
 30
0.0
 40
17.69999999999995
100
AcDbArc
 50
290.5799214659
 51
295.2867943207
  0
SPLINE
  5
289
330
1F
100
AcDbEntity
  8
0
  6
Continuous
 62
     7
370
    25
100
AcDbSpline
210
0.0
220
0.0
230
1.0
 70
     8
 71
     3
 72
     9
 73
     5
 74
     0
 42
0.00000001
 43
0.00000001
 40
0.0
 40
0.0
 40
0.0
 40
0.0
 40
0.585055383453617
 40
1.0
 40
1.0
 40
1.0
 40
1.0
 10
565.804770014569
 20
579.5634686543551
 30
0.0
 10
566.2697866620923
 20
579.5377637343292
 30
0.0
 10
567.0646116661425
 20
579.4938278596189
 30
0.0
 10
567.8511052842505
 20
579.7417142885548
 30
0.0
 10
568.1774565770323
 20
579.8445734277566
 30
0.0
  0
SPLINE
  5
28A
330
1F
100
AcDbEntity
  8
0
  6
Continuous
 62
     7
370
    25
100
AcDbSpline
210
0.0
220
0.0
230
1.0
 70
    24
 71
     3
 72
    11
 73
     7
 74
     0
 42
0.00000001
 43
0.00000001
 40
0.0
 40
0.0
 40
0.0
 40
0.0
 40
0.255627964438097
 40
0.5185037642963863
 40
0.7560467972580102
 40
0.9999999999999999
 40
0.9999999999999999
 40
0.9999999999999999
 40
0.9999999999999999
 10
554.1082910511617
 20
581.0134272256831
 30
0.0
 10
555.0834132190415
 20
580.892545826261
 30
0.0
 10
557.0613052536863
 20
580.6473556696534
 30
0.0
 10
560.0786312049509
 20
580.2733116826371
 30
0.0
 10
563.0393997005785
 20
579.9062788626419
 30
0.0
 10
564.8748348473283
 20
579.6787484296395
 30
0.0
 10
565.804770014569
 20
579.5634686543551
 30
0.0
  0
SPLINE
  5
28B
330
1F
100
AcDbEntity
  8
0
  6
Continuous
 62
     7
370
    25
100
AcDbSpline
210
0.0
220
0.0
230
1.0
 70
     8
 71
     3
 72
     9
 73
     5
 74
     0
 42
0.00000001
 43
0.00000001
 40
0.0
 40
0.0
 40
0.0
 40
0.0
 40
0.5841917497409234
 40
1.0
 40
1.0
 40
1.0
 40
1.0
 10
551.8760646359055
 20
581.8653818303162
 30
0.0
 10
552.2935300148741
 20
581.6210857274998
 30
0.0
 10
553.0081333606997
 20
581.2029077869099
 30
0.0
 10
553.7851861079631
 20
581.0690757081718
 30
0.0
 10
554.1082910511617
 20
581.0134272256831
 30
0.0
  0
ARC
  5
28C
330
1F
100
AcDbEntity
  8
0
  6
Continuous
 62
     7
370
    25
100
AcDbCircle
 10
561.9556659039
 20
596.4150085705
 30
0.0
 40
17.69999999999995
100
AcDbArc
 50
230.5799214659
 51
235.2867943207
  0
SPLINE
  5
28D
330
1F
100
AcDbEntity
  8
0
  6
Continuous
 62
     7
370
    25
100
AcDbSpline
210
0.0
220
0.0
230
1.0
 70
     8
 71
     3
 72
     9
 73
     5
 74
     0
 42
0.00000001
 43
0.00000001
 40
0.0
 40
0.0
 40
0.0
 40
0.0
 40
0.5850553834536163
 40
0.9999999999999999
 40
0.9999999999999999
 40
0.9999999999999999
 40
0.9999999999999999
 10
549.2863562989676
 20
584.6558166707646
 30
0.0
 10
549.4966035089844
 20
584.2402479808138
 30
0.0
 10
549.8559664273729
 20
583.5299413983882
 30
0.0
 10
550.4638891811387
 20
582.9727611596603
 30
0.0
 10
550.71614345509
 20
582.7415622191542
 30
0.0
  0
LINE
  5
28E
330
1F
100
AcDbEntity
  8
0
  6
Continuous
 62
     7
370
    25
100
AcDbLine
 10
548.6854761326
 20
586.0759920245
 30
0.0
 11
549.286356299
 21
584.6558166708
 31
0.0
  0
SPLINE
  5
28F
330
1F
100
AcDbEntity
  8
0
  6
Continuous
 62
     7
370
    25
100
AcDbSpline
210
0.0
220
0.0
230
1.0
 70
    24
 71
     3
 72
     9
 73
     5
 74
     0
 42
0.00000001
 43
0.00000001
 40
0.0
 40
0.0
 40
0.0
 40
0.0
 40
0.6042047780426192
 40
1.0
 40
1.0
 40
1.0
 40
1.0
 10
552.5411926271975
 20
610.9118252183785
 30
0.0
 10
552.0034134876644
 20
610.1998925815701
 30
0.0
 10
551.113352437046
 20
609.0215956486746
 30
0.0
 10
550.183656645947
 20
607.7908287272179
 30
0.0
 10
549.8156874939561
 20
607.3036970603621
 30
0.0
  0
SPLINE
  5
290
330
1F
100
AcDbEntity
  8
0
  6
Continuous
 62
     7
370
    25
100
AcDbSpline
210
0.0
220
0.0
230
1.0
 70
     8
 71
     3
 72
     9
 73
     5
 74
     0
 42
0.00000001
 43
0.00000001
 40
0.0
 40
0.0
 40
0.0
 40
0.0
 40
0.5841917497409256
 40
1.0
 40
1.0
 40
1.0
 40
1.0
 10
554.3951201653088
 20
612.4190126986726
 30
0.0
 10
553.9748208447401
 20
612.1796251266934
 30
0.0
 10
553.255366451974
 20
611.769849445874
 30
0.0
 10
552.7509380983139
 20
611.1638180660325
 30
0.0
 10
552.5411926271975
 20
610.9118252183785
 30
0.0
  0
ARC
  5
291
330
1F
100
AcDbEntity
  8
0
  6
Continuous
 62
     7
370
    25
100
AcDbCircle
 10
561.9556659039
 20
596.4150085705
 30
0.0
 40
17.70000000000018
100
AcDbArc
 50
110.5799214659
 51
115.2867943207
  0
ARC
  5
292
330
1F
100
AcDbEntity
  8
0
  6
Continuous
 62
     7
370
    25
100
AcDbCircle
 10
561.9556659039
 20
596.4150085705
 30
0.0
 40
16.20000000000011
100
AcDbArc
 50
82.9333578933
 51
136.0742282651
  0
ARC
  5
293
330
1F
100
AcDbEntity
  8
0
  6
Continuous
 62
     7
370
    25
100
AcDbCircle
 10
561.9556659039
 20
596.4150085705
 30
0.0
 40
16.20000000000011
100
AcDbArc
 50
223.9250761661
 51
82.9333578933
  0
SPLINE
  5
294
330
1F
100
AcDbEntity
  8
0
  6
Continuous
 62
     7
370
    25
100
AcDbSpline
210
0.0
220
0.0
230
1.0
 70
    24
 71
     3
 72
     9
 73
     5
 74
     0
 42
0.00000001
 43
0.00000001
 40
0.0
 40
0.0
 40
0.0
 40
0.0
 40
0.3294132733513691
 40
1.0
 40
1.0
 40
1.0
 40
1.0
 10
650.7756645600317
 20
583.736398986719
 30
0.0
 10
651.080152408258
 20
583.2090105633039
 30
0.0
 10
652.0044862856652
 20
581.6080173244774
 30
0.0
 10
652.9030805305964
 20
580.0516064368675
 30
0.0
 10
653.5056659038903
 20
579.0078979544248
 30
0.0
  0
SPLINE
  5
295
330
1F
100
AcDbEntity
  8
0
  6
Continuous
 62
     7
370
    25
100
AcDbSpline
210
0.0
220
0.0
230
1.0
 70
    24
 71
     3
 72
     9
 73
     5
 74
     0
 42
0.00000001
 43
0.00000001
 40
0.0
 40
0.0
 40
0.0
 40
0.0
 40
0.9674038993339329
 40
1.0
 40
1.0
 40
1.0
 40
1.0
 10
653.5056659038902
 20
613.8221191865592
 30
0.0
 10
652.6378725073081
 20
612.3190569332064
 30
0.0
 10
651.7408393268759
 20
610.7653498886226
 30
0.0
 10
650.8129940326392
 20
609.1582746974409
 30
0.0
 10
650.7827498940256
 20
609.105890312731
 30
0.0
  0
SPLINE
  5
296
330
1F
100
AcDbEntity
  8
0
  6
Continuous
 62
     7
370
    25
100
AcDbSpline
210
0.0
220
0.0
230
1.0
 70
    24
 71
     3
 72
     9
 73
     5
 74
     0
 42
0.00000001
 43
0.00000001
 40
0.0
 40
0.0
 40
0.0
 40
0.0
 40
0.676070022537873
 40
1.0
 40
1.0
 40
1.0
 40
1.0
 10
673.6056659038901
 20
613.8221191865592
 30
0.0
 10
671.864289770726
 20
613.8221191865592
 30
0.0
 10
669.2885563775676
 20
613.8221191865592
 30
0.0
 10
666.6246434821459
 20
613.8221191865592
 30
0.0
 10
665.761722237971
 20
613.8221191865592
 30
0.0
  0
SPLINE
  5
297
330
1F
100
AcDbEntity
  8
0
  6
Continuous
 62
     7
370
    25
100
AcDbSpline
210
0.0
220
0.0
230
1.0
 70
    24
 71
     3
 72
     9
 73
     5
 74
     0
 42
0.00000001
 43
0.00000001
 40
0.0
 40
0.0
 40
0.0
 40
0.0
 40
0.4758352643380108
 40
1.0
 40
1.0
 40
1.0
 40
1.0
 10
662.4882717789826
 20
613.8221191865592
 30
0.0
 10
661.0401888950709
 20
613.8221191865592
 30
0.0
 10
657.9969447464341
 20
613.8221191865592
 30
0.0
 10
655.0502299081635
 20
613.8221191865592
 30
0.0
 10
653.5056659038902
 20
613.8221191865592
 30
0.0
  0
SPLINE
  5
298
330
1F
100
AcDbEntity
  8
0
  6
Continuous
 62
     7
370
    25
100
AcDbSpline
210
0.0
220
0.0
230
1.0
 70
    24
 71
     3
 72
     9
 73
     5
 74
     0
 42
0.00000001
 43
0.00000001
 40
0.0
 40
0.0
 40
0.0
 40
0.0
 40
0.6640384319596572
 40
1.0
 40
1.0
 40
1.0
 40
1.0
 10
677.4477045947119
 20
607.1675129694106
 30
0.0
 10
676.5856169377855
 20
608.6606925917854
 30
0.0
 10
675.2873672952425
 20
610.9093269335779
 30
0.0
 10
674.0285725577419
 20
613.0896233752293
 30
0.0
 10
673.6056659038901
 20
613.8221191865592
 30
0.0
  0
SPLINE
  5
299
330
1F
100
AcDbEntity
  8
0
  6
Continuous
 62
     7
370
    25
100
AcDbSpline
210
0.0
220
0.0
230
1.0
 70
    24
 71
     3
 72
     9
 73
     5
 74
     0
 42
0.00000001
 43
0.00000001
 40
0.0
 40
0.0
 40
0.0
 40
0.0
 40
0.5865788843192605
 40
1.0
 40
1.0
 40
1.0
 40
1.0
 10
673.6056659038902
 20
579.0078979544248
 30
0.0
 10
674.4772431472338
 20
580.5175140226166
 30
0.0
 10
675.9631085042096
 20
583.0911083141053
 30
0.0
 10
677.4997901449592
 20
585.752718990942
 30
0.0
 10
678.135086783324
 20
586.8530850464674
 30
0.0
  0
SPLINE
  5
29A
330
1F
100
AcDbEntity
  8
0
  6
Continuous
 62
     7
370
    25
100
AcDbSpline
210
0.0
220
0.0
230
1.0
 70
    24
 71
     3
 72
     9
 73
     5
 74
     0
 42
0.00000001
 43
0.00000001
 40
0.0
 40
0.0
 40
0.0
 40
0.0
 40
0.6054693452678206
 40
1.0
 40
1.0
 40
1.0
 40
1.0
 10
653.5056659038903
 20
579.0078979544248
 30
0.0
 10
655.2484450023719
 20
579.0078979544248
 30
0.0
 10
658.126838618998
 20
579.0078979544248
 30
0.0
 10
661.1036938977187
 20
579.0078979544248
 30
0.0
 10
662.2781545598754
 20
579.0078979544248
 30
0.0
  0
SPLINE
  5
29B
330
1F
100
AcDbEntity
  8
0
  6
Continuous
 62
     7
370
    25
100
AcDbSpline
210
0.0
220
0.0
230
1.0
 70
    24
 71
     3
 72
     9
 73
     5
 74
     0
 42
0.00000001
 43
0.00000001
 40
0.0
 40
0.0
 40
0.0
 40
0.0
 40
0.4484826789535448
 40
1.0
 40
1.0
 40
1.0
 40
1.0
 10
665.0735724904472
 20
579.0078979544248
 30
0.0
 10
666.3703500804969
 20
579.0078979544248
 30
0.0
 10
669.2618276133097
 20
579.0078979544248
 30
0.0
 10
672.0615632215791
 20
579.0078979544248
 30
0.0
 10
673.6056659038902
 20
579.0078979544248
 30
0.0
  0
SPLINE
  5
29C
330
1F
100
AcDbEntity
  8
0
  6
Continuous
 62
     7
370
    25
100
AcDbSpline
210
0.0
220
0.0
230
1.0
 70
    24
 71
     3
 72
     9
 73
     5
 74
     0
 42
0.00000001
 43
0.00000001
 40
0.0
 40
0.0
 40
0.0
 40
0.0
 40
0.3299792465640755
 40
1.0
 40
1.0
 40
1.0
 40
1.0
 10
574.7380024676071
 20
609.0895734348234
 30
0.0
 10
574.4327322216096
 20
609.6183170109301
 30
0.0
 10
573.5076126900749
 20
611.2206710426227
 30
0.0
 10
572.6082545335403
 20
612.778405063942
 30
0.0
 10
572.0056659038901
 20
613.8221191865592
 30
0.0
  0
SPLINE
  5
29D
330
1F
100
AcDbEntity
  8
0
  6
Continuous
 62
     7
370
    25
100
AcDbSpline
210
0.0
220
0.0
230
1.0
 70
    24
 71
     3
 72
     9
 73
     5
 74
     0
 42
0.00000001
 43
0.00000001
 40
0.0
 40
0.0
 40
0.0
 40
0.0
 40
0.9655575858226034
 40
1.0
 40
1.0
 40
1.0
 40
1.0
 10
572.0056659038902
 20
579.0078979544248
 30
0.0
 10
572.873477645295
 20
580.5109919819428
 30
0.0
 10
573.7722451078959
 20
582.0677028913574
 30
0.0
 10
574.701883602405
 20
583.6778839965191
 30
0.0
 10
574.7339025964682
 20
583.7333425210437
 30
0.0
  0
SPLINE
  5
29E
330
1F
100
AcDbEntity
  8
0
  6
Continuous
 62
     7
370
    25
100
AcDbSpline
210
0.0
220
0.0
230
1.0
 70
    24
 71
     3
 72
     9
 73
     5
 74
     0
 42
0.00000001
 43
0.00000001
 40
0.0
 40
0.0
 40
0.0
 40
0.0
 40
0.6222935842563405
 40
1.0
 40
1.0
 40
1.0
 40
1.0
 10
551.9056659038903
 20
579.0078979544248
 30
0.0
 10
553.6481106737973
 20
579.0078979544248
 30
0.0
 10
556.448147206376
 20
579.0078979544248
 30
0.0
 10
559.3439834058495
 20
579.0078979544248
 30
0.0
 10
560.4377593173333
 20
579.0078979544248
 30
0.0
  0
SPLINE
  5
29F
330
1F
100
AcDbEntity
  8
0
  6
Continuous
 62
     7
370
    25
100
AcDbSpline
210
0.0
220
0.0
230
1.0
 70
    24
 71
     3
 72
     9
 73
     5
 74
     0
 42
0.00000001
 43
0.00000001
 40
0.0
 40
0.0
 40
0.0
 40
0.0
 40
0.4634237285173254
 40
1.0
 40
1.0
 40
1.0
 40
1.0
 10
563.2331772479049
 20
579.0078979544248
 30
0.0
 10
564.6106861161196
 20
579.0078979544248
 30
0.0
 10
567.583146919156
 20
579.0078979544248
 30
0.0
 10
570.4613112295203
 20
579.0078979544248
 30
0.0
 10
572.0056659038902
 20
579.0078979544248
 30
0.0
  0
SPLINE
  5
2A0
330
1F
100
AcDbEntity
  8
0
  6
Continuous
 62
     7
370
    25
100
AcDbSpline
210
0.0
220
0.0
230
1.0
 70
    24
 71
     3
 72
    10
 73
     6
 74
     0
 42
0.00000001
 43
0.00000001
 40
0.0
 40
0.0
 40
0.0
 40
0.0
 40
0.1469694628318317
 40
0.714222916951745
 40
0.9999999999999999
 40
0.9999999999999999
 40
0.9999999999999999
 40
0.9999999999999999
 10
547.3762450244564
 20
586.8530850464675
 30
0.0
 10
547.6018631571586
 20
586.4623029775182
 30
0.0
 10
548.6982925633152
 20
584.5632315391426
 30
0.0
 10
550.219693345276
 20
581.9280880861116
 30
0.0
 10
551.4825809935445
 20
579.7407025150592
 30
0.0
 10
551.9056659038903
 20
579.0078979544248
 30
0.0
  0
SPLINE
  5
2A1
330
1F
100
AcDbEntity
  8
0
  6
Continuous
 62
     7
370
    25
100
AcDbSpline
210
0.0
220
0.0
230
1.0
 70
    24
 71
     3
 72
     9
 73
     5
 74
     0
 42
0.00000001
 43
0.00000001
 40
0.0
 40
0.0
 40
0.0
 40
0.0
 40
0.6899206608346711
 40
1.0
 40
1.0
 40
1.0
 40
1.0
 10
551.9056659038902
 20
613.8221191865592
 30
0.0
 10
551.0351154561376
 20
612.3142815805002
 30
0.0
 10
549.7733030519415
 20
610.1287583868117
 30
0.0
 10
548.4682860291082
 20
607.868402598522
 30
0.0
 10
548.0636272130685
 20
607.1675129694106
 30
0.0
  0
SPLINE
  5
2A2
330
1F
100
AcDbEntity
  8
0
  6
Continuous
 62
     7
370
    25
100
AcDbSpline
210
0.0
220
0.0
230
1.0
 70
    24
 71
     3
 72
     9
 73
     5
 74
     0
 42
0.00000001
 43
0.00000001
 40
0.0
 40
0.0
 40
0.0
 40
0.0
 40
0.5914919980221295
 40
1.0
 40
1.0
 40
1.0
 40
1.0
 10
572.0056659038901
 20
613.8221191865592
 30
0.0
 10
570.2626090498094
 20
613.8221191865592
 30
0.0
 10
567.3157275029594
 20
613.8221191865592
 30
0.0
 10
564.2680575797971
 20
613.8221191865592
 30
0.0
 10
563.0230600287979
 20
613.8221191865592
 30
0.0
  0
SPLINE
  5
2A3
330
1F
100
AcDbEntity
  8
0
  6
Continuous
 62
     7
370
    25
100
AcDbSpline
210
0.0
220
0.0
230
1.0
 70
    24
 71
     3
 72
     9
 73
     5
 74
     0
 42
0.00000001
 43
0.00000001
 40
0.0
 40
0.0
 40
0.0
 40
0.0
 40
0.4007142831989494
 40
1.0
 40
1.0
 40
1.0
 40
1.0
 10
559.7496095698094
 20
613.8221191865592
 30
0.0
 10
558.6838471277579
 20
613.8221191865592
 30
0.0
 10
556.0241903929303
 20
613.8221191865592
 30
0.0
 10
553.4489629362141
 20
613.8221191865592
 30
0.0
 10
551.9056659038902
 20
613.8221191865592
 30
0.0
  0
ARC
  5
2A4
330
1F
100
AcDbEntity
  8
0
  6
Continuous
 62
     7
370
    25
100
AcDbCircle
 10
561.9556659039
 20
596.4150085705
 30
0.0
 40
25.80000000000006
100
AcDbArc
 50
191.6532891939
 51
270.0
  0
ARC
  5
2A5
330
1F
100
AcDbEntity
  8
0
  6
Continuous
 62
     7
370
    25
100
AcDbCircle
 10
561.9556659039
 20
596.4150085705
 30
0.0
 40
25.80000000000011
100
AcDbArc
 50
27.7177476896
 51
168.1716147966
  0
ARC
  5
2A6
330
1F
100
AcDbEntity
  8
0
  6
Continuous
 62
     7
370
    25
100
AcDbCircle
 10
561.9556659039
 20
596.4150085705
 30
0.0
 40
25.79999999999995
100
AcDbArc
 50
270.0
 51
332.2822523104
  0
ARC
  5
2A7
330
1F
100
AcDbEntity
  8
0
  6
Continuous
 62
     7
370
    25
100
AcDbCircle
 10
663.5556659039
 20
596.4150085705
 30
0.0
 40
25.80000000000007
100
AcDbArc
 50
12.4337922198
 51
90.0
  0
ARC
  5
2A8
330
1F
100
AcDbEntity
  8
0
  6
Continuous
 62
     7
370
    25
100
AcDbCircle
 10
663.5556659039
 20
596.4150085705
 30
0.0
 40
25.80000000000001
100
AcDbArc
 50
207.7177476896
 51
348.9141211324
  0
ARC
  5
2A9
330
1F
100
AcDbEntity
  8
0
  6
Continuous
 62
     7
370
    25
100
AcDbCircle
 10
663.5556659039
 20
596.4150085705
 30
0.0
 40
25.80000000000007
100
AcDbArc
 50
90.0
 51
152.2822523104
  0
ARC
  5
2AA
330
1F
100
AcDbEntity
  8
0
  6
Continuous
 62
     7
370
    25
100
AcDbCircle
 10
663.5556659039
 20
596.4150085705
 30
0.0
 40
17.60000000000006
100
AcDbArc
 50
152.0468131166
 51
172.4375501414
  0
ARC
  5
2AB
330
1F
100
AcDbEntity
  8
0
  6
Continuous
 62
     7
370
    25
100
AcDbCircle
 10
663.5556659039
 20
596.4150085705
 30
0.0
 40
17.59999999999995
100
AcDbArc
 50
187.9088699491
 51
207.9531868834
  0
ARC
  5
2AC
330
1F
100
AcDbEntity
  8
0
  6
Continuous
 62
     7
370
    25
100
AcDbCircle
 10
663.5556659039
 20
596.4150085705
 30
0.0
 40
17.59999999999997
100
AcDbArc
 50
207.9531868834
 51
232.0628965956
  0
ARC
  5
2AD
330
1F
100
AcDbEntity
  8
0
  6
Continuous
 62
     7
370
    25
100
AcDbCircle
 10
663.5556659039
 20
596.4150085705
 30
0.0
 40
17.59999999999992
100
AcDbArc
 50
248.2314123859
 51
292.2574083465
  0
ARC
  5
2AE
330
1F
100
AcDbEntity
  8
0
  6
Continuous
 62
     7
370
    25
100
AcDbCircle
 10
663.5556659039
 20
596.4150085705
 30
0.0
 40
17.60000000000009
100
AcDbArc
 50
308.13018967
 51
329.914091969
  0
ARC
  5
2AF
330
1F
100
AcDbEntity
  8
0
  6
Continuous
 62
     7
370
    25
100
AcDbCircle
 10
663.5556659039
 20
596.4150085705
 30
0.0
 40
17.6000000000001
100
AcDbArc
 50
33.0957362986
 51
53.6440700031
  0
ARC
  5
2B0
330
1F
100
AcDbEntity
  8
0
  6
Continuous
 62
     7
370
    25
100
AcDbCircle
 10
663.5556659039
 20
596.4150085705
 30
0.0
 40
17.60000000000025
100
AcDbArc
 50
67.0221876257
 51
112.9433534016
  0
ARC
  5
2B1
330
1F
100
AcDbEntity
  8
0
  6
Continuous
 62
     7
370
    25
100
AcDbCircle
 10
663.5556659039
 20
596.4150085705
 30
0.0
 40
17.6000000000001
100
AcDbArc
 50
127.7180526498
 51
152.0468131166
  0
ARC
  5
2B2
330
1F
100
AcDbEntity
  8
0
  6
Continuous
 62
     7
370
    25
100
AcDbCircle
 10
561.9556659039
 20
596.4150085705
 30
0.0
 40
17.60000000000011
100
AcDbArc
 50
0.8466467188
 51
27.9531868834
  0
LWPOLYLINE
  5
2B3
330
1F
100
AcDbEntity
  8
0
  6
Continuous
 62
     7
370
    25
100
AcDbPolyline
 90
        3
 70
   128
 43
0.0
 10
578.9848501385
 20
591.9690121352
 10
578.3905433119
 20
590.1178024769
 10
577.5022893315
 20
588.1650085705
  0
ARC
  5
2B4
330
1F
100
AcDbEntity
  8
0
  6
Continuous
 62
     7
370
    25
100
AcDbCircle
 10
561.9556659039
 20
596.4150085705
 30
0.0
 40
17.59999999999996
100
AcDbArc
 50
299.550205121
 51
332.0468131166
  0
ARC
  5
2B5
330
1F
100
AcDbEntity
  8
0
  6
Continuous
 62
     7
370
    25
100
AcDbCircle
 10
561.9556659039
 20
596.4150085705
 30
0.0
 40
17.59999999999998
100
AcDbArc
 50
240.4843699251
 51
286.3453257087
  0
ARC
  5
2B6
330
1F
100
AcDbEntity
  8
0
  6
Continuous
 62
     7
370
    25
100
AcDbCircle
 10
561.9556659039
 20
596.4150085705
 30
0.0
 40
17.60000000000003
100
AcDbArc
 50
211.5427743269
 51
225.5890012836
  0
ARC
  5
2B7
330
1F
100
AcDbEntity
  8
0
  6
Continuous
 62
     7
370
    25
100
AcDbCircle
 10
561.9556659039
 20
596.4150085705
 30
0.0
 40
17.60000000000017
100
AcDbArc
 50
121.1029079601
 51
148.4572256731
  0
ARC
  5
2B8
330
1F
100
AcDbEntity
  8
0
  6
Continuous
 62
     7
370
    25
100
AcDbCircle
 10
561.9556659039
 20
596.4150085705
 30
0.0
 40
17.6000000000002
100
AcDbArc
 50
60.6508295409
 51
105.0457165289
  0
ARC
  5
2B9
330
1F
100
AcDbEntity
  8
0
  6
Continuous
 62
     7
370
    25
100
AcDbCircle
 10
561.9556659039
 20
596.4150085705
 30
0.0
 40
17.60000000000013
100
AcDbArc
 50
27.9531868834
 51
45.8782229516
  0
SPLINE
  5
2BA
330
1F
100
AcDbEntity
  8
0
  6
Continuous
 62
     7
370
    25
100
AcDbSpline
210
0.0
220
0.0
230
1.0
 70
     8
 71
     3
 72
    26
 73
    22
 74
     0
 42
0.00000001
 43
0.00000001
 40
0.0
 40
0.0
 40
0.0
 40
0.0
 40
0.1249999999999996
 40
0.1249999999999996
 40
0.1874999999999994
 40
0.1874999999999994
 40
0.2499999999999992
 40
0.2499999999999992
 40
0.3749999999999991
 40
0.3749999999999991
 40
0.4374999999999992
 40
0.4374999999999992
 40
0.4999999999999992
 40
0.4999999999999992
 40
0.6249999999999993
 40
0.6249999999999993
 40
0.7499999999999994
 40
0.7499999999999994
 40
0.8749999999999998
 40
0.8749999999999998
 40
1.0
 40
1.0
 40
1.0
 40
1.0
 10
584.5689363440454
 20
603.6150085705021
 30
0.0
 10
584.9617115016467
 20
603.1709120274533
 30
0.0
 10
585.2856482592446
 20
602.6778913411306
 30
0.0
 10
585.6765209517393
 20
601.8569272443748
 30
0.0
 10
585.791197098717
 20
601.5686970106404
 30
0.0
 10
585.9881448597338
 20
600.9738858191578
 30
0.0
 10
586.0704858419447
 20
600.6675374534703
 30
0.0
 10
586.2756879526387
 20
599.734983500286
 30
0.0
 10
586.3589174041357
 20
599.0908065450441
 30
0.0
 10
586.4370319386484
 20
598.0943941254275
 30
0.0
 10
586.4550452759064
 20
597.7576126917538
 30
0.0
 10
586.4783666920521
 20
597.0877440547863
 30
0.0
 10
586.4838328219575
 20
596.752944161173
 30
0.0
 10
586.4839412296224
 20
595.7489352292463
 30
0.0
 10
586.4636008507072
 20
595.0782241135421
 30
0.0
 10
586.3597190900869
 20
593.7457900040996
 30
0.0
 10
586.2765615506062
 20
593.1004729859817
 30
0.0
 10
586.0034381480926
 20
591.8563199024711
 30
0.0
 10
585.8097205504256
 20
591.253767927584
 30
0.0
 10
585.2865272879802
 20
590.153064564394
 30
0.0
 10
584.9616393349999
 20
589.6590235173377
 30
0.0
 10
584.5689363440544
 20
589.215008570492
 30
0.0
  0
LWPOLYLINE
  5
2BB
330
1F
100
AcDbEntity
  8
0
  6
Continuous
 62
     7
370
    25
100
AcDbPolyline
 90
        9
 70
   128
 43
0.0
 10
577.5022893315
 20
588.1650085705
 10
577.9247733977
 20
588.7412248634
 10
578.5184971984
 20
589.2059417641
 10
579.2681587151
 20
589.5471821433
 10
580.1544369525
 20
589.7561512271
 10
581.1544898987
 20
589.8274632638
 10
582.2425432308
 20
589.7592803314
 10
583.3905545956
 20
589.5533597057
 10
584.5689363441
 20
589.2150085705
  0
LWPOLYLINE
  5
2BC
330
1F
100
AcDbEntity
  8
0
  6
Continuous
 62
     7
370
    25
100
AcDbPolyline
 90
        9
 70
   128
 43
0.0
 10
584.568936344
 20
603.6150085705
 10
583.3905545956
 20
603.2766574352
 10
582.2425432308
 20
603.0707368096
 10
581.1544898987
 20
603.0025538772
 10
580.1544369525
 20
603.0738659139
 10
579.268158715
 20
603.2828349977
 10
578.5184971984
 20
603.6240753769
 10
577.9247733977
 20
604.0887922776
 10
577.5022893315
 20
604.6650085705
  0
LWPOLYLINE
  5
2BD
330
1F
100
AcDbEntity
  8
0
  6
Continuous
 62
     7
370
    25
100
AcDbPolyline
 90
        9
 70
   128
 43
0.0
 10
640.9423954637
 20
603.6150085705
 10
642.1207772122
 20
603.2766574352
 10
643.268788577
 20
603.0707368096
 10
644.3568419091
 20
603.0025538772
 10
645.3568948553
 20
603.0738659139
 10
646.2431730927
 20
603.2828349976
 10
646.9928346093
 20
603.6240753769
 10
647.5865584101
 20
604.0887922776
 10
648.0090424763
 20
604.6650085705
  0
LWPOLYLINE
  5
2BE
330
1F
100
AcDbEntity
  8
0
  6
Continuous
 62
     7
370
    25
100
AcDbPolyline
 90
        9
 70
   128
 43
0.0
 10
648.0090424763
 20
588.1650085705
 10
647.5865584101
 20
588.7412248634
 10
646.9928346093
 20
589.2059417641
 10
646.2431730927
 20
589.5471821433
 10
645.3568948553
 20
589.7561512271
 10
644.3568419091
 20
589.8274632638
 10
643.268788577
 20
589.7592803314
 10
642.1207772122
 20
589.5533597057
 10
640.9423954637
 20
589.2150085705
  0
SPLINE
  5
2BF
330
1F
100
AcDbEntity
  8
0
  6
Continuous
 62
     7
370
    25
100
AcDbSpline
210
0.0
220
0.0
230
1.0
 70
     8
 71
     3
 72
    30
 73
    26
 74
     0
 42
0.00000001
 43
0.00000001
 40
0.0
 40
0.0
 40
0.0
 40
0.0
 40
0.1249999999999998
 40
0.1249999999999998
 40
0.1874999999999996
 40
0.1874999999999996
 40
0.2499999999999994
 40
0.2499999999999994
 40
0.3749999999999993
 40
0.3749999999999993
 40
0.4999999999999992
 40
0.4999999999999992
 40
0.5624999999999991
 40
0.5624999999999991
 40
0.624999999999999
 40
0.624999999999999
 40
0.7499999999999991
 40
0.7499999999999991
 40
0.8124999999999994
 40
0.8124999999999994
 40
0.8749999999999997
 40
0.8749999999999997
 40
0.9374999999999999
 40
0.9374999999999999
 40
1.0
 40
1.0
 40
1.0
 40
1.0
 10
640.942395463726
 20
589.2150085704922
 30
0.0
 10
640.5492828356449
 20
589.6594866791041
 30
0.0
 10
640.2241272765635
 20
590.1540952107493
 30
0.0
 10
639.831520555934
 20
590.9806604173738
 30
0.0
 10
639.7178396984805
 20
591.2678702219617
 30
0.0
 10
639.523482441333
 20
591.8556240063182
 30
0.0
 10
639.4421239093114
 20
592.1575623170465
 30
0.0
 10
639.2371328678734
 20
593.0865122011356
 30
0.0
 10
639.1520809950614
 20
593.7412712280369
 30
0.0
 10
639.0477970759437
 20
595.0758960938374
 30
0.0
 10
639.0274343655757
 20
595.7464836029694
 30
0.0
 10
639.0274768682318
 20
596.7511904071878
 30
0.0
 10
639.0329283910556
 20
597.0862231049136
 30
0.0
 10
639.0562336376959
 20
597.7565577024154
 30
0.0
 10
639.0742453973176
 20
598.0935737221007
 30
0.0
 10
639.1523862388825
 20
599.0906980960076
 30
0.0
 10
639.2356704762393
 20
599.7353222821679
 30
0.0
 10
639.4410814276547
 20
600.6684984262894
 30
0.0
 10
639.5237445577341
 20
600.9757021224704
 30
0.0
 10
639.7202621049613
 20
601.5689490630677
 30
0.0
 10
639.8333474676614
 20
601.8532846312226
 30
0.0
 10
640.0921170473581
 20
602.3979154597214
 30
0.0
 10
640.2377937904082
 20
602.658212087501
 30
0.0
 10
640.5642887297153
 20
603.1553441734608
 30
0.0
 10
640.7457525230551
 20
603.3926715706159
 30
0.0
 10
640.9423954637255
 20
603.6150085704924
 30
0.0
  0
LINE
  5
2C0
330
1F
100
AcDbEntity
  8
0
  6
Continuous
 62
     8
370
    25
100
AcDbLine
 10
604.6964320566
 20
588.8406475434
 30
0.0
 11
604.8556659039
 21
588.6747117303
 31
0.0
  0
ARC
  5
2C1
330
1F
100
AcDbEntity
  8
0
  6
Continuous
 62
     8
370
    25
100
AcDbCircle
 10
612.7556659039
 20
596.4150085705
 30
0.0
 40
11.05993649053892
100
AcDbArc
 50
315.5850271977
 51
223.2235523034
  0
ARC
  5
2C2
330
1F
100
AcDbEntity
  8
0
  6
Continuous
 62
     8
370
    25
100
AcDbCircle
 10
612.7556659039
 20
596.4150085705
 30
0.0
 40
11.30993649053887
100
AcDbArc
 50
314.3068486059
 51
225.6931513941
  0
LINE
  5
2C3
330
1F
100
AcDbEntity
  8
0
  6
Continuous
 62
     8
370
    25
100
AcDbLine
 10
620.6556659039
 20
584.0492722606
 30
0.0
 11
620.9129247625
 21
584.1559403794
 31
0.0
  0
ARC
  5
2C4
330
1F
100
AcDbEntity
  8
0
  6
Continuous
 62
     8
370
    25
100
AcDbCircle
 10
604.598175397
 20
584.4999543451
 30
0.0
 40
0.3529502268449341
100
AcDbArc
 50
279.538525686
 51
316.8476542185
  0
ARC
  5
2C5
330
1F
100
AcDbEntity
  8
0
  6
Continuous
 62
     8
370
    25
100
AcDbCircle
 10
612.7556659039
 20
596.4150085705
 30
0.0
 40
9.374999999999927
100
AcDbArc
 50
327.4227936768
 51
212.5772063232
  0
LWPOLYLINE
  5
2C6
330
1F
100
AcDbEntity
  8
0
  6
Continuous
 62
     8
370
    25
100
AcDbPolyline
 90
       17
 70
   128
 43
0.0
 10
604.8556659039
 20
338.7420204821
 10
605.0282998581
 20
339.3205103714
 10
605.5386567885
 20
339.8737174766
 10
606.3644316483
 20
340.3774639927
 10
607.4695341137
 20
340.8097337796
 10
608.8056659039
 20
341.1516345735
 10
610.3144316483
 20
341.3882236689
 10
611.9298910441
 20
341.5091609872
 10
613.5814407637
 20
341.5091609872
 10
615.1969001595
 20
341.3882236689
 10
616.7056659039
 20
341.1516345735
 10
618.0417976941
 20
340.8097337796
 10
619.1469001595
 20
340.3774639927
 10
619.9726750193
 20
339.8737174766
 10
620.4830319497
 20
339.3205103714
 10
620.6556659039
 20
338.7420204821
 10
620.6556659039
 20
338.7420204821
  0
LWPOLYLINE
  5
2C7
330
1F
100
AcDbEntity
  8
0
  6
Continuous
 62
     8
370
    25
100
AcDbPolyline
 90
       16
 70
   128
 43
0.0
 10
604.8556659039
 20
573.7420204821
 10
605.0282998581
 20
574.3205103714
 10
605.5386567885
 20
574.8737174766
 10
606.3644316483
 20
575.3774639927
 10
607.4695341137
 20
575.8097337796
 10
608.8056659039
 20
576.1516345735
 10
610.3144316483
 20
576.3882236689
 10
611.9298910441
 20
576.5091609872
 10
613.5814407637
 20
576.5091609872
 10
615.1969001595
 20
576.3882236689
 10
616.7056659039
 20
576.1516345735
 10
618.0417976941
 20
575.8097337796
 10
619.1469001595
 20
575.3774639927
 10
619.9726750193
 20
574.8737174766
 10
620.4830319497
 20
574.3205103714
 10
620.6556659039
 20
573.7420204821
  0
ARC
  5
2C8
330
1F
100
AcDbEntity
  8
0
  6
Continuous
 62
     8
370
    25
100
AcDbCircle
 10
612.7556659039
 20
291.4150085705
 30
0.0
 40
8.410472292019506
100
AcDbArc
 50
159.9351921799
 51
270.0
  0
ARC
  5
2C9
330
1F
100
AcDbEntity
  8
0
  6
Continuous
 62
     8
370
    25
100
AcDbCircle
 10
612.7556659039
 20
291.4150085705
 30
0.0
 40
8.410472292019506
100
AcDbArc
 50
270.0
 51
20.0648078201
  0
ARC
  5
2CA
330
1F
100
AcDbEntity
  8
0
  6
Continuous
 62
     8
370
    25
100
AcDbCircle
 10
561.9556659039
 20
596.4150085705
 30
0.0
 40
24.79999999999995
100
AcDbArc
 50
270.0
 51
331.0614722598
  0
ARC
  5
2CB
330
1F
100
AcDbEntity
  8
0
  6
Continuous
 62
     8
370
    25
100
AcDbCircle
 10
561.9556659039
 20
596.4150085705
 30
0.0
 40
24.80000000000005
100
AcDbArc
 50
28.9385277402
 51
167.1732016538
  0
ARC
  5
2CC
330
1F
100
AcDbEntity
  8
0
  6
Continuous
 62
     8
370
    25
100
AcDbCircle
 10
561.9556659039
 20
596.4150085705
 30
0.0
 40
24.80000000000011
100
AcDbArc
 50
192.8278171059
 51
270.0
  0
ARC
  5
2CD
330
1F
100
AcDbEntity
  8
0
  6
Continuous
 62
     8
370
    25
100
AcDbCircle
 10
663.5556659039
 20
596.4150085705
 30
0.0
 40
24.80000000000007
100
AcDbArc
 50
90.0
 51
151.0614722598
  0
ARC
  5
2CE
330
1F
100
AcDbEntity
  8
0
  6
Continuous
 62
     8
370
    25
100
AcDbCircle
 10
663.5556659039
 20
596.4150085705
 30
0.0
 40
24.80000000000005
100
AcDbArc
 50
208.9385277402
 51
347.7822687566
  0
ARC
  5
2CF
330
1F
100
AcDbEntity
  8
0
  6
Continuous
 62
     8
370
    25
100
AcDbCircle
 10
663.5556659039
 20
596.4150085705
 30
0.0
 40
24.80000000000007
100
AcDbArc
 50
13.4575335369
 51
90.0
  0
SPLINE
  5
2D0
330
1F
100
AcDbEntity
  8
0
  6
Continuous
 62
     8
370
    25
100
AcDbSpline
210
0.0
220
0.0
230
1.0
 70
     8
 71
     3
 72
    16
 73
    12
 74
     0
 42
0.00000001
 43
0.00000001
 40
0.0
 40
0.0
 40
0.0
 40
0.0
 40
0.0961490818557532
 40
0.1898118314713998
 40
0.2837145723291249
 40
0.2938991301868913
 40
0.4289456490880499
 40
0.5643578936429821
 40
0.7523444602198323
 40
0.940604799764535
 40
1.0
 40
1.0
 40
1.0
 40
1.0
 10
590.9753339330249
 20
596.415008570492
 30
0.0
 10
591.0097580736639
 20
596.9455750848293
 30
0.0
 10
591.0777161763871
 20
597.992988121543
 30
0.0
 10
591.5906030374036
 20
599.4578578387986
 30
0.0
 10
592.0900026479015
 20
600.3818102876957
 30
0.0
 10
592.7793595268245
 20
601.4247628992581
 30
0.0
 10
593.7123030018577
 20
602.5376179812748
 30
0.0
 10
595.458771156624
 20
604.045737591186
 30
0.0
 10
597.6013747525955
 20
605.3624216551179
 30
0.0
 10
599.5069049292213
 20
606.3114355635931
 30
0.0
 10
600.6473961520475
 20
606.6257310186354
 30
0.0
 10
600.9209200336722
 20
606.7011084622488
 30
0.0
  0
SPLINE
  5
2D1
330
1F
100
AcDbEntity
  8
0
  6
Continuous
 62
     8
370
    25
100
AcDbSpline
210
0.0
220
0.0
230
1.0
 70
     8
 71
     3
 72
    22
 73
    18
 74
     0
 42
0.00000001
 43
0.00000001
 40
0.0
 40
0.0
 40
0.0
 40
0.0
 40
0.066333547929262
 40
0.1658080549070109
 40
0.2651165006619
 40
0.3309593001234826
 40
0.3966234560456244
 40
0.4392759290857382
 40
0.4818301085617696
 40
0.5424124923304562
 40
0.5654977438834823
 40
0.6355595902767129
 40
0.6510991371506109
 40
0.7071405588953226
 40
0.7633448388407048
 40
0.8867354697496811
 40
1.0
 40
1.0
 40
1.0
 40
1.0
 10
622.0257880648443
 20
607.4320447571374
 30
0.0
 10
622.7002326959398
 20
607.2870778032158
 30
0.0
 10
624.386081801187
 20
606.9247168349591
 30
0.0
 10
626.9841722312954
 20
605.8560914216961
 30
0.0
 10
629.456463074664
 20
604.4718959382077
 30
0.0
 10
631.4322658929543
 20
602.8998560377378
 30
0.0
 10
632.7486945482509
 20
601.4512099310404
 30
0.0
 10
633.6727528834156
 20
599.9792104662876
 30
0.0
 10
634.3383762461812
 20
598.3946375966415
 30
0.0
 10
634.5790150045336
 20
596.865385380444
 30
0.0
 10
634.470819298753
 20
595.0166101967374
 30
0.0
 10
634.0860494709342
 20
593.7471594211107
 30
0.0
 10
633.3408186379437
 20
592.28120377641
 30
0.0
 10
632.504209035713
 20
591.0742177575315
 30
0.0
 10
630.6654053360608
 20
589.2054103313822
 30
0.0
 10
628.0243143883845
 20
587.3978233086126
 30
0.0
 10
625.6937978889491
 20
586.5126912505295
 30
0.0
 10
624.5783991997505
 20
586.0890619230423
 30
0.0
  0
SPLINE
  5
2D2
330
1F
100
AcDbEntity
  8
0
  6
Continuous
 62
     8
370
    25
100
AcDbSpline
210
0.0
220
0.0
230
1.0
 70
     8
 71
     3
 72
    15
 73
    11
 74
     0
 42
0.00000001
 43
0.00000001
 40
0.0
 40
0.0
 40
0.0
 40
0.0
 40
0.1470288848990082
 40
0.3452979151469651
 40
0.5430476916551094
 40
0.6556896590240054
 40
0.7680052823731877
 40
0.8449728862964347
 40
0.9217575037793891
 40
1.0
 40
1.0
 40
1.0
 40
1.0
 10
603.4896854766001
 20
585.3935655170475
 30
0.0
 10
602.67945452215
 20
585.57918542164
 30
0.0
 10
600.7766239351446
 20
586.0151144984987
 30
0.0
 10
597.9066914247992
 20
587.2570711735909
 30
0.0
 10
595.3739855443399
 20
588.8213822356257
 30
0.0
 10
593.4948776935101
 20
590.5175709233187
 30
0.0
 10
592.3351901599943
 20
591.9749530661977
 30
0.0
 10
591.5537507991965
 20
593.4607879886054
 30
0.0
 10
591.0709643119283
 20
594.8881088489502
 30
0.0
 10
591.007409948252
 20
595.9028610784512
 30
0.0
 10
590.9753339330249
 20
596.415008570492
 30
0.0
  0
SPLINE
  5
2D3
330
1F
100
AcDbEntity
  8
0
  6
Continuous
 62
     8
370
    25
100
AcDbSpline
210
0.0
220
0.0
230
1.0
 70
     8
 71
     3
 72
    14
 73
    10
 74
     0
 42
0.00000001
 43
0.00000001
 40
0.0
 40
0.0
 40
0.0
 40
0.0
 40
0.033864758892921
 40
0.122728461520998
 40
0.2393162890615186
 40
0.3605257034454564
 40
0.5545711877276415
 40
0.7532600382374668
 40
0.9999999999999999
 40
0.9999999999999999
 40
0.9999999999999999
 40
0.9999999999999999
 10
577.9876701176105
 20
608.3899112747093
 30
0.0
 10
577.9711076272074
 20
608.3979110755967
 30
0.0
 10
577.9110839024682
 20
608.4269029623686
 30
0.0
 10
578.164322315176
 20
608.3052650416145
 30
0.0
 10
578.6647414789497
 20
608.0558569220057
 30
0.0
 10
579.6258483438183
 20
607.5430878481252
 30
0.0
 10
580.964496924892
 20
606.7303466106396
 30
0.0
 10
582.7438565028478
 20
605.4676550855359
 30
0.0
 10
583.9183433859066
 20
604.2754283227747
 30
0.0
 10
584.5689363440454
 20
603.6150085705021
 30
0.0
  0
SPLINE
  5
2D4
330
1F
100
AcDbEntity
  8
0
  6
Continuous
 62
     8
370
    25
100
AcDbSpline
210
0.0
220
0.0
230
1.0
 70
     8
 71
     3
 72
    13
 73
     9
 74
     0
 42
0.00000001
 43
0.00000001
 40
0.0
 40
0.0
 40
0.0
 40
0.0
 40
0.3086735291631903
 40
0.5142736839535696
 40
0.7190757629723237
 40
0.8855903206571756
 40
0.9383455468686667
 40
1.0
 40
1.0
 40
1.0
 40
1.0
 10
584.5689363440544
 20
589.215008570492
 30
0.0
 10
583.7502703035633
 20
588.4037653801782
 30
0.0
 10
582.3863101294842
 20
587.0521722416412
 30
0.0
 10
580.3970269636774
 20
585.7400402121283
 30
0.0
 10
578.9719035712258
 20
584.9244545780374
 30
0.0
 10
578.2216001197518
 20
584.5532294584726
 30
0.0
 10
577.9696094014877
 20
584.4312220148256
 30
0.0
 10
577.9484671372863
 20
584.4211300431367
 30
0.0
 10
577.9370737416856
 20
584.4156915610165
 30
0.0
  0
SPLINE
  5
2D5
330
1F
100
AcDbEntity
  8
0
  6
Continuous
 62
     8
370
    25
100
AcDbSpline
210
0.0
220
0.0
230
1.0
 70
     8
 71
     3
 72
    13
 73
     9
 74
     0
 42
0.00000001
 43
0.00000001
 40
0.0
 40
0.0
 40
0.0
 40
0.0
 40
0.2468631209998726
 40
0.441362497273854
 40
0.6397898628753397
 40
0.7569403831065203
 40
0.8776973940180881
 40
1.0
 40
1.0
 40
1.0
 40
1.0
 10
640.942395463726
 20
603.6150085704921
 30
0.0
 10
641.5932272668883
 20
604.2756246483345
 30
0.0
 10
642.7568386997563
 20
605.4567292243232
 30
0.0
 10
644.5325899528389
 20
606.72151333783
 30
0.0
 10
645.8718129903029
 20
607.5346420086191
 30
0.0
 10
646.824075122287
 20
608.0448797730577
 30
0.0
 10
647.4485714891572
 20
608.3548625980413
 30
0.0
 10
647.5144390487842
 20
608.3858258645532
 30
0.0
 10
647.5475822516537
 20
608.4014059441754
 30
0.0
  0
SPLINE
  5
2D6
330
1F
100
AcDbEntity
  8
0
  6
Continuous
 62
     8
370
    25
100
AcDbSpline
210
0.0
220
0.0
230
1.0
 70
     8
 71
     3
 72
    13
 73
     9
 74
     0
 42
0.00000001
 43
0.00000001
 40
0.0
 40
0.0
 40
0.0
 40
0.0
 40
0.0616624822524972
 40
0.2371551795745479
 40
0.2807028943593865
 40
0.4873919639417286
 40
0.6948981135753362
 40
1.0
 40
1.0
 40
1.0
 40
1.0
 10
647.5742486473903
 20
584.4156960900905
 30
0.0
 10
647.5621459995346
 20
584.4214833844544
 30
0.0
 10
647.5155989660593
 20
584.4437414380388
 30
0.0
 10
647.0836246193295
 20
584.6530137344706
 30
0.0
 10
646.2321023067058
 20
585.0993837435948
 30
0.0
 10
645.1002111119477
 20
585.7486062865993
 30
0.0
 10
643.1092996053001
 20
587.0646148095461
 30
0.0
 10
641.7509053314895
 20
588.4126590147619
 30
0.0
 10
640.942395463726
 20
589.2150085704922
 30
0.0
  0
ENDSEC
  0
SECTION
  2
OBJECTS
  0
DICTIONARY
  5
C
330
0
100
AcDbDictionary
281
     1
  3
ACAD_GROUP
350
D
  3
ACAD_LAYOUT
350
1A
  3
ACAD_MLINESTYLE
350
17
  3
ACAD_PLOTSETTINGS
350
19
  3
ACAD_PLOTSTYLENAME
350
E
  3
ACAD_SCALELIST
350
47
  3
DWGPROPS
350
2D7
  0
DICTIONARY
  5
D
102
{ACAD_REACTORS
330
C
102
}
330
C
100
AcDbDictionary
281
     1
  0
DICTIONARY
  5
1A
102
{ACAD_REACTORS
330
C
102
}
330
C
100
AcDbDictionary
281
     1
  3
Layout1
350
1E
  3
Layout2
350
26
  3
Model
350
22
  0
DICTIONARY
  5
17
102
{ACAD_REACTORS
330
C
102
}
330
C
100
AcDbDictionary
281
     1
  3
Standard
350
18
  0
DICTIONARY
  5
19
102
{ACAD_REACTORS
330
C
102
}
330
C
100
AcDbDictionary
281
     1
  0
ACDBDICTIONARYWDFLT
  5
E
102
{ACAD_REACTORS
330
C
102
}
330
C
100
AcDbDictionary
281
     1
  3
Normal
350
F
100
AcDbDictionaryWithDefault
340
F
  0
DICTIONARY
  5
47
102
{ACAD_REACTORS
330
C
102
}
330
C
100
AcDbDictionary
281
     1
  3
A0
350
48
  3
A1
350
49
  3
A2
350
4A
  3
A3
350
4B
  3
A4
350
4C
  3
A5
350
4D
  3
A6
350
4E
  3
A7
350
4F
  3
A8
350
50
  3
A9
350
51
  3
B0
350
52
  3
B1
350
53
  3
B2
350
54
  3
B3
350
55
  3
B4
350
56
  3
B5
350
57
  3
B6
350
58
  3
B7
350
59
  3
B8
350
5A
  3
B9
350
5B
  3
C0
350
5C
  3
C1
350
5D
  3
C2
350
5E
  3
C3
350
5F
  3
C4
350
60
  3
C5
350
61
  3
C6
350
62
  3
C7
350
63
  3
C8
350
64
  3
C9
350
65
  3
D0
350
66
  3
D1
350
67
  3
D2
350
68
  0
XRECORD
  5
2D7
102
{ACAD_REACTORS
330
C
102
}
330
C
100
AcDbXrecord
280
     1
  1
DWGPROPS COOKIE
  2

  3

  4

  6

  7

  8
designer5
  9

300
=
301
=
302
=
303
=
304
=
305
=
306
=
307
=
308
=
309
=
 40
0.0
 41
2460383.208963021
 42
2460383.208963565
  1

 90
        0
  0
LAYOUT
  5
1E
102
{ACAD_REACTORS
330
1A
102
}
330
1A
100
AcDbPlotSettings
  1

  2
none_device
  4

  6

 40
0.0
 41
0.0
 42
0.0
 43
0.0
 44
0.0
 45
0.0
 46
0.0
 47
0.0
 48
0.0
 49
0.0
140
0.0
141
0.0
142
1.0
143
1.0
 70
   688
 72
     1
 73
     0
 74
     5
  7

 75
    16
147
1.0
148
0.0
149
0.0
100
AcDbLayout
  1
Layout1
 70
     1
 71
     1
 10
0.0
 20
0.0
 11
420.0
 21
297.0
 12
0.0
 22
0.0
 32
0.0
 14
1.0000000000E+20
 24
1.0000000000E+20
 34
1.0000000000E+20
 15
-1.0000000000E+20
 25
-1.0000000000E+20
 35
-1.0000000000E+20
146
0.0
 13
0.0
 23
0.0
 33
0.0
 16
1.0
 26
0.0
 36
0.0
 17
0.0
 27
1.0
 37
0.0
 76
     0
330
1B
  0
LAYOUT
  5
26
102
{ACAD_REACTORS
330
1A
102
}
330
1A
100
AcDbPlotSettings
  1

  2
none_device
  4

  6

 40
0.0
 41
0.0
 42
0.0
 43
0.0
 44
0.0
 45
0.0
 46
0.0
 47
0.0
 48
0.0
 49
0.0
140
0.0
141
0.0
142
1.0
143
1.0
 70
   688
 72
     1
 73
     0
 74
     5
  7

 75
    16
147
1.0
148
0.0
149
0.0
100
AcDbLayout
  1
Layout2
 70
     1
 71
     2
 10
0.0
 20
0.0
 11
0.0
 21
0.0
 12
0.0
 22
0.0
 32
0.0
 14
0.0
 24
0.0
 34
0.0
 15
0.0
 25
0.0
 35
0.0
146
0.0
 13
0.0
 23
0.0
 33
0.0
 16
1.0
 26
0.0
 36
0.0
 17
0.0
 27
1.0
 37
0.0
 76
     0
330
23
  0
LAYOUT
  5
22
102
{ACAD_REACTORS
330
1A
102
}
330
1A
100
AcDbPlotSettings
  1

  2
none_device
  4
Letter_(8.50_x_11.00_Inches)
  6

 40
6.35
 41
6.35
 42
6.35000508
 43
6.35000508
 44
215.9
 45
279.4
 46
0.0
 47
0.0
 48
0.0
 49
0.0
140
0.0
141
0.0
142
1.0
143
1.0
 70
  1712
 72
     1
 73
     0
 74
     0
  7

 75
     0
147
1.0
148
0.0
149
0.0
100
AcDbLayout
  1
Model
 70
     1
 71
     0
 10
0.0
 20
0.0
 11
1189.0
 21
841.0
 12
0.0
 22
0.0
 32
0.0
 14
0.0
 24
0.0
 34
0.0
 15
1189.0
 25
841.0
 35
0.0
146
0.0
 13
0.0
 23
0.0
 33
0.0
 16
1.0
 26
0.0
 36
0.0
 17
0.0
 27
1.0
 37
0.0
 76
     0
330
1F
331
29
  0
MLINESTYLE
  5
18
102
{ACAD_REACTORS
330
17
102
}
330
17
100
AcDbMlineStyle
  2
Standard
 70
     0
  3

 62
   256
 51
90.0
 52
90.0
 71
     2
 49
0.5
 62
   256
  6
BYLAYER
 49
-0.5
 62
   256
  6
BYLAYER
  0
ACDBPLACEHOLDER
  5
F
102
{ACAD_REACTORS
330
E
102
}
330
E
  0
SCALE
  5
48
102
{ACAD_REACTORS
330
47
102
}
330
47
100
AcDbScale
 70
     0
300
1:1
140
1.0
141
1.0
290
     1
  0
SCALE
  5
49
102
{ACAD_REACTORS
330
47
102
}
330
47
100
AcDbScale
 70
     0
300
1:2
140
1.0
141
2.0
290
     0
  0
SCALE
  5
4A
102
{ACAD_REACTORS
330
47
102
}
330
47
100
AcDbScale
 70
     0
300
1:4
140
1.0
141
4.0
290
     0
  0
SCALE
  5
4B
102
{ACAD_REACTORS
330
47
102
}
330
47
100
AcDbScale
 70
     0
300
1:5
140
1.0
141
5.0
290
     0
  0
SCALE
  5
4C
102
{ACAD_REACTORS
330
47
102
}
330
47
100
AcDbScale
 70
     0
300
1:8
140
1.0
141
8.0
290
     0
  0
SCALE
  5
4D
102
{ACAD_REACTORS
330
47
102
}
330
47
100
AcDbScale
 70
     0
300
1:10
140
1.0
141
10.0
290
     0
  0
SCALE
  5
4E
102
{ACAD_REACTORS
330
47
102
}
330
47
100
AcDbScale
 70
     0
300
1:16
140
1.0
141
16.0
290
     0
  0
SCALE
  5
4F
102
{ACAD_REACTORS
330
47
102
}
330
47
100
AcDbScale
 70
     0
300
1:20
140
1.0
141
20.0
290
     0
  0
SCALE
  5
50
102
{ACAD_REACTORS
330
47
102
}
330
47
100
AcDbScale
 70
     0
300
1:30
140
1.0
141
30.0
290
     0
  0
SCALE
  5
51
102
{ACAD_REACTORS
330
47
102
}
330
47
100
AcDbScale
 70
     0
300
1:40
140
1.0
141
40.0
290
     0
  0
SCALE
  5
52
102
{ACAD_REACTORS
330
47
102
}
330
47
100
AcDbScale
 70
     0
300
1:50
140
1.0
141
50.0
290
     0
  0
SCALE
  5
53
102
{ACAD_REACTORS
330
47
102
}
330
47
100
AcDbScale
 70
     0
300
1:100
140
1.0
141
100.0
290
     0
  0
SCALE
  5
54
102
{ACAD_REACTORS
330
47
102
}
330
47
100
AcDbScale
 70
     0
300
2:1
140
2.0
141
1.0
290
     0
  0
SCALE
  5
55
102
{ACAD_REACTORS
330
47
102
}
330
47
100
AcDbScale
 70
     0
300
4:1
140
4.0
141
1.0
290
     0
  0
SCALE
  5
56
102
{ACAD_REACTORS
330
47
102
}
330
47
100
AcDbScale
 70
     0
300
8:1
140
8.0
141
1.0
290
     0
  0
SCALE
  5
57
102
{ACAD_REACTORS
330
47
102
}
330
47
100
AcDbScale
 70
     0
300
10:1
140
10.0
141
1.0
290
     0
  0
SCALE
  5
58
102
{ACAD_REACTORS
330
47
102
}
330
47
100
AcDbScale
 70
     0
300
100:1
140
100.0
141
1.0
290
     0
  0
SCALE
  5
59
102
{ACAD_REACTORS
330
47
102
}
330
47
100
AcDbScale
 70
     0
300
1/128" = 1'-0"
140
0.0078125
141
12.0
290
     0
  0
SCALE
  5
5A
102
{ACAD_REACTORS
330
47
102
}
330
47
100
AcDbScale
 70
     0
300
1/64" = 1'-0"
140
0.015625
141
12.0
290
     0
  0
SCALE
  5
5B
102
{ACAD_REACTORS
330
47
102
}
330
47
100
AcDbScale
 70
     0
300
1/32" = 1'-0"
140
0.03125
141
12.0
290
     0
  0
SCALE
  5
5C
102
{ACAD_REACTORS
330
47
102
}
330
47
100
AcDbScale
 70
     0
300
1/16" = 1'-0"
140
0.0625
141
12.0
290
     0
  0
SCALE
  5
5D
102
{ACAD_REACTORS
330
47
102
}
330
47
100
AcDbScale
 70
     0
300
3/32" = 1'-0"
140
0.09375
141
12.0
290
     0
  0
SCALE
  5
5E
102
{ACAD_REACTORS
330
47
102
}
330
47
100
AcDbScale
 70
     0
300
1/8" = 1'-0"
140
0.125
141
12.0
290
     0
  0
SCALE
  5
5F
102
{ACAD_REACTORS
330
47
102
}
330
47
100
AcDbScale
 70
     0
300
3/16" = 1'-0"
140
0.1875
141
12.0
290
     0
  0
SCALE
  5
60
102
{ACAD_REACTORS
330
47
102
}
330
47
100
AcDbScale
 70
     0
300
1/4" = 1'-0"
140
0.25
141
12.0
290
     0
  0
SCALE
  5
61
102
{ACAD_REACTORS
330
47
102
}
330
47
100
AcDbScale
 70
     0
300
3/8" = 1'-0"
140
0.375
141
12.0
290
     0
  0
SCALE
  5
62
102
{ACAD_REACTORS
330
47
102
}
330
47
100
AcDbScale
 70
     0
300
1/2" = 1'-0"
140
0.5
141
12.0
290
     0
  0
SCALE
  5
63
102
{ACAD_REACTORS
330
47
102
}
330
47
100
AcDbScale
 70
     0
300
3/4" = 1'-0"
140
0.75
141
12.0
290
     0
  0
SCALE
  5
64
102
{ACAD_REACTORS
330
47
102
}
330
47
100
AcDbScale
 70
     0
300
1" = 1'-0"
140
1.0
141
12.0
290
     0
  0
SCALE
  5
65
102
{ACAD_REACTORS
330
47
102
}
330
47
100
AcDbScale
 70
     0
300
1-1/2" = 1'-0"
140
1.5
141
12.0
290
     0
  0
SCALE
  5
66
102
{ACAD_REACTORS
330
47
102
}
330
47
100
AcDbScale
 70
     0
300
3" = 1'-0"
140
3.0
141
12.0
290
     0
  0
SCALE
  5
67
102
{ACAD_REACTORS
330
47
102
}
330
47
100
AcDbScale
 70
     0
300
6" = 1'-0"
140
6.0
141
12.0
290
     0
  0
SCALE
  5
68
102
{ACAD_REACTORS
330
47
102
}
330
47
100
AcDbScale
 70
     0
300
1'-0" = 1'-0"
140
12.0
141
12.0
290
     0
  0
ENDSEC
  0
EOF
