  0
SECTION
  2
HEADER
  9
$ACADVER
  1
AC1015
  9
$ACADMAINTVER
 70
     6
  9
$DWGCODEPAGE
  3
ANSI_1252
  9
$INSBASE
 10
0.0
 20
0.0
 30
0.0
  9
$EXTMIN
 10
0.0
 20
0.0
 30
0.0
  9
$EXTMAX
 10
1189.0
 20
841.0
 30
0.0
  9
$LIMMIN
 10
0.0
 20
0.0
  9
$LIMMAX
 10
1189.0
 20
841.0
  9
$ORTHOMODE
 70
     0
  9
$REGENMODE
 70
     1
  9
$FILLMODE
 70
     1
  9
$QTEXTMODE
 70
     0
  9
$MIRRTEXT
 70
     1
  9
$LTSCALE
 40
1.0
  9
$ATTMODE
 70
     1
  9
$TEXTSIZE
 40
3.5
  9
$TRACEWID
 40
1.0
  9
$TEXTSTYLE
  7
Standard
  9
$CLAYER
  8
0
  9
$CELTYPE
  6
ByLayer
  9
$CECOLOR
 62
   256
  9
$CELTSCALE
 40
1.0
  9
$DISPSILH
 70
     0
  9
$DIMSCALE
 40
1.0
  9
$DIMASZ
 40
3.302
  9
$DIMEXO
 40
1.0
  9
$DIMDLI
 40
3.75
  9
$DIMRND
 40
0.0
  9
$DIMDLE
 40
0.0
  9
$DIMEXE
 40
1.0
  9
$DIMTP
 40
0.0
  9
$DIMTM
 40
0.0
  9
$DIMTXT
 40
3.5
  9
$DIMCEN
 40
2.5
  9
$DIMTSZ
 40
0.0
  9
$DIMTOL
 70
     0
  9
$DIMLIM
 70
     0
  9
$DIMTIH
 70
     1
  9
$DIMTOH
 70
     1
  9
$DIMSE1
 70
     0
  9
$DIMSE2
 70
     0
  9
$DIMTAD
 70
     1
  9
$DIMZIN
 70
     1
  9
$DIMBLK
  1

  9
$DIMASO
 70
     1
  9
$DIMSHO
 70
     1
  9
$DIMPOST
  1

  9
$DIMAPOST
  1

  9
$DIMALT
 70
     0
  9
$DIMALTD
 70
     3
  9
$DIMALTF
 40
0.0393700787
  9
$DIMLFAC
 40
0.5
  9
$DIMTOFL
 70
     1
  9
$DIMTVP
 40
0.0
  9
$DIMTIX
 70
     0
  9
$DIMSOXD
 70
     0
  9
$DIMSAH
 70
     0
  9
$DIMBLK1
  1

  9
$DIMBLK2
  1

  9
$DIMSTYLE
  2
ISO-25
  9
$DIMCLRD
 70
     0
  9
$DIMCLRE
 70
     0
  9
$DIMCLRT
 70
     0
  9
$DIMTFAC
 40
1.0
  9
$DIMGAP
 40
1.524
  9
$DIMJUST
 70
     0
  9
$DIMSD1
 70
     0
  9
$DIMSD2
 70
     0
  9
$DIMTOLJ
 70
     0
  9
$DIMTZIN
 70
     1
  9
$DIMALTZ
 70
     0
  9
$DIMALTTZ
 70
     0
  9
$DIMUPT
 70
     0
  9
$DIMDEC
 70
     2
  9
$DIMTDEC
 70
     2
  9
$DIMALTU
 70
     2
  9
$DIMALTTD
 70
     3
  9
$DIMTXSTY
  7
Standard
  9
$DIMAUNIT
 70
     0
  9
$DIMADEC
 70
     2
  9
$DIMALTRND
 40
0.0
  9
$DIMAZIN
 70
     0
  9
$DIMDSEP
 70
    44
  9
$DIMATFIT
 70
     3
  9
$DIMFRAC
 70
     0
  9
$DIMLDRBLK
  1

  9
$DIMLUNIT
 70
     2
  9
$DIMLWD
 70
    -2
  9
$DIMLWE
 70
    -2
  9
$DIMTMOVE
 70
     0
  9
$LUNITS
 70
     2
  9
$LUPREC
 70
     2
  9
$SKETCHINC
 40
1.0
  9
$FILLETRAD
 40
10.0
  9
$AUNITS
 70
     0
  9
$AUPREC
 70
     2
  9
$MENU
  1
.
  9
$ELEVATION
 40
0.0
  9
$PELEVATION
 40
0.0
  9
$THICKNESS
 40
0.0
  9
$LIMCHECK
 70
     0
  9
$CHAMFERA
 40
0.0
  9
$CHAMFERB
 40
0.0
  9
$CHAMFERC
 40
0.0
  9
$CHAMFERD
 40
0.0
  9
$SKPOLY
 70
     0
  9
$TDCREATE
 40
2460383.540451586
  9
$TDUCREATE
 40
2460383.311284919
  9
$TDUPDATE
 40
2460383.54045243
  9
$TDUUPDATE
 40
2460383.311285764
  9
$TDINDWG
 40
0.0000000116
  9
$TDUSRTIMER
 40
0.0000000116
  9
$USRTIMER
 70
     1
  9
$ANGBASE
 50
0.0
  9
$ANGDIR
 70
     0
  9
$PDMODE
 70
     0
  9
$PDSIZE
 40
-1.0
  9
$PLINEWID
 40
0.0
  9
$SPLFRAME
 70
     0
  9
$SPLINETYPE
 70
     6
  9
$SPLINESEGS
 70
     8
  9
$HANDSEED
  5
332
  9
$SURFTAB1
 70
     6
  9
$SURFTAB2
 70
     6
  9
$SURFTYPE
 70
     6
  9
$SURFU
 70
     6
  9
$SURFV
 70
     6
  9
$UCSBASE
  2

  9
$UCSNAME
  2

  9
$UCSORG
 10
0.0
 20
0.0
 30
0.0
  9
$UCSXDIR
 10
1.0
 20
0.0
 30
0.0
  9
$UCSYDIR
 10
0.0
 20
1.0
 30
0.0
  9
$UCSORTHOREF
  2

  9
$UCSORTHOVIEW
 70
     0
  9
$UCSORGTOP
 10
0.0
 20
0.0
 30
0.0
  9
$UCSORGBOTTOM
 10
0.0
 20
0.0
 30
0.0
  9
$UCSORGLEFT
 10
0.0
 20
0.0
 30
0.0
  9
$UCSORGRIGHT
 10
0.0
 20
0.0
 30
0.0
  9
$UCSORGFRONT
 10
0.0
 20
0.0
 30
0.0
  9
$UCSORGBACK
 10
0.0
 20
0.0
 30
0.0
  9
$PUCSBASE
  2

  9
$PUCSNAME
  2

  9
$PUCSORG
 10
0.0
 20
0.0
 30
0.0
  9
$PUCSXDIR
 10
1.0
 20
0.0
 30
0.0
  9
$PUCSYDIR
 10
0.0
 20
1.0
 30
0.0
  9
$PUCSORTHOREF
  2

  9
$PUCSORTHOVIEW
 70
     0
  9
$PUCSORGTOP
 10
0.0
 20
0.0
 30
0.0
  9
$PUCSORGBOTTOM
 10
0.0
 20
0.0
 30
0.0
  9
$PUCSORGLEFT
 10
0.0
 20
0.0
 30
0.0
  9
$PUCSORGRIGHT
 10
0.0
 20
0.0
 30
0.0
  9
$PUCSORGFRONT
 10
0.0
 20
0.0
 30
0.0
  9
$PUCSORGBACK
 10
0.0
 20
0.0
 30
0.0
  9
$USERI1
 70
     0
  9
$USERI2
 70
     0
  9
$USERI3
 70
     0
  9
$USERI4
 70
     0
  9
$USERI5
 70
     0
  9
$USERR1
 40
0.0
  9
$USERR2
 40
0.0
  9
$USERR3
 40
0.0
  9
$USERR4
 40
0.0
  9
$USERR5
 40
0.0
  9
$WORLDVIEW
 70
     1
  9
$SHADEDGE
 70
     3
  9
$SHADEDIF
 70
    70
  9
$TILEMODE
 70
     1
  9
$MAXACTVP
 70
    64
  9
$PINSBASE
 10
0.0
 20
0.0
 30
0.0
  9
$PLIMCHECK
 70
     0
  9
$PEXTMIN
 10
1.0000000000E+20
 20
1.0000000000E+20
 30
1.0000000000E+20
  9
$PEXTMAX
 10
-1.0000000000E+20
 20
-1.0000000000E+20
 30
-1.0000000000E+20
  9
$PLIMMIN
 10
0.0
 20
0.0
  9
$PLIMMAX
 10
420.0
 20
297.0
  9
$UNITMODE
 70
     0
  9
$VISRETAIN
 70
     1
  9
$PLINEGEN
 70
     0
  9
$PSLTSCALE
 70
     1
  9
$TREEDEPTH
 70
  3020
  9
$CMLSTYLE
  2
Standard
  9
$CMLJUST
 70
     0
  9
$CMLSCALE
 40
20.0
  9
$PROXYGRAPHICS
 70
     1
  9
$MEASUREMENT
 70
     1
  9
$CELWEIGHT
370
    -1
  9
$ENDCAPS
280
     0
  9
$JOINSTYLE
280
     0
  9
$LWDISPLAY
290
     1
  9
$INSUNITS
 70
     4
  9
$HYPERLINKBASE
  1

  9
$STYLESHEET
  1

  9
$XEDIT
290
     1
  9
$CEPSNTYPE
380
     0
  9
$PSTYLEMODE
290
     1
  9
$FINGERPRINTGUID
  2
{8f51b63d-c478-496b-ba03-1a2128cfd70b}
  9
$VERSIONGUID
  2
{FAEB1C32-E019-11D5-929B-00C0DF256EC4}
  9
$EXTNAMES
290
     1
  9
$PSVPSCALE
 40
0.0
  9
$OLESTARTUP
290
     0
  0
ENDSEC
  0
SECTION
  2
CLASSES
  0
CLASS
  1
ACDBDICTIONARYWDFLT
  2
AcDbDictionaryWithDefault
  3
ObjectDBX Classes
 90
        0
280
     0
281
     0
  0
CLASS
  1
VISUALSTYLE
  2
AcDbVisualStyle
  3
ObjectDBX Classes
 90
     4095
280
     0
281
     0
  0
CLASS
  1
MATERIAL
  2
AcDbMaterial
  3
ObjectDBX Classes
 90
     1153
280
     0
281
     0
  0
CLASS
  1
SCALE
  2
AcDbScale
  3
ObjectDBX Classes
 90
     1153
280
     0
281
     0
  0
CLASS
  1
TABLESTYLE
  2
AcDbTableStyle
  3
ObjectDBX Classes
 90
     4095
280
     0
281
     0
  0
CLASS
  1
MLEADERSTYLE
  2
AcDbMLeaderStyle
  3
ACDB_MLEADERSTYLE_CLASS
 90
     4095
280
     0
281
     0
  0
CLASS
  1
SUN
  2
AcDbSun
  3
SCENEOE
 90
     1153
280
     0
281
     0
  0
CLASS
  1
ACDBPLACEHOLDER
  2
AcDbPlaceHolder
  3
ObjectDBX Classes
 90
        0
280
     0
281
     0
  0
CLASS
  1
LAYOUT
  2
AcDbLayout
  3
ObjectDBX Classes
 90
        0
280
     0
281
     0
  0
ENDSEC
  0
SECTION
  2
TABLES
  0
TABLE
  2
VPORT
  5
8
330
0
100
AcDbSymbolTable
 70
     1
  0
VPORT
  5
29
330
8
100
AcDbSymbolTableRecord
100
AcDbViewportTableRecord
  2
*Active
 70
     0
 10
0.0
 20
0.0
 11
1.0
 21
1.0
 12
594.5
 22
420.5
 13
0.0
 23
0.0
 14
10.0
 24
10.0
 15
10.0
 25
10.0
 16
0.0
 26
0.0
 36
1.0
 17
0.0
 27
0.0
 37
0.0
 40
841.0
 41
1.4137931034
 42
50.0
 43
0.0
 44
0.0
 50
0.0
 51
0.0
 71
     0
 72
  2000
 73
     1
 74
     3
 75
     0
 76
     0
 77
     0
 78
     0
281
     0
 65
     1
110
0.0
120
0.0
130
0.0
111
1.0
121
0.0
131
0.0
112
0.0
122
1.0
132
0.0
 79
     0
146
0.0
  0
ENDTAB
  0
TABLE
  2
LTYPE
  5
5
330
0
100
AcDbSymbolTable
 70
     6
  0
LTYPE
  5
14
330
5
100
AcDbSymbolTableRecord
100
AcDbLinetypeTableRecord
  2
ByBlock
 70
     0
  3

 72
    65
 73
     0
 40
0.0
  0
LTYPE
  5
15
330
5
100
AcDbSymbolTableRecord
100
AcDbLinetypeTableRecord
  2
ByLayer
 70
     0
  3

 72
    65
 73
     0
 40
0.0
  0
LTYPE
  5
16
330
5
100
AcDbSymbolTableRecord
100
AcDbLinetypeTableRecord
  2
Continuous
 70
     0
  3
Solid line
 72
    65
 73
     0
 40
0.0
  0
LTYPE
  5
6E
330
5
100
AcDbSymbolTableRecord
100
AcDbLinetypeTableRecord
  2
HIDDEN
 70
     0
  3
Hidden __ __ __ __ __ __ __ __ __ __ __ __ __ __
 72
    65
 73
     2
 40
1.905
 49
1.27
 74
     0
 49
-0.635
 74
     0
  0
LTYPE
  5
6F
330
5
100
AcDbSymbolTableRecord
100
AcDbLinetypeTableRecord
  2
PHANTOM
 70
     0
  3
Phantom ______  __  __  ______  __  __  ______
 72
    65
 73
     6
 40
12.7
 49
6.35
 74
     0
 49
-1.27
 74
     0
 49
1.27
 74
     0
 49
-1.27
 74
     0
 49
1.27
 74
     0
 49
-1.27
 74
     0
  0
LTYPE
  5
70
330
5
100
AcDbSymbolTableRecord
100
AcDbLinetypeTableRecord
  2
CENTER
 70
     0
  3
Center ____ _ ____ _ ____ _ ____ _ ____ _ ____
 72
    65
 73
     4
 40
10.16
 49
6.35
 74
     0
 49
-1.27
 74
     0
 49
1.27
 74
     0
 49
-1.27
 74
     0
  0
LTYPE
  5
71
330
5
100
AcDbSymbolTableRecord
100
AcDbLinetypeTableRecord
  2
CENTERX2
 70
     0
  3
Center (2x) ________  __  ________  __  _____
 72
    65
 73
     4
 40
20.32
 49
12.7
 74
     0
 49
-2.54
 74
     0
 49
2.54
 74
     0
 49
-2.54
 74
     0
  0
LTYPE
  5
72
330
5
100
AcDbSymbolTableRecord
100
AcDbLinetypeTableRecord
  2
DOT2
 70
     0
  3
Dot (.5x) ........................................
 72
    65
 73
     2
 40
0.635
 49
0.0
 74
     0
 49
-0.635
 74
     0
  0
ENDTAB
  0
TABLE
  2
LAYER
  5
2
330
0
100
AcDbSymbolTable
 70
     1
  0
LAYER
  5
10
330
2
100
AcDbSymbolTableRecord
100
AcDbLayerTableRecord
  2
0
 70
     0
 62
     7
  6
Continuous
370
    -3
390
F
  0
ENDTAB
  0
TABLE
  2
STYLE
  5
3
330
0
100
AcDbSymbolTable
 70
     1
  0
STYLE
  5
11
330
3
100
AcDbSymbolTableRecord
100
AcDbTextStyleTableRecord
  2
Standard
 70
     0
 40
0.0
 41
1.0
 50
0.0
 71
     0
 42
3.5
  3
txt
  4

  0
ENDTAB
  0
TABLE
  2
VIEW
  5
6
330
0
100
AcDbSymbolTable
 70
     0
  0
ENDTAB
  0
TABLE
  2
UCS
  5
7
330
0
100
AcDbSymbolTable
 70
     0
  0
ENDTAB
  0
TABLE
  2
APPID
  5
9
330
0
100
AcDbSymbolTable
 70
     1
  0
APPID
  5
12
330
9
100
AcDbSymbolTableRecord
100
AcDbRegAppTableRecord
  2
ACAD
 70
     0
  0
ENDTAB
  0
TABLE
  2
DIMSTYLE
  5
A
330
0
100
AcDbSymbolTable
 70
     1
100
AcDbDimStyleTable
  0
DIMSTYLE
105
27
330
A
100
AcDbSymbolTableRecord
100
AcDbDimStyleTableRecord
  2
ISO-25
 70
     0
 41
2.5
 42
0.625
 43
3.75
 44
1.25
 73
     0
 74
     0
 77
     1
 78
     8
140
2.5
141
2.5
143
0.0393700787
147
0.625
171
     3
172
     1
178
     0
271
     2
272
     2
274
     3
278
    44
283
     0
284
     8
340
11
  0
ENDTAB
  0
TABLE
  2
BLOCK_RECORD
  5
1
330
0
100
AcDbSymbolTable
 70
     1
  0
BLOCK_RECORD
  5
1F
330
1
100
AcDbSymbolTableRecord
100
AcDbBlockTableRecord
  2
*Model_Space
340
22
  0
BLOCK_RECORD
  5
1B
330
1
100
AcDbSymbolTableRecord
100
AcDbBlockTableRecord
  2
*Paper_Space
340
1E
  0
BLOCK_RECORD
  5
23
330
1
100
AcDbSymbolTableRecord
100
AcDbBlockTableRecord
  2
*Paper_Space0
340
26
  0
ENDTAB
  0
ENDSEC
  0
SECTION
  2
BLOCKS
  0
BLOCK
  5
20
330
1F
100
AcDbEntity
  8
0
100
AcDbBlockBegin
  2
*Model_Space
 70
     0
 10
0.0
 20
0.0
 30
0.0
  3
*Model_Space
  1

  0
ENDBLK
  5
21
330
1F
100
AcDbEntity
  8
0
100
AcDbBlockEnd
  0
BLOCK
  5
1C
330
1B
100
AcDbEntity
 67
     1
  8
0
100
AcDbBlockBegin
  2
*Paper_Space
 70
     0
 10
0.0
 20
0.0
 30
0.0
  3
*Paper_Space
  1

  0
ENDBLK
  5
1D
330
1B
100
AcDbEntity
 67
     1
  8
0
100
AcDbBlockEnd
  0
BLOCK
  5
24
330
23
100
AcDbEntity
  8
0
100
AcDbBlockBegin
  2
*Paper_Space0
 70
     0
 10
0.0
 20
0.0
 30
0.0
  3
*Paper_Space0
  1

  0
ENDBLK
  5
25
330
23
100
AcDbEntity
  8
0
100
AcDbBlockEnd
  0
ENDSEC
  0
SECTION
  2
ENTITIES
  0
LINE
  5
73
330
1F
100
AcDbEntity
  8
0
  6
Continuous
 62
     7
370
    25
100
AcDbLine
 10
635.5796392334
 20
501.4708778994
 30
0.0
 11
635.5796392334
 21
501.1898361556
 31
0.0
  0
LINE
  5
74
330
1F
100
AcDbEntity
  8
0
  6
Continuous
 62
     7
370
    25
100
AcDbLine
 10
635.512537542
 20
501.4786279469
 30
0.0
 11
635.5796392334
 21
501.4708778994
 31
0.0
  0
ARC
  5
75
330
1F
100
AcDbEntity
  8
0
  6
Continuous
 62
     7
370
    25
100
AcDbCircle
 10
635.5796392334
 20
515.9398361556
 30
0.0
 40
14.75000000000006
100
AcDbArc
 50
270.0
 51
241.6352570651
  0
SPLINE
  5
76
330
1F
100
AcDbEntity
  8
0
  6
Continuous
 62
     7
370
    25
100
AcDbSpline
210
0.0
220
0.0
230
1.0
 70
     8
 71
     3
 72
    17
 73
    13
 74
     0
 42
0.00000001
 43
0.00000001
 40
0.0
 40
0.0
 40
0.0
 40
0.0
 40
0.1218488577178023
 40
0.2311440743619297
 40
0.324267772427361
 40
0.4257064580358731
 40
0.5271451436448741
 40
0.6285838292532987
 40
0.7300228198918174
 40
0.8314665619718217
 40
0.9329103040532216
 40
1.0
 40
1.0
 40
1.0
 40
1.0
 10
628.5721675548548
 20
502.9607051879713
 30
0.0
 10
627.799853786871
 20
503.4433608926071
 30
0.0
 10
626.3347949068692
 20
504.3589460542006
 30
0.0
 10
624.6087023022948
 20
506.0758478025289
 30
0.0
 10
623.2434632370434
 20
507.8891393728366
 30
0.0
 10
622.1929191574058
 20
509.8401323173201
 30
0.0
 10
621.4342034920265
 20
511.9869887424678
 30
0.0
 10
621.0173335388105
 20
514.2252388439355
 30
0.0
 10
620.9471233916962
 20
516.5027418431807
 30
0.0
 10
621.2442143233711
 20
518.7571254314585
 30
0.0
 10
621.775134877337
 20
520.7132134664421
 30
0.0
 10
622.3400487222298
 20
521.8372666801504
 30
0.0
 10
622.5649293069578
 20
522.2847291494264
 30
0.0
  0
LINE
  5
77
330
1F
100
AcDbEntity
  8
0
  6
Continuous
 62
     7
370
    25
100
AcDbLine
 10
623.7369643175
 20
524.2283195827
 30
0.0
 11
623.8113343374
 21
524.3381195797
 31
0.0
  0
SPLINE
  5
78
330
1F
100
AcDbEntity
  8
0
  6
Continuous
 62
     7
370
    25
100
AcDbSpline
210
0.0
220
0.0
230
1.0
 70
     8
 71
     3
 72
    12
 73
     8
 74
     0
 42
0.00000001
 43
0.00000001
 40
0.0
 40
0.0
 40
0.0
 40
0.0
 40
0.0370745301879308
 40
0.1854268129299944
 40
0.4824853423318778
 40
0.7398796535470478
 40
1.0
 40
1.0
 40
1.0
 40
1.0
 10
635.5796392333536
 20
501.0840993201193
 30
0.0
 10
635.5129882281446
 20
501.0843936886448
 30
0.0
 10
635.1796358319887
 20
501.0858659613133
 30
0.0
 10
634.3124752492265
 20
501.1228419951125
 30
0.0
 10
633.0569992873804
 20
501.2834846353452
 30
0.0
 10
631.6259649513405
 20
501.6116171631121
 30
0.0
 10
630.7536706499244
 20
501.9377234623984
 30
0.0
 10
630.3152260715318
 20
502.1016355029444
 30
0.0
  0
LINE
  5
79
330
1F
100
AcDbEntity
  8
0
  6
Continuous
 62
     7
370
    25
100
AcDbLine
 10
630.3152260715
 20
502.1016355029
 30
0.0
 11
628.3578742164
 21
503.0335178491
 31
0.0
  0
ARC
  5
7A
330
1F
100
AcDbEntity
  8
0
  6
Continuous
 62
     7
370
    25
100
AcDbCircle
 10
635.5796392334
 20
515.9398361556
 30
0.0
 40
16.20000000000001
100
AcDbArc
 50
101.043665527
 51
258.956334473
  0
LINE
  5
7B
330
1F
100
AcDbEntity
  8
0
  6
Continuous
 62
     7
370
    25
100
AcDbLine
 10
632.4764151035
 20
500.0398361556
 30
0.0
 11
630.4727810994
 21
500.0398361556
 31
0.0
  0
ARC
  5
7C
330
1F
100
AcDbEntity
  8
0
  6
Continuous
 62
     7
370
    25
100
AcDbCircle
 10
635.5796392334
 20
515.9398361556
 30
0.0
 40
16.7
100
AcDbArc
 50
107.8062935638
 51
252.1937064362
  0
SPLINE
  5
7D
330
1F
100
AcDbEntity
  8
0
  6
Continuous
 62
     7
370
    25
100
AcDbSpline
210
0.0
220
0.0
230
1.0
 70
    24
 71
     3
 72
     9
 73
     5
 74
     0
 42
0.00000001
 43
0.00000001
 40
0.0
 40
0.0
 40
0.0
 40
0.0
 40
0.9076164894784331
 40
1.0
 40
1.0
 40
1.0
 40
1.0
 10
630.4727810994323
 20
531.8398361556068
 30
0.0
 10
631.0748221983052
 20
531.8398361556068
 30
0.0
 10
631.7381432219448
 20
531.8398361556068
 30
0.0
 10
632.4139790199604
 20
531.8398361556068
 30
0.0
 10
632.4764151035172
 20
531.8398361556068
 30
0.0
  0
ARC
  5
7E
330
1F
100
AcDbEntity
  8
0
  6
Continuous
 62
     7
370
    25
100
AcDbCircle
 10
635.5796392334
 20
515.9398361556
 30
0.0
 40
16.70000000000007
100
AcDbArc
 50
287.8062935639
 51
72.1937064362
  0
SPLINE
  5
7F
330
1F
100
AcDbEntity
  8
0
  6
Continuous
 62
     7
370
    25
100
AcDbSpline
210
0.0
220
0.0
230
1.0
 70
    24
 71
     3
 72
     9
 73
     5
 74
     0
 42
0.00000001
 43
0.00000001
 40
0.0
 40
0.0
 40
0.0
 40
0.0
 40
0.9076164894784431
 40
1.0
 40
1.0
 40
1.0
 40
1.0
 10
640.6864973672753
 20
500.0398361556068
 30
0.0
 10
640.0844562684023
 20
500.0398361556068
 30
0.0
 10
639.4211352447627
 20
500.0398361556068
 30
0.0
 10
638.7452994467471
 20
500.0398361556068
 30
0.0
 10
638.6828633631903
 20
500.0398361556068
 30
0.0
  0
ARC
  5
80
330
1F
100
AcDbEntity
  8
0
  6
Continuous
 62
     7
370
    25
100
AcDbCircle
 10
635.5796392334
 20
515.9398361556
 30
0.0
 40
16.20000000000005
100
AcDbArc
 50
281.043665527
 51
78.956334473
  0
LINE
  5
81
330
1F
100
AcDbEntity
  8
0
  6
Continuous
 62
     7
370
    25
100
AcDbLine
 10
638.6828633632
 20
531.8398361556
 30
0.0
 11
640.6864973673
 21
531.8398361556
 31
0.0
  0
LINE
  5
82
330
1F
100
AcDbEntity
  8
0
  6
Continuous
 62
     7
370
    25
100
AcDbLine
 10
635.5796392334
 20
501.1898361556
 30
0.0
 11
635.5796392334
 21
501.0840993201
 31
0.0
  0
LINE
  5
83
330
1F
100
AcDbEntity
  8
0
  6
Continuous
 62
     7
370
    25
100
AcDbLine
 10
632.4764151035
 20
500.0398361556
 30
0.0
 11
638.6828633632
 21
500.0398361556
 31
0.0
  0
LINE
  5
84
330
1F
100
AcDbEntity
  8
0
  6
Continuous
 62
     7
370
    25
100
AcDbLine
 10
638.6828633632
 20
531.8398361556
 30
0.0
 11
632.4764151035
 21
531.8398361556
 31
0.0
  0
LINE
  5
85
330
1F
100
AcDbEntity
  8
0
  6
Continuous
 62
     7
370
    25
100
AcDbLine
 10
630.3152260715
 20
502.1016355029
 30
0.0
 11
628.5721675549
 21
502.960705188
 31
0.0
  0
LINE
  5
86
330
1F
100
AcDbEntity
  8
0
  6
Continuous
 62
     7
370
    25
100
AcDbLine
 10
584.7796392334
 20
501.4708778994
 30
0.0
 11
584.7796392334
 21
501.1898361556
 31
0.0
  0
SPLINE
  5
87
330
1F
100
AcDbEntity
  8
0
  6
Continuous
 62
     7
370
    25
100
AcDbSpline
210
0.0
220
0.0
230
1.0
 70
     8
 71
     3
 72
     9
 73
     5
 74
     0
 42
0.00000001
 43
0.00000001
 40
0.0
 40
0.0
 40
0.0
 40
0.0
 40
0.2356129174917073
 40
1.0
 40
1.0
 40
1.0
 40
1.0
 10
581.9159469487408
 20
501.9073465246034
 30
0.0
 10
582.1349285562076
 20
501.8426630684354
 30
0.0
 10
583.0643411274617
 20
501.5681303439283
 30
0.0
 10
584.0365190145576
 20
501.5130106678009
 30
0.0
 10
584.7796392333537
 20
501.4708778993768
 30
0.0
  0
ARC
  5
88
330
1F
100
AcDbEntity
  8
0
  6
Continuous
 62
     7
370
    25
100
AcDbCircle
 10
584.7796392334
 20
515.9398361556
 30
0.0
 40
14.75000000000006
100
AcDbArc
 50
270.0
 51
241.6352570651
  0
SPLINE
  5
89
330
1F
100
AcDbEntity
  8
0
  6
Continuous
 62
     7
370
    25
100
AcDbSpline
210
0.0
220
0.0
230
1.0
 70
     8
 71
     3
 72
    17
 73
    13
 74
     0
 42
0.00000001
 43
0.00000001
 40
0.0
 40
0.0
 40
0.0
 40
0.0
 40
0.1258919719471662
 40
0.2388137555849598
 40
0.3350274272110077
 40
0.4398319892082964
 40
0.5446365512060902
 40
0.6494411132032885
 40
0.754245990351903
 40
0.8590557766014265
 40
0.9638655628523921
 40
1.0
 40
1.0
 40
1.0
 40
1.0
 10
577.7721675548548
 20
502.9607051879713
 30
0.0
 10
576.9998535498501
 20
503.4433609911122
 30
0.0
 10
575.5347942202253
 20
504.3589463395674
 30
0.0
 10
573.8087045745314
 20
506.0758468581956
 30
0.0
 10
572.4434558224939
 20
507.8891424542965
 30
0.0
 10
571.392949785991
 20
509.8401195881912
 30
0.0
 10
570.6340894609069
 20
511.9870361333872
 30
0.0
 10
570.2177590352445
 20
514.2250620091621
 30
0.0
 10
570.145535400472
 20
516.5034018065687
 30
0.0
 10
570.4501410904279
 20
518.7546622885848
 30
0.0
 10
570.8959846096799
 20
520.4871694182075
 30
0.0
 10
571.3446618709462
 20
521.4005915219684
 30
0.0
 10
571.459691064097
 20
521.6347692186608
 30
0.0
  0
SPLINE
  5
8A
330
1F
100
AcDbEntity
  8
0
  6
Continuous
 62
     7
370
    25
100
AcDbSpline
210
0.0
220
0.0
230
1.0
 70
     8
 71
     3
 72
     9
 73
     5
 74
     0
 42
0.00000001
 43
0.00000001
 40
0.0
 40
0.0
 40
0.0
 40
0.0
 40
0.8478660921589694
 40
1.0
 40
1.0
 40
1.0
 40
1.0
 10
572.2382267802844
 20
523.196702546702
 30
0.0
 10
572.5786778649559
 20
523.7780562314471
 30
0.0
 10
572.9802166077125
 20
524.4637230957328
 30
0.0
 10
573.5261828683656
 20
525.0341470386139
 30
0.0
 10
573.609242849148
 20
525.1209278621706
 30
0.0
  0
SPLINE
  5
8B
330
1F
100
AcDbEntity
  8
0
  6
Continuous
 62
     7
370
    25
100
AcDbSpline
210
0.0
220
0.0
230
1.0
 70
     8
 71
     3
 72
    12
 73
     8
 74
     0
 42
0.00000001
 43
0.00000001
 40
0.0
 40
0.0
 40
0.0
 40
0.0
 40
0.0370745301879316
 40
0.1854268129299943
 40
0.482485342331878
 40
0.7398796535470477
 40
1.0
 40
1.0
 40
1.0
 40
1.0
 10
584.7796392333537
 20
501.0840993201193
 30
0.0
 10
584.7129882281447
 20
501.0843936886448
 30
0.0
 10
584.3796358319886
 20
501.0858659613133
 30
0.0
 10
583.5124752492266
 20
501.1228419951125
 30
0.0
 10
582.2569992873805
 20
501.2834846353452
 30
0.0
 10
580.8259649513404
 20
501.6116171631121
 30
0.0
 10
579.9536706499244
 20
501.9377234623984
 30
0.0
 10
579.5152260715319
 20
502.1016355029444
 30
0.0
  0
LINE
  5
8C
330
1F
100
AcDbEntity
  8
0
  6
Continuous
 62
     7
370
    25
100
AcDbLine
 10
579.5152260715
 20
502.1016355029
 30
0.0
 11
577.5578742164
 21
503.0335178491
 31
0.0
  0
ARC
  5
8D
330
1F
100
AcDbEntity
  8
0
  6
Continuous
 62
     7
370
    25
100
AcDbCircle
 10
584.7796392334
 20
515.9398361556
 30
0.0
 40
16.70000000000007
100
AcDbArc
 50
287.8062935639
 51
72.1937064362
  0
SPLINE
  5
8E
330
1F
100
AcDbEntity
  8
0
  6
Continuous
 62
     7
370
    25
100
AcDbSpline
210
0.0
220
0.0
230
1.0
 70
    24
 71
     3
 72
     9
 73
     5
 74
     0
 42
0.00000001
 43
0.00000001
 40
0.0
 40
0.0
 40
0.0
 40
0.0
 40
0.9076164894784422
 40
1.0
 40
1.0
 40
1.0
 40
1.0
 10
589.8864973672753
 20
500.0398361556068
 30
0.0
 10
589.2844562684023
 20
500.0398361556068
 30
0.0
 10
588.6211352447626
 20
500.0398361556068
 30
0.0
 10
587.9452994467471
 20
500.0398361556068
 30
0.0
 10
587.8828633631903
 20
500.0398361556068
 30
0.0
  0
ARC
  5
8F
330
1F
100
AcDbEntity
  8
0
  6
Continuous
 62
     7
370
    25
100
AcDbCircle
 10
584.7796392334
 20
515.9398361556
 30
0.0
 40
16.20000000000003
100
AcDbArc
 50
281.043665527
 51
78.956334473
  0
LINE
  5
90
330
1F
100
AcDbEntity
  8
0
  6
Continuous
 62
     7
370
    25
100
AcDbLine
 10
587.8828633632
 20
531.8398361556
 30
0.0
 11
589.8864973673
 21
531.8398361556
 31
0.0
  0
ARC
  5
91
330
1F
100
AcDbEntity
  8
0
  6
Continuous
 62
     7
370
    25
100
AcDbCircle
 10
584.7796392334
 20
515.9398361556
 30
0.0
 40
16.20000000000001
100
AcDbArc
 50
101.043665527
 51
258.956334473
  0
LINE
  5
92
330
1F
100
AcDbEntity
  8
0
  6
Continuous
 62
     7
370
    25
100
AcDbLine
 10
587.8828633632
 20
531.8398361556
 30
0.0
 11
581.6764151035
 21
531.8398361556
 31
0.0
  0
LINE
  5
93
330
1F
100
AcDbEntity
  8
0
  6
Continuous
 62
     7
370
    25
100
AcDbLine
 10
584.7796392334
 20
501.1898361556
 30
0.0
 11
584.7796392334
 21
501.0840993201
 31
0.0
  0
LINE
  5
94
330
1F
100
AcDbEntity
  8
0
  6
Continuous
 62
     7
370
    25
100
AcDbLine
 10
581.6764151035
 20
500.0398361556
 30
0.0
 11
587.8828633632
 21
500.0398361556
 31
0.0
  0
LINE
  5
95
330
1F
100
AcDbEntity
  8
0
  6
Continuous
 62
     7
370
    25
100
AcDbLine
 10
579.5152260715
 20
502.1016355029
 30
0.0
 11
577.7721675549
 21
502.960705188
 31
0.0
  0
ARC
  5
96
330
1F
100
AcDbEntity
  8
0
  6
Continuous
 62
     7
370
    25
100
AcDbCircle
 10
584.7796392334
 20
515.9398361556
 30
0.0
 40
16.70000000000003
100
AcDbArc
 50
107.8062935638
 51
252.1937064362
  0
SPLINE
  5
97
330
1F
100
AcDbEntity
  8
0
  6
Continuous
 62
     7
370
    25
100
AcDbSpline
210
0.0
220
0.0
230
1.0
 70
    24
 71
     3
 72
     9
 73
     5
 74
     0
 42
0.00000001
 43
0.00000001
 40
0.0
 40
0.0
 40
0.0
 40
0.0
 40
0.9076164894784323
 40
1.0
 40
1.0
 40
1.0
 40
1.0
 10
579.6727810994322
 20
531.8398361556068
 30
0.0
 10
580.2748221983053
 20
531.8398361556068
 30
0.0
 10
580.9381432219449
 20
531.8398361556068
 30
0.0
 10
581.6139790199604
 20
531.8398361556068
 30
0.0
 10
581.6764151035172
 20
531.8398361556068
 30
0.0
  0
LINE
  5
98
330
1F
100
AcDbEntity
  8
0
  6
Continuous
 62
     7
370
    25
100
AcDbLine
 10
581.6764151035
 20
500.0398361556
 30
0.0
 11
579.6727810994
 21
500.0398361556
 31
0.0
  0
LINE
  5
99
330
1F
100
AcDbEntity
  8
0
  6
Continuous
 62
     7
370
    25
100
AcDbLine
 10
533.9796392334
 20
501.4708778994
 30
0.0
 11
533.9796392334
 21
501.1898361556
 31
0.0
  0
LINE
  5
9A
330
1F
100
AcDbEntity
  8
0
  6
Continuous
 62
     7
370
    25
100
AcDbLine
 10
533.8406106529
 20
501.4869352906
 30
0.0
 11
533.9796392334
 21
501.4708778994
 31
0.0
  0
ARC
  5
9B
330
1F
100
AcDbEntity
  8
0
  6
Continuous
 62
     7
370
    25
100
AcDbCircle
 10
533.9796392334
 20
515.9398361556
 30
0.0
 40
14.75000000000006
100
AcDbArc
 50
270.0
 51
241.6352570651
  0
SPLINE
  5
9C
330
1F
100
AcDbEntity
  8
0
  6
Continuous
 62
     7
370
    25
100
AcDbSpline
210
0.0
220
0.0
230
1.0
 70
     8
 71
     3
 72
    17
 73
    13
 74
     0
 42
0.00000001
 43
0.00000001
 40
0.0
 40
0.0
 40
0.0
 40
0.0
 40
0.124230734318761
 40
0.2356624315503739
 40
0.3306064926587687
 40
0.434028080989623
 40
0.5374496693209758
 40
0.6408712576517409
 40
0.7442931569752662
 40
0.8477199006204853
 40
0.9511466442671276
 40
1.0
 40
1.0
 40
1.0
 40
1.0
 10
526.9721675548548
 20
502.9607051879713
 30
0.0
 10
526.1998536588593
 20
503.4433609458083
 30
0.0
 10
524.7347945360225
 20
504.3589462083232
 30
0.0
 10
523.0087035294982
 20
506.0758472925077
 30
0.0
 10
521.643459232548
 20
507.8891410370903
 30
0.0
 10
520.59293569948
 20
509.8401254424941
 30
0.0
 10
519.8341419054001
 20
511.9870143376461
 30
0.0
 10
519.4175633435339
 20
514.2251433379266
 30
0.0
 10
519.3462657396575
 20
516.5030982802546
 30
0.0
 10
519.6474152880688
 20
518.7557951221501
 30
0.0
 10
520.1281484140852
 20
520.5781552662771
 30
0.0
 10
520.6237180389826
 20
521.5764420823608
 30
0.0
 10
520.7827029573938
 20
521.8967049476221
 30
0.0
  0
SPLINE
  5
9D
330
1F
100
AcDbEntity
  8
0
  6
Continuous
 62
     7
370
    25
100
AcDbSpline
210
0.0
220
0.0
230
1.0
 70
     8
 71
     3
 72
     9
 73
     5
 74
     0
 42
0.00000001
 43
0.00000001
 40
0.0
 40
0.0
 40
0.0
 40
0.0
 40
0.4928405545536119
 40
1.0
 40
1.0
 40
1.0
 40
1.0
 10
522.9478115288787
 20
525.2691760154225
 30
0.0
 10
523.3211132590284
 20
525.7006643744454
 30
0.0
 10
524.078562553127
 20
526.5761774689665
 30
0.0
 10
525.0192933434737
 20
527.2511749949734
 30
0.0
 10
525.4963938494203
 20
527.5935063659407
 30
0.0
  0
SPLINE
  5
9E
330
1F
100
AcDbEntity
  8
0
  6
Continuous
 62
     7
370
    25
100
AcDbSpline
210
0.0
220
0.0
230
1.0
 70
     8
 71
     3
 72
    12
 73
     8
 74
     0
 42
0.00000001
 43
0.00000001
 40
0.0
 40
0.0
 40
0.0
 40
0.0
 40
0.0370745301879308
 40
0.1854268129299944
 40
0.4824853423318778
 40
0.7398796535470478
 40
1.0
 40
1.0
 40
1.0
 40
1.0
 10
533.9796392333537
 20
501.0840993201193
 30
0.0
 10
533.9129882281446
 20
501.0843936886448
 30
0.0
 10
533.5796358319886
 20
501.0858659613133
 30
0.0
 10
532.7124752492265
 20
501.1228419951125
 30
0.0
 10
531.4569992873804
 20
501.2834846353452
 30
0.0
 10
530.0259649513405
 20
501.6116171631121
 30
0.0
 10
529.1536706499244
 20
501.9377234623984
 30
0.0
 10
528.7152260715318
 20
502.1016355029444
 30
0.0
  0
LINE
  5
9F
330
1F
100
AcDbEntity
  8
0
  6
Continuous
 62
     7
370
    25
100
AcDbLine
 10
528.7152260715
 20
502.1016355029
 30
0.0
 11
526.7578742164
 21
503.0335178491
 31
0.0
  0
ARC
  5
A0
330
1F
100
AcDbEntity
  8
0
  6
Continuous
 62
     7
370
    25
100
AcDbCircle
 10
533.9796392334
 20
515.9398361556
 30
0.0
 40
16.70000000000003
100
AcDbArc
 50
287.8062935638
 51
72.1937064362
  0
SPLINE
  5
A1
330
1F
100
AcDbEntity
  8
0
  6
Continuous
 62
     7
370
    25
100
AcDbSpline
210
0.0
220
0.0
230
1.0
 70
    24
 71
     3
 72
     9
 73
     5
 74
     0
 42
0.00000001
 43
0.00000001
 40
0.0
 40
0.0
 40
0.0
 40
0.0
 40
0.9076164894784431
 40
1.0
 40
1.0
 40
1.0
 40
1.0
 10
539.0864973672752
 20
500.0398361556068
 30
0.0
 10
538.4844562684023
 20
500.0398361556068
 30
0.0
 10
537.8211352447627
 20
500.0398361556068
 30
0.0
 10
537.1452994467471
 20
500.0398361556068
 30
0.0
 10
537.0828633631903
 20
500.0398361556068
 30
0.0
  0
ARC
  5
A2
330
1F
100
AcDbEntity
  8
0
  6
Continuous
 62
     7
370
    25
100
AcDbCircle
 10
533.9796392334
 20
515.9398361556
 30
0.0
 40
16.20000000000003
100
AcDbArc
 50
281.043665527
 51
78.956334473
  0
LINE
  5
A3
330
1F
100
AcDbEntity
  8
0
  6
Continuous
 62
     7
370
    25
100
AcDbLine
 10
537.0828633632
 20
531.8398361556
 30
0.0
 11
539.0864973673
 21
531.8398361556
 31
0.0
  0
ARC
  5
A4
330
1F
100
AcDbEntity
  8
0
  6
Continuous
 62
     7
370
    25
100
AcDbCircle
 10
533.9796392334
 20
515.9398361556
 30
0.0
 40
16.20000000000003
100
AcDbArc
 50
101.043665527
 51
258.956334473
  0
LINE
  5
A5
330
1F
100
AcDbEntity
  8
0
  6
Continuous
 62
     7
370
    25
100
AcDbLine
 10
530.8764151035
 20
500.0398361556
 30
0.0
 11
528.8727810994
 21
500.0398361556
 31
0.0
  0
ARC
  5
A6
330
1F
100
AcDbEntity
  8
0
  6
Continuous
 62
     7
370
    25
100
AcDbCircle
 10
533.9796392334
 20
515.9398361556
 30
0.0
 40
16.70000000000003
100
AcDbArc
 50
107.8062935638
 51
252.1937064362
  0
SPLINE
  5
A7
330
1F
100
AcDbEntity
  8
0
  6
Continuous
 62
     7
370
    25
100
AcDbSpline
210
0.0
220
0.0
230
1.0
 70
    24
 71
     3
 72
     9
 73
     5
 74
     0
 42
0.00000001
 43
0.00000001
 40
0.0
 40
0.0
 40
0.0
 40
0.0
 40
0.9076164894784331
 40
1.0
 40
1.0
 40
1.0
 40
1.0
 10
528.8727810994322
 20
531.8398361556068
 30
0.0
 10
529.4748221983052
 20
531.8398361556068
 30
0.0
 10
530.1381432219448
 20
531.8398361556068
 30
0.0
 10
530.8139790199605
 20
531.8398361556068
 30
0.0
 10
530.8764151035173
 20
531.8398361556068
 30
0.0
  0
LINE
  5
A8
330
1F
100
AcDbEntity
  8
0
  6
Continuous
 62
     7
370
    25
100
AcDbLine
 10
533.9796392334
 20
501.1898361556
 30
0.0
 11
533.9796392334
 21
501.0840993201
 31
0.0
  0
LINE
  5
A9
330
1F
100
AcDbEntity
  8
0
  6
Continuous
 62
     7
370
    25
100
AcDbLine
 10
530.8764151035
 20
500.0398361556
 30
0.0
 11
537.0828633632
 21
500.0398361556
 31
0.0
  0
LINE
  5
AA
330
1F
100
AcDbEntity
  8
0
  6
Continuous
 62
     7
370
    25
100
AcDbLine
 10
537.0828633632
 20
531.8398361556
 30
0.0
 11
530.8764151035
 21
531.8398361556
 31
0.0
  0
LINE
  5
AB
330
1F
100
AcDbEntity
  8
0
  6
Continuous
 62
     7
370
    25
100
AcDbLine
 10
528.7152260715
 20
502.1016355029
 30
0.0
 11
526.9721675549
 21
502.960705188
 31
0.0
  0
LWPOLYLINE
  5
AC
330
1F
100
AcDbEntity
  8
0
  6
Continuous
 62
     7
370
    25
100
AcDbPolyline
 90
        4
 70
   128
 43
0.0
 10
642.2796392327
 20
534.8489912798
 10
604.3781025761
 20
534.8490311962
 10
565.828870905
 20
534.8490311962
 10
527.279639234
 20
534.8489912798
  0
LINE
  5
AD
330
1F
100
AcDbEntity
  8
0
  6
Continuous
 62
     7
370
    25
100
AcDbLine
 10
527.279639234
 20
534.8489912798
 30
0.0
 11
527.2735151711
 21
537.8170282522
 31
0.0
  0
LWPOLYLINE
  5
AE
330
1F
100
AcDbEntity
  8
0
  6
Continuous
 62
     7
370
    25
100
AcDbPolyline
 90
        4
 70
   128
 43
0.0
 10
527.2735151711
 20
537.8170282522
 10
565.8258087531
 20
537.8170611669
 10
604.3781025761
 20
537.8170611669
 10
642.2857632956
 20
537.8170282522
  0
LINE
  5
AF
330
1F
100
AcDbEntity
  8
0
  6
Continuous
 62
     7
370
    25
100
AcDbLine
 10
642.2796392327
 20
534.8489912798
 30
0.0
 11
642.2857632956
 21
537.8170282522
 31
0.0
  0
LWPOLYLINE
  5
B0
330
1F
100
AcDbEntity
  8
0
  6
Continuous
 62
     7
370
    25
100
AcDbPolyline
 90
        4
 70
   128
 43
0.0
 10
642.2857632937
 20
494.062644059
 10
603.7334697144
 20
494.0626111444
 10
565.1811758942
 20
494.0626111444
 10
527.2735151763
 20
494.062644059
  0
LINE
  5
B1
330
1F
100
AcDbEntity
  8
0
  6
Continuous
 62
     7
370
    25
100
AcDbLine
 10
527.2735151763
 20
494.062644059
 30
0.0
 11
527.2796392385
 21
497.0306810314
 31
0.0
  0
LWPOLYLINE
  5
B2
330
1F
100
AcDbEntity
  8
0
  6
Continuous
 62
     7
370
    25
100
AcDbPolyline
 90
        4
 70
   128
 43
0.0
 10
527.2796392385
 20
497.0306810314
 10
565.1811758942
 20
497.030641115
 10
603.7304075627
 20
497.030641115
 10
642.2796392311
 20
497.0306810314
  0
LINE
  5
B3
330
1F
100
AcDbEntity
  8
0
  6
Continuous
 62
     7
370
    25
100
AcDbLine
 10
642.2857632937
 20
494.062644059
 30
0.0
 11
642.2796392311
 21
497.0306810314
 31
0.0
  0
SPLINE
  5
B4
330
1F
100
AcDbEntity
  8
0
  6
Continuous
 62
     7
370
    25
100
AcDbSpline
210
0.0
220
0.0
230
1.0
 70
     8
 71
     3
 72
    35
 73
    31
 74
     0
 42
0.00000001
 43
0.00000001
 40
0.0
 40
0.0
 40
0.0
 40
0.0
 40
0.035778360724052
 40
0.0716711646131269
 40
0.1074510407301179
 40
0.1432318670959777
 40
0.1791279927873276
 40
0.2149112851501195
 40
0.2506968809065799
 40
0.2865970443950869
 40
0.3223837661462609
 40
0.3581869733180589
 40
0.3941043917927813
 40
0.4299073256607343
 40
0.4656821871065991
 40
0.5015703713714064
 40
0.5373438099269794
 40
0.5731248499858479
 40
0.6090187951155863
 40
0.6447975422881403
 40
0.6805842871648989
 40
0.7164839519444169
 40
0.752268956389017
 40
0.7881065849479456
 40
0.8240583295163332
 40
0.8598958290186716
 40
0.8957514888651182
 40
0.9317228701758336
 40
0.9675807373181659
 40
1.0
 40
1.0
 40
1.0
 40
1.0
 10
642.2796392310954
 20
497.0306810313797
 30
0.0
 10
642.9870542080469
 20
497.055740617205
 30
0.0
 10
644.4041469489332
 20
497.105939946198
 30
0.0
 10
646.5010028177758
 20
497.4817502203779
 30
0.0
 10
648.5455000570397
 20
498.0691361404906
 30
0.0
 10
650.5086309248173
 20
498.8923535617043
 30
0.0
 10
652.3677570684549
 20
499.9276702803483
 30
0.0
 10
654.1014811847158
 20
501.1624347236
 30
0.0
 10
655.6822970329439
 20
502.5878513441018
 30
0.0
 10
657.0947963990344
 20
504.1799185693574
 30
0.0
 10
658.3228832126034
 20
505.918957787877
 30
0.0
 10
659.3435433820943
 20
507.7877214686808
 30
0.0
 10
660.1505613367576
 20
509.7582274435418
 30
0.0
 10
660.7336920067104
 20
511.8059093157395
 30
0.0
 10
661.0778530618414
 20
513.9063787231723
 30
0.0
 10
661.1875831651226
 20
516.0311724502983
 30
0.0
 10
661.0603560322463
 20
518.1554301455901
 30
0.0
 10
660.6901970444727
 20
520.2511084588693
 30
0.0
 10
660.0909916609214
 20
522.2929657879041
 30
0.0
 10
659.2680018519818
 20
524.2558290594844
 30
0.0
 10
658.2249266511395
 20
526.1111754141912
 30
0.0
 10
656.9836294289314
 20
527.8399947335045
 30
0.0
 10
655.5571205852414
 20
529.4212804004137
 30
0.0
 10
653.9574234678091
 20
530.8286259751544
 30
0.0
 10
652.2111001245879
 20
532.0506211042
 30
0.0
 10
650.3395803341054
 20
533.0717000828564
 30
0.0
 10
648.3623702710896
 20
533.8714515839653
 30
0.0
 10
646.3084581396872
 20
534.4418280625939
 30
0.0
 10
644.2704940158892
 20
534.7858179240674
 30
0.0
 10
642.9205960989161
 20
534.8286525808561
 30
0.0
 10
642.279639232734
 20
534.8489912798304
 30
0.0
  0
SPLINE
  5
B5
330
1F
100
AcDbEntity
  8
0
  6
Continuous
 62
     7
370
    25
100
AcDbSpline
210
0.0
220
0.0
230
1.0
 70
     8
 71
     3
 72
    35
 73
    31
 74
     0
 42
0.00000001
 43
0.00000001
 40
0.0
 40
0.0
 40
0.0
 40
0.0
 40
0.0324293965363682
 40
0.0682821882568291
 40
0.1042486266638908
 40
0.1400994711178983
 40
0.1759299175272993
 40
0.2118746460852843
 40
0.2477052393998187
 40
0.2834877826890994
 40
0.3193849391689656
 40
0.3551690305433989
 40
0.3909533345258243
 40
0.426852771486217
 40
0.4626390950194539
 40
0.4984191838469232
 40
0.5343140104693467
 40
0.5700953582905472
 40
0.605905016165101
 40
0.6418292244389748
 40
0.6776391258972203
 40
0.7134271083553844
 40
0.7493286613929246
 40
0.7851156516954865
 40
0.8208996634235735
 40
0.8567967155979725
 40
0.8925785700247697
 40
0.9283484819918385
 40
0.9642313970842599
 40
1.0
 40
1.0
 40
1.0
 40
1.0
 10
642.2857632955586
 20
537.8170282522185
 30
0.0
 10
643.0277051344531
 20
537.7937244570572
 30
0.0
 10
644.589911580762
 20
537.7446568117031
 30
0.0
 10
646.9483147314224
 20
537.3472225507911
 30
0.0
 10
649.3248679123644
 20
536.6877777496965
 30
0.0
 10
651.6127199638995
 20
535.7630308081012
 30
0.0
 10
653.778337659238
 20
534.5822386604734
 30
0.0
 10
655.7990744505255
 20
533.1689028426601
 30
0.0
 10
657.6502534675674
 20
531.5409697736038
 30
0.0
 10
659.3011664516044
 20
529.7116769010779
 30
0.0
 10
660.737895774453
 20
527.7115643277763
 30
0.0
 10
661.9452262434822
 20
525.564747262999
 30
0.0
 10
662.8979232757663
 20
523.2932994370885
 30
0.0
 10
663.5917826209991
 20
520.9302465798078
 30
0.0
 10
664.0203715660383
 20
518.5047969045281
 30
0.0
 10
664.1676916725397
 20
516.0462249422254
 30
0.0
 10
664.0407954732756
 20
513.5869939809508
 30
0.0
 10
663.6424315351437
 20
511.1559203491415
 30
0.0
 10
662.9673693380829
 20
508.7859799792384
 30
0.0
 10
662.0331430171177
 20
506.5053936329763
 30
0.0
 10
660.851658129445
 20
504.3427228143461
 30
0.0
 10
659.4300861167535
 20
502.3303915264773
 30
0.0
 10
657.7951093806524
 20
500.4883650514479
 30
0.0
 10
655.9654170627146
 20
498.8392281348443
 30
0.0
 10
653.9587463245551
 20
497.410866909977
 30
0.0
 10
651.8069345989168
 20
496.2135331706874
 30
0.0
 10
649.5351200488304
 20
495.2616947574485
 30
0.0
 10
647.1694744829289
 20
494.5828259026185
 30
0.0
 10
644.7435508731655
 20
494.1489344359583
 30
0.0
 10
643.1041539938985
 20
494.0913769090632
 30
0.0
 10
642.2857632936607
 20
494.0626440589917
 30
0.0
  0
SPLINE
  5
B6
330
1F
100
AcDbEntity
  8
0
  6
Continuous
 62
     7
370
    25
100
AcDbSpline
210
0.0
220
0.0
230
1.0
 70
     8
 71
     3
 72
    35
 73
    31
 74
     0
 42
0.00000001
 43
0.00000001
 40
0.0
 40
0.0
 40
0.0
 40
0.0
 40
0.0357783607223935
 40
0.0716711646098028
 40
0.1074510407251323
 40
0.1432318670893366
 40
0.1791279927790261
 40
0.2149112851401631
 40
0.2506968808949536
 40
0.286597044381787
 40
0.3223837661312933
 40
0.3581869733013778
 40
0.3941043917743826
 40
0.4299073256406248
 40
0.4656821870847629
 40
0.5015703713478392
 40
0.537343809901688
 40
0.573124849958828
 40
0.6090187950868332
 40
0.6447975422576597
 40
0.6805842871326642
 40
0.7164839519104208
 40
0.7522689563532642
 40
0.7881065849104185
 40
0.8240583294770238
 40
0.8598958289775841
 40
0.8957514888223167
 40
0.9317228701313115
 40
0.9675807372719283
 40
1.0
 40
1.0
 40
1.0
 40
1.0
 10
527.2796392339735
 20
534.8489912798304
 30
0.0
 10
526.5722242570232
 20
534.8239316939435
 30
0.0
 10
525.1551315161388
 20
534.7737323648271
 30
0.0
 10
523.0582756473254
 20
534.3979220904653
 30
0.0
 10
521.013778408109
 20
533.8105361701739
 30
0.0
 10
519.0506475404001
 20
532.9873187487871
 30
0.0
 10
517.19152139685
 20
531.9520020299783
 30
0.0
 10
515.4577972806944
 20
530.7172375865729
 30
0.0
 10
513.8769814325889
 20
529.2918209659304
 30
0.0
 10
512.464482066637
 20
527.6997537405475
 30
0.0
 10
511.2363952532197
 20
525.9607145219182
 30
0.0
 10
510.215735083893
 20
524.0919508410234
 30
0.0
 10
509.4087171294044
 20
522.1214448660903
 30
0.0
 10
508.8255864596323
 20
520.0737629938411
 30
0.0
 10
508.4814254046865
 20
517.973293586378
 30
0.0
 10
508.3716953015937
 20
515.8484998592429
 30
0.0
 10
508.4989224346575
 20
513.7242421639628
 30
0.0
 10
508.8690814226154
 20
511.6285638507167
 30
0.0
 10
509.468286806347
 20
509.5867065217353
 30
0.0
 10
510.2912766154596
 20
507.6238432502288
 30
0.0
 10
511.3343518164642
 20
505.7684968956152
 30
0.0
 10
512.5756490388225
 20
504.0396775764125
 30
0.0
 10
514.0021578826502
 20
502.4583919096308
 30
0.0
 10
515.601855000204
 20
501.0510463350327
 30
0.0
 10
517.3481783435286
 20
499.8290512061408
 30
0.0
 10
519.2196981340986
 20
498.8079722276493
 30
0.0
 10
521.1969081971838
 20
498.0082207267133
 30
0.0
 10
523.250820328636
 20
497.4378442482661
 30
0.0
 10
525.2887844533996
 20
497.0938543868033
 30
0.0
 10
526.63868237133
 20
497.0510197302514
 30
0.0
 10
527.2796392384629
 20
497.0306810313738
 30
0.0
  0
SPLINE
  5
B7
330
1F
100
AcDbEntity
  8
0
  6
Continuous
 62
     7
370
    25
100
AcDbSpline
210
0.0
220
0.0
230
1.0
 70
     8
 71
     3
 72
    35
 73
    31
 74
     0
 42
0.00000001
 43
0.00000001
 40
0.0
 40
0.0
 40
0.0
 40
0.0
 40
0.0324293965826816
 40
0.0682821883014171
 40
0.104248626706748
 40
0.1400994711590314
 40
0.1759299175666518
 40
0.2118746461228516
 40
0.2477052394356088
 40
0.2834877827231379
 40
0.3193849392012482
 40
0.3551690305739318
 40
0.3909533345546324
 40
0.4268527715132944
 40
0.4626390950448055
 40
0.4984191838705498
 40
0.5343140104912417
 40
0.570095358310715
 40
0.6059050161835571
 40
0.6418292244557124
 40
0.677639125912244
 40
0.7134271083687383
 40
0.7493286614046027
 40
0.785115651705493
 40
0.820899663431918
 40
0.8567967156046492
 40
0.8925785700297836
 40
0.9283484819951817
 40
0.9642313970859281
 40
1.0
 40
1.0
 40
1.0
 40
1.0
 10
527.273515176349
 20
494.0626440589859
 30
0.0
 10
526.5315733363523
 20
494.0859478540348
 30
0.0
 10
524.969366888934
 20
494.1350154991145
 30
0.0
 10
522.610963737155
 20
494.5324497600138
 30
0.0
 10
520.2344105561559
 20
495.1918945608983
 30
0.0
 10
517.946558504541
 20
496.1166415022931
 30
0.0
 10
515.7809408091015
 20
497.2974336497299
 30
0.0
 10
513.7602040176942
 20
498.710769467365
 30
0.0
 10
511.9090250005117
 20
500.3387025362563
 30
0.0
 10
510.258112016315
 20
502.1679954086345
 30
0.0
 10
508.821382693292
 20
504.1681079818085
 30
0.0
 10
507.6140522240747
 20
506.314925046478
 30
0.0
 10
506.6613551915904
 20
508.5863728723035
 30
0.0
 10
505.9674958461491
 20
510.9494257295227
 30
0.0
 10
505.5389069008962
 20
513.3748754047643
 30
0.0
 10
505.391586794178
 20
515.8334473670536
 30
0.0
 10
505.5184829932242
 20
518.292678328339
 30
0.0
 10
505.9168469311418
 20
520.7237519601833
 30
0.0
 10
506.5919091279935
 20
523.093692330146
 30
0.0
 10
507.5261354487567
 20
525.3742786764917
 30
0.0
 10
508.7076203362395
 20
527.5369494952272
 30
0.0
 10
510.1291923487554
 20
529.5492807832231
 30
0.0
 10
511.7641690846961
 20
531.3913072583995
 30
0.0
 10
513.593861402492
 20
533.0404441751659
 30
0.0
 10
515.6005321405297
 20
534.468805400211
 30
0.0
 10
517.7523438660666
 20
535.666139139691
 30
0.0
 10
520.0241584160732
 20
536.6179775531302
 30
0.0
 10
522.389803981919
 20
537.2968464081669
 30
0.0
 10
524.8157275916482
 20
537.7307378750377
 30
0.0
 10
526.4551244709124
 20
537.7882954020756
 30
0.0
 10
527.2735151711489
 20
537.8170282522184
 30
0.0
  0
ARC
  5
B8
330
1F
100
AcDbEntity
  8
0
  6
Continuous
 62
     7
370
    25
100
AcDbCircle
 10
641.8796392334
 20
515.9398361556
 30
0.0
 40
25.40000000000009
100
AcDbArc
 50
270.0
 51
90.0
  0
LINE
  5
B9
330
1F
100
AcDbEntity
  8
0
  6
Continuous
 62
     7
370
    25
100
AcDbLine
 10
527.6796392334
 20
490.5398361556
 30
0.0
 11
641.8796392334
 21
490.5398361556
 31
0.0
  0
ARC
  5
BA
330
1F
100
AcDbEntity
  8
0
  6
Continuous
 62
     7
370
    25
100
AcDbCircle
 10
527.6796392334
 20
515.9398361556
 30
0.0
 40
25.40000000000009
100
AcDbArc
 50
90.0
 51
270.0
  0
LINE
  5
BB
330
1F
100
AcDbEntity
  8
0
  6
Continuous
 62
     7
370
    25
100
AcDbLine
 10
641.8796392334
 20
541.3398361556
 30
0.0
 11
527.6796392334
 21
541.3398361556
 31
0.0
  0
CIRCLE
  5
BC
330
1F
100
AcDbEntity
  8
0
  6
Continuous
 62
     7
370
    25
100
AcDbCircle
 10
584.7796392334
 20
515.9398361556
 30
0.0
 40
11.75
  0
SPLINE
  5
BD
330
1F
100
AcDbEntity
  8
0
  6
Continuous
 62
     7
370
    25
100
AcDbSpline
210
0.0
220
0.0
230
1.0
 70
     8
 71
     3
 72
   104
 73
   100
 74
     0
 42
0.00000001
 43
0.00000001
 40
0.0
 40
0.0
 40
0.0
 40
0.0
 40
0.015625
 40
0.015625
 40
0.03125
 40
0.03125
 40
0.0625000000000001
 40
0.0625000000000001
 40
0.0781250000000001
 40
0.0781250000000001
 40
0.0937500000000001
 40
0.0937500000000001
 40
0.1250000000000002
 40
0.1250000000000002
 40
0.1406250000000002
 40
0.1406250000000002
 40
0.1562500000000002
 40
0.1562500000000002
 40
0.1718750000000002
 40
0.1718750000000002
 40
0.1875000000000002
 40
0.1875000000000002
 40
0.2187500000000002
 40
0.2187500000000002
 40
0.2343750000000001
 40
0.2343750000000001
 40
0.2500000000000001
 40
0.2656250000000001
 40
0.2656250000000001
 40
0.2812500000000001
 40
0.2812500000000001
 40
0.3125
 40
0.3125
 40
0.3281249999999999
 40
0.3281249999999999
 40
0.3437499999999999
 40
0.3437499999999999
 40
0.3593749999999999
 40
0.3593749999999999
 40
0.3749999999999998
 40
0.3749999999999998
 40
0.3906249999999998
 40
0.3906249999999998
 40
0.4062499999999997
 40
0.4062499999999997
 40
0.4374999999999997
 40
0.4374999999999997
 40
0.4531249999999997
 40
0.4531249999999997
 40
0.4687499999999996
 40
0.4687499999999996
 40
0.4999999999999996
 40
0.4999999999999996
 40
0.5312499999999996
 40
0.5312499999999996
 40
0.5468749999999996
 40
0.5468749999999996
 40
0.5624999999999996
 40
0.5624999999999996
 40
0.5937499999999997
 40
0.5937499999999997
 40
0.6093749999999997
 40
0.6093749999999997
 40
0.6249999999999997
 40
0.6406249999999997
 40
0.6406249999999997
 40
0.6562499999999997
 40
0.6562499999999997
 40
0.6874999999999997
 40
0.6874999999999997
 40
0.7031249999999998
 40
0.7031249999999998
 40
0.7187499999999998
 40
0.7187499999999998
 40
0.7499999999999998
 40
0.7499999999999998
 40
0.7812499999999998
 40
0.7812499999999998
 40
0.7968749999999998
 40
0.7968749999999998
 40
0.8124999999999998
 40
0.8124999999999998
 40
0.8437499999999999
 40
0.8437499999999999
 40
0.8593749999999999
 40
0.8593749999999999
 40
0.8749999999999999
 40
0.8749999999999999
 40
0.8906249999999999
 40
0.8906249999999999
 40
0.9062499999999999
 40
0.9062499999999999
 40
0.9374999999999999
 40
0.9374999999999999
 40
0.96875
 40
0.96875
 40
0.984375
 40
0.984375
 40
1.0
 40
1.0
 40
1.0
 40
1.0
 10
596.2314749553632
 20
513.1467367362088
 30
0.0
 10
596.1323900115767
 20
512.7239834752523
 30
0.0
 10
596.0105591890575
 20
512.3088593282928
 30
0.0
 10
595.7219792018691
 20
511.4936769329726
 30
0.0
 10
595.554237299179
 20
511.091712869683
 30
0.0
 10
594.9903174665271
 20
509.9252226056059
 30
0.0
 10
594.5359046029178
 20
509.2005053593282
 30
0.0
 10
593.73920959699
 20
508.1910736104469
 30
0.0
 10
593.4535543424145
 20
507.8669046123331
 30
0.0
 10
592.8450013088183
 20
507.2489713342055
 30
0.0
 10
592.5266808396012
 20
506.9594588396562
 30
0.0
 10
591.5311249927
 20
506.1471540904831
 30
0.0
 10
590.8137661117554
 20
505.6799422129216
 30
0.0
 10
589.6546208328888
 20
505.094246811184
 30
0.0
 10
589.2572846305878
 20
504.9201698952478
 30
0.0
 10
588.4533176560635
 20
504.6185854140351
 30
0.0
 10
588.0448752000585
 20
504.4901431550977
 30
0.0
 10
587.2151705441871
 20
504.2776188292323
 30
0.0
 10
586.793909105275
 20
504.1935341291411
 30
0.0
 10
585.9382080744093
 20
504.0709651417852
 30
0.0
 10
585.5048061822827
 20
504.0329768800202
 30
0.0
 10
584.2161899342913
 20
503.9901819890227
 30
0.0
 10
583.3622210128846
 20
504.0536682591867
 30
0.0
 10
582.0889978115543
 20
504.2880431492104
 30
0.0
 10
581.6653076968395
 20
504.39010714763
 30
0.0
 10
580.8408845117698
 20
504.6364942320824
 30
0.0
 10
580.0341998089252
 20
504.9258650081093
 30
0.0
 10
579.2624538283395
 20
505.2998989082652
 30
0.0
 10
578.5085207896142
 20
505.717096927156
 30
0.0
 10
578.1389168298431
 20
505.9486213381956
 30
0.0
 10
577.08233985194
 20
506.6930879953091
 30
0.0
 10
576.4397081546475
 20
507.2586543549223
 30
0.0
 10
575.5672864569424
 20
508.2096358208056
 30
0.0
 10
575.290647493727
 20
508.5456302013673
 30
0.0
 10
574.7775724845017
 20
509.242466933286
 30
0.0
 10
574.5406322509813
 20
509.603458900619
 30
0.0
 10
574.105814481776
 20
510.3505054509358
 30
0.0
 10
573.90726471101
 20
510.7383847792905
 30
0.0
 10
573.5561509271396
 20
511.5259788932773
 30
0.0
 10
573.4028164420384
 20
511.9265939076753
 30
0.0
 10
573.1396280798128
 20
512.7411640266879
 30
0.0
 10
573.029775399789
 20
513.1551194985815
 30
0.0
 10
572.8540929385935
 20
513.996536907212
 30
0.0
 10
572.788069453771
 20
514.4265999133603
 30
0.0
 10
572.660908086285
 20
515.7165952878217
 30
0.0
 10
572.6689326290121
 20
516.5729556969787
 30
0.0
 10
572.8160751458367
 20
517.8521904478422
 30
0.0
 10
572.888263457928
 20
518.2793570971251
 30
0.0
 10
573.0783442785759
 20
519.1244040534846
 30
0.0
 10
573.1951543178295
 20
519.5383549809042
 30
0.0
 10
573.608818814055
 20
520.7553070241268
 30
0.0
 10
573.9681923060774
 20
521.5336890934169
 30
0.0
 10
574.8605422438039
 20
523.02209101425
 30
0.0
 10
575.3785771227799
 20
523.7068012651328
 30
0.0
 10
576.2568149173239
 20
524.6446846200232
 30
0.0
 10
576.5666689144844
 20
524.942549099295
 30
0.0
 10
577.2213715041618
 20
525.508075950174
 30
0.0
 10
577.5646066456977
 20
525.7739310813417
 30
0.0
 10
578.6232745498063
 20
526.5081631136893
 30
0.0
 10
579.373947986954
 20
526.9197577916771
 30
0.0
 10
580.5682389244505
 20
527.418681447783
 30
0.0
 10
580.9786249859586
 20
527.5649993894418
 30
0.0
 10
581.8031821297891
 20
527.810661390473
 30
0.0
 10
582.6361808218958
 20
528.0115442910094
 30
0.0
 10
583.4857944081465
 20
528.1242916649799
 30
0.0
 10
584.3438603874341
 20
528.192202367104
 30
0.0
 10
584.7795539771058
 20
528.2034815203416
 30
0.0
 10
586.0727947509649
 20
528.1686123708378
 30
0.0
 10
586.9214436139016
 20
528.0559513663587
 30
0.0
 10
588.1743828582403
 20
527.754382075218
 30
0.0
 10
588.5908564649379
 20
527.6307616085145
 30
0.0
 10
589.405704149202
 20
527.3410746078163
 30
0.0
 10
589.8023905437605
 20
527.1759115025066
 30
0.0
 10
590.9611611008778
 20
526.6212114183664
 30
0.0
 10
591.6926001083241
 20
526.1728939242608
 30
0.0
 10
593.0680720917604
 20
525.1140155157763
 30
0.0
 10
593.6881162777594
 20
524.5217882000177
 30
0.0
 10
594.5214987337239
 20
523.5437819374873
 30
0.0
 10
594.7830263363251
 20
523.2026938498916
 30
0.0
 10
595.2725725689318
 20
522.4894406192648
 30
0.0
 10
595.4990305904662
 20
522.1190896068813
 30
0.0
 10
596.1131246656374
 20
520.9865538084538
 30
0.0
 10
596.4411974935182
 20
520.1960072233619
 30
0.0
 10
596.8098726933877
 20
518.9562702411097
 30
0.0
 10
596.9120242340979
 20
518.532590271531
 30
0.0
 10
597.0697806795497
 20
517.686304486962
 30
0.0
 10
597.1261994886218
 20
517.2614737312541
 30
0.0
 10
597.1949157718535
 20
516.408496430406
 30
0.0
 10
597.2071638082233
 20
515.9803457656642
 30
0.0
 10
597.1871695486876
 20
515.1207032084
 30
0.0
 10
597.1546576156779
 20
514.6874458705346
 30
0.0
 10
596.9895777940902
 20
513.3981467794971
 30
0.0
 10
596.78854297568
 20
512.5489928666201
 30
0.0
 10
596.2245403080019
 20
510.9304889571912
 30
0.0
 10
595.8615655220353
 20
510.1546349278537
 30
0.0
 10
595.1920053183466
 20
509.0424512280837
 30
0.0
 10
594.948875429676
 20
508.6825240689437
 30
0.0
 10
594.4286316813018
 20
507.9926242958662
 30
0.0
 10
594.1507402770358
 20
507.6613251898186
 30
0.0
 10
593.8548380097287
 20
507.3438622625983
 30
0.0
  0
ARC
  5
BE
330
1F
100
AcDbEntity
  8
0
  6
Continuous
 62
     7
370
    25
100
AcDbCircle
 10
584.7796392334
 20
515.9398361556
 30
0.0
 40
12.50000000000005
100
AcDbArc
 50
223.4465753578
 51
316.5534246422
  0
SPLINE
  5
BF
330
1F
100
AcDbEntity
  8
0
  6
Continuous
 62
     7
370
    25
100
AcDbSpline
210
0.0
220
0.0
230
1.0
 70
     8
 71
     3
 72
    34
 73
    30
 74
     0
 42
0.00000001
 43
0.00000001
 40
0.0
 40
0.0
 40
0.0
 40
0.0
 40
0.0625
 40
0.0625
 40
0.125
 40
0.125
 40
0.1875
 40
0.1875
 40
0.2500000000000001
 40
0.2500000000000001
 40
0.3750000000000001
 40
0.3750000000000001
 40
0.4375000000000001
 40
0.4375000000000001
 40
0.5000000000000001
 40
0.5000000000000001
 40
0.5625000000000001
 40
0.5625000000000001
 40
0.625
 40
0.625
 40
0.6875
 40
0.6875
 40
0.75
 40
0.75
 40
0.875
 40
0.875
 40
0.9375
 40
0.9375
 40
1.0
 40
1.0
 40
1.0
 40
1.0
 10
575.704440456978
 20
507.3438622625992
 30
0.0
 10
576.0908228896948
 20
506.9561897891606
 30
0.0
 10
576.5002449835165
 20
506.5959487210658
 30
0.0
 10
577.3656695515426
 20
505.9309854658268
 30
0.0
 10
577.8220099646621
 20
505.6264305492058
 30
0.0
 10
578.7601311035555
 20
505.0857071350932
 30
0.0
 10
579.2443516973905
 20
504.8474994436467
 30
0.0
 10
580.2429144565832
 20
504.4349714427879
 30
0.0
 10
580.7591354820104
 20
504.2601534198699
 30
0.0
 10
582.342882750042
 20
503.8391358084577
 30
0.0
 10
583.4135758524567
 20
503.70184943326
 30
0.0
 10
585.0414665179603
 20
503.7067355316667
 30
0.0
 10
585.5906067193167
 20
503.7451024565825
 30
0.0
 10
586.6645458167595
 20
503.8937959873388
 30
0.0
 10
587.1928950650935
 20
504.0035701402308
 30
0.0
 10
588.2325867671179
 20
504.2930111232642
 30
0.0
 10
588.7439313125095
 20
504.472669358218
 30
0.0
 10
589.7489124973879
 20
504.9047592615521
 30
0.0
 10
590.2323612365705
 20
505.1529314218894
 30
0.0
 10
591.1583212016516
 20
505.7089204263391
 30
0.0
 10
591.6015779961617
 20
506.0170668493967
 30
0.0
 10
592.4481925059903
 20
506.6943559869259
 30
0.0
 10
592.8538623500234
 20
507.0664162245708
 30
0.0
 10
593.9765907456845
 20
508.2453558258047
 30
0.0
 10
594.6079404295981
 20
509.1205788396621
 30
0.0
 10
595.3750384352657
 20
510.5705164450921
 30
0.0
 10
595.5958914535132
 20
511.0689598029354
 30
0.0
 10
595.9665829473977
 20
512.0888492003696
 30
0.0
 10
596.1169813338767
 20
512.6113453124531
 30
0.0
 10
596.2314749553631
 20
513.1467367362086
 30
0.0
  0
LINE
  5
C0
330
1F
100
AcDbEntity
  8
0
  6
Continuous
 62
     7
370
    25
100
AcDbLine
 10
575.7070674982
 20
507.3943174342
 30
0.0
 11
576.0660182123
 21
507.0402539149
 31
0.0
  0
ARC
  5
C1
330
1F
100
AcDbEntity
  8
0
  6
Continuous
 62
     7
370
    25
100
AcDbCircle
 10
584.7630296881
 20
515.9482874267
 30
0.0
 40
12.49376529568045
100
AcDbArc
 50
327.7025317447
 51
223.527094456
  0
CIRCLE
  5
C2
330
1F
100
AcDbEntity
  8
0
  6
Continuous
 62
     7
370
    25
100
AcDbCircle
 10
584.7796392334
 20
515.9398361556
 30
0.0
 40
11.04999999999995
  0
CIRCLE
  5
C3
330
1F
100
AcDbEntity
  8
0
  6
Continuous
 62
     7
370
    25
100
AcDbCircle
 10
584.7796392334
 20
515.9398361556
 30
0.0
 40
10.30000000000001
  0
CIRCLE
  5
C4
330
1F
100
AcDbEntity
  8
0
  6
Continuous
 62
     7
370
    25
100
AcDbCircle
 10
635.5796392334
 20
515.9398361556
 30
0.0
 40
13.0
  0
SPLINE
  5
C5
330
1F
100
AcDbEntity
  8
0
  6
Continuous
 62
     7
370
    25
100
AcDbSpline
210
0.0
220
0.0
230
1.0
 70
     8
 71
     3
 72
   104
 73
   100
 74
     0
 42
0.00000001
 43
0.00000001
 40
0.0
 40
0.0
 40
0.0
 40
0.0
 40
0.0312500000000001
 40
0.0312500000000001
 40
0.0625000000000002
 40
0.0625000000000002
 40
0.0937500000000004
 40
0.0937500000000004
 40
0.1093750000000004
 40
0.1093750000000004
 40
0.1250000000000004
 40
0.1250000000000004
 40
0.1406250000000004
 40
0.1406250000000004
 40
0.1562500000000005
 40
0.1562500000000005
 40
0.1875000000000005
 40
0.1875000000000005
 40
0.2031250000000005
 40
0.2031250000000005
 40
0.2187500000000005
 40
0.2187500000000005
 40
0.2343750000000006
 40
0.2343750000000006
 40
0.2500000000000006
 40
0.2500000000000006
 40
0.2812500000000007
 40
0.2812500000000007
 40
0.2968750000000007
 40
0.2968750000000007
 40
0.3125000000000007
 40
0.3125000000000007
 40
0.3281250000000008
 40
0.3281250000000008
 40
0.3437500000000008
 40
0.3437500000000008
 40
0.3750000000000009
 40
0.3750000000000009
 40
0.4062500000000011
 40
0.4062500000000011
 40
0.4218750000000013
 40
0.4218750000000013
 40
0.4375000000000014
 40
0.4375000000000014
 40
0.4687500000000017
 40
0.4687500000000017
 40
0.4843750000000017
 40
0.4843750000000017
 40
0.5000000000000017
 40
0.5000000000000017
 40
0.5156250000000017
 40
0.5156250000000017
 40
0.5312500000000016
 40
0.5312500000000016
 40
0.5625000000000014
 40
0.5625000000000014
 40
0.5781250000000014
 40
0.5781250000000014
 40
0.5937500000000013
 40
0.5937500000000013
 40
0.6093750000000013
 40
0.6093750000000013
 40
0.6250000000000012
 40
0.6250000000000012
 40
0.6562500000000013
 40
0.6562500000000013
 40
0.6718750000000012
 40
0.6718750000000012
 40
0.6875000000000012
 40
0.6875000000000012
 40
0.7031250000000011
 40
0.7031250000000011
 40
0.7187500000000011
 40
0.7187500000000011
 40
0.7500000000000011
 40
0.7500000000000011
 40
0.7656250000000011
 40
0.7656250000000011
 40
0.781250000000001
 40
0.781250000000001
 40
0.8125000000000009
 40
0.8125000000000009
 40
0.8437500000000008
 40
0.8437500000000008
 40
0.8593750000000007
 40
0.8593750000000007
 40
0.8750000000000004
 40
0.8750000000000004
 40
0.8906250000000003
 40
0.8906250000000003
 40
0.9062500000000002
 40
0.9062500000000002
 40
0.9375000000000001
 40
0.9375000000000001
 40
0.9531250000000001
 40
0.9531250000000001
 40
0.9687500000000002
 40
0.9687500000000002
 40
1.0
 40
1.0
 40
1.0
 40
1.0
 10
631.7020269824716
 20
503.0669058260943
 30
0.0
 10
630.7171421338809
 20
503.3512697694682
 30
0.0
 10
629.7772102407149
 20
503.7429874639193
 30
0.0
 10
627.9871452692418
 20
504.740874563758
 30
0.0
 10
627.1642709837654
 20
505.3320986666917
 30
0.0
 10
625.6622792135327
 20
506.6889726475354
 30
0.0
 10
624.9788479834899
 20
507.4618471534968
 30
0.0
 10
624.0988465670653
 20
508.7200417830456
 30
0.0
 10
623.82970780564
 20
509.1556326559285
 30
0.0
 10
623.3457535718405
 20
510.0464619981697
 30
0.0
 10
623.1297375498667
 20
510.5033672973854
 30
0.0
 10
622.7491921895529
 20
511.4399663944254
 30
0.0
 10
622.5846594531861
 20
511.9196586882594
 30
0.0
 10
622.3086046825806
 20
512.9025063143254
 30
0.0
 10
622.1980996100026
 20
513.4034725265485
 30
0.0
 10
621.9540549403043
 20
514.9045981188951
 30
0.0
 10
621.9038569994245
 20
515.9143120914375
 30
0.0
 10
621.998771915722
 20
517.4424234906178
 30
0.0
 10
622.0592926439741
 20
517.951901315403
 30
0.0
 10
622.2345507691721
 20
518.9506442133088
 30
0.0
 10
622.3494210974238
 20
519.4428814671643
 30
0.0
 10
622.6331565879944
 20
520.4132153151327
 30
0.0
 10
622.8020185525024
 20
520.8913127467113
 30
0.0
 10
623.1952677151122
 20
521.8329661568388
 30
0.0
 10
623.4193491652318
 20
522.294767375288
 30
0.0
 10
624.1589056465504
 20
523.6252854797514
 30
0.0
 10
624.7451850173535
 20
524.4507659590104
 30
0.0
 10
625.7677922679802
 20
525.5944945751837
 30
0.0
 10
626.1294694190311
 20
525.9558111665115
 30
0.0
 10
626.884913160731
 20
526.6321453350074
 30
0.0
 10
627.2799303153396
 20
526.9484536238616
 30
0.0
 10
628.104488687065
 20
527.5374366842277
 30
0.0
 10
628.5342401425613
 20
527.8102351281494
 30
0.0
 10
629.4286184206419
 20
528.3101811392156
 30
0.0
 10
629.885486103811
 20
528.5330233694848
 30
0.0
 10
631.2840631336001
 20
529.1231337536622
 30
0.0
 10
632.2534096437726
 20
529.4129297698744
 30
0.0
 10
634.2686964971242
 20
529.7778148025484
 30
0.0
 10
635.2803904006448
 20
529.846042317128
 30
0.0
 10
636.7963931077187
 20
529.78426953594
 30
0.0
 10
637.3018860546083
 20
529.7362017259004
 30
0.0
 10
638.3132001536386
 20
529.5832478217849
 30
0.0
 10
638.8132378350689
 20
529.4790379039309
 30
0.0
 10
640.2815013114587
 20
529.0888423764371
 30
0.0
 10
641.2249313429974
 20
528.7252296790823
 30
0.0
 10
642.585575232597
 20
528.0205464812934
 30
0.0
 10
643.0266116796402
 20
527.7602587603226
 30
0.0
 10
643.8700170982316
 20
527.1985012255966
 30
0.0
 10
644.2746370216217
 20
526.8958945433769
 30
0.0
 10
645.049981731298
 20
526.2475693397989
 30
0.0
 10
645.4206610844184
 20
525.9017917097276
 30
0.0
 10
646.1274291728981
 20
525.1662472127324
 30
0.0
 10
646.4623027514378
 20
524.7772100883517
 30
0.0
 10
647.3910026094808
 20
523.5721540017616
 30
0.0
 10
647.9183453067477
 20
522.7101074204579
 30
0.0
 10
648.56984511847
 20
521.3278549240017
 30
0.0
 10
648.7633288786682
 20
520.8514909896676
 30
0.0
 10
649.0937613905651
 20
519.8916716299206
 30
0.0
 10
649.2321697455351
 20
519.4054100605977
 30
0.0
 10
649.4561466847837
 20
518.4203670230806
 30
0.0
 10
649.5417161888506
 20
517.9215857728046
 30
0.0
 10
649.658922646806
 20
516.9112444606428
 30
0.0
 10
649.6902813598779
 20
516.397551629473
 30
0.0
 10
649.7003463420135
 20
514.8728214914396
 30
0.0
 10
649.5988679651027
 20
513.867599321604
 30
0.0
 10
649.2847003017463
 20
512.3766282656029
 30
0.0
 10
649.1516743500104
 20
511.8796995617798
 30
0.0
 10
648.8356602859516
 20
510.9120903343379
 30
0.0
 10
648.6527239334326
 20
510.4400047360369
 30
0.0
 10
648.2381079894831
 20
509.5187472312361
 30
0.0
 10
648.0064268854845
 20
509.0695760357792
 30
0.0
 10
647.4937354375248
 20
508.1944228149783
 30
0.0
 10
647.2108456552123
 20
507.7660221010814
 30
0.0
 10
646.2998470135149
 20
506.537006972174
 30
0.0
 10
645.6138897579785
 20
505.7948464543775
 30
0.0
 10
644.4707161812516
 20
504.7937753503015
 30
0.0
 10
644.0687802853602
 20
504.4777965514073
 30
0.0
 10
643.2323888764245
 20
503.890361194553
 30
0.0
 10
642.8019411318602
 20
503.6214350429786
 30
0.0
 10
641.4750034294605
 20
502.8866805907406
 30
0.0
 10
640.5433236398935
 20
502.4920575205012
 30
0.0
 10
638.5821787528162
 20
501.900676092552
 30
0.0
 10
637.5868907708694
 20
501.7143603320896
 30
0.0
 10
636.0754243357881
 20
501.5931416893382
 30
0.0
 10
635.5683243487047
 20
501.5793693572033
 30
0.0
 10
634.5474467862465
 20
501.6061350797191
 30
0.0
 10
634.0364210603907
 20
501.6468476747237
 30
0.0
 10
633.0267713286954
 20
501.7814297695288
 30
0.0
 10
632.5261110071987
 20
501.8753270832196
 30
0.0
 10
631.5332003200399
 20
502.1168509338169
 30
0.0
 10
631.0425349388062
 20
502.2643944787705
 30
0.0
 10
629.6112246793366
 20
502.7783760851766
 30
0.0
 10
628.7016216783317
 20
503.217446409871
 30
0.0
 10
627.404839194682
 20
504.0222240018977
 30
0.0
 10
626.9827479196418
 20
504.3163834518513
 30
0.0
 10
626.1820644630578
 20
504.9398464304558
 30
0.0
 10
625.800845541193
 20
505.270556376897
 30
0.0
 10
624.7132112758238
 20
506.3182858022738
 30
0.0
 10
624.061687219128
 20
507.0897718791609
 30
0.0
 10
623.4874815307327
 20
507.9379787402975
 30
0.0
  0
ARC
  5
C6
330
1F
100
AcDbEntity
  8
0
  6
Continuous
 62
     7
370
    25
100
AcDbCircle
 10
635.5796392334
 20
515.9398361556
 30
0.0
 40
14.49999999999996
100
AcDbArc
 50
146.5058229087
 51
213.4941770913
  0
SPLINE
  5
C7
330
1F
100
AcDbEntity
  8
0
  6
Continuous
 62
     7
370
    25
100
AcDbSpline
210
0.0
220
0.0
230
1.0
 70
     8
 71
     3
 72
    34
 73
    30
 74
     0
 42
0.00000001
 43
0.00000001
 40
0.0
 40
0.0
 40
0.0
 40
0.0
 40
0.0625
 40
0.0625
 40
0.1250000000000001
 40
0.1250000000000001
 40
0.2500000000000002
 40
0.2500000000000002
 40
0.3125000000000002
 40
0.3125000000000002
 40
0.3750000000000002
 40
0.3750000000000002
 40
0.4375000000000003
 40
0.4375000000000003
 40
0.5000000000000004
 40
0.5000000000000004
 40
0.6250000000000007
 40
0.6250000000000007
 40
0.6562500000000008
 40
0.6562500000000008
 40
0.6875000000000009
 40
0.6875000000000009
 40
0.7500000000000008
 40
0.7500000000000008
 40
0.8125000000000006
 40
0.8125000000000006
 40
0.8750000000000003
 40
0.8750000000000003
 40
1.0
 40
1.0
 40
1.0
 40
1.0
 10
623.4874815307347
 20
523.9416935709194
 30
0.0
 10
623.2035826538184
 20
523.473787392219
 30
0.0
 10
622.9480625627783
 20
522.9926149461717
 30
0.0
 10
622.4928002343478
 20
522.0041960098239
 30
0.0
 10
622.2925942924394
 20
521.4955088693355
 30
0.0
 10
621.7804919274913
 20
519.9389244548979
 30
0.0
 10
621.5619215135727
 20
518.8812516645828
 30
0.0
 10
621.4128645750473
 20
517.2657008170148
 30
0.0
 10
621.3933223739048
 20
516.7202060341565
 30
0.0
 10
621.4167739090617
 20
515.6282801921384
 30
0.0
 10
621.4598614777656
 20
515.0880664253154
 30
0.0
 10
621.6079597872967
 20
514.0190485960637
 30
0.0
 10
621.7127559982774
 20
513.4901962651835
 30
0.0
 10
621.9841479427758
 20
512.4438617273671
 30
0.0
 10
622.1515904251489
 20
511.9242313579791
 30
0.0
 10
622.7452259645333
 20
510.3976071601281
 30
0.0
 10
623.2518635608677
 20
509.4440888484014
 30
0.0
 10
624.020138380839
 20
508.3303810075639
 30
0.0
 10
624.1806290236209
 20
508.1115991996725
 30
0.0
 10
624.5155435086455
 20
507.6821067094936
 30
0.0
 10
624.6905234548307
 20
507.4708130410799
 30
0.0
 10
625.2302781691294
 20
506.8567342609784
 30
0.0
 10
625.6108827654793
 20
506.4716946816955
 30
0.0
 10
626.4131588304255
 20
505.7498350352969
 30
0.0
 10
626.8351949739814
 20
505.4134803090904
 30
0.0
 10
627.7215572799104
 20
504.7905034103124
 30
0.0
 10
628.1890635267016
 20
504.5023219806513
 30
0.0
 10
629.6302822006476
 20
503.7308774941816
 30
0.0
 10
630.6408900358912
 20
503.3375266376531
 30
0.0
 10
631.7020269824783
 20
503.0669058260925
 30
0.0
  0
CIRCLE
  5
C8
330
1F
100
AcDbEntity
  8
0
  6
Continuous
 62
     7
370
    25
100
AcDbCircle
 10
533.9796392334
 20
515.9398361556
 30
0.0
 40
13.0
  0
SPLINE
  5
C9
330
1F
100
AcDbEntity
  8
0
  6
Continuous
 62
     7
370
    25
100
AcDbSpline
210
0.0
220
0.0
230
1.0
 70
     8
 71
     3
 72
    32
 73
    28
 74
     0
 42
0.00000001
 43
0.00000001
 40
0.0
 40
0.0
 40
0.0
 40
0.0
 40
0.0624999999999998
 40
0.0624999999999998
 40
0.1249999999999996
 40
0.1249999999999996
 40
0.2499999999999993
 40
0.2499999999999993
 40
0.3124999999999993
 40
0.3124999999999993
 40
0.3749999999999993
 40
0.3749999999999993
 40
0.4374999999999993
 40
0.4374999999999993
 40
0.4999999999999993
 40
0.4999999999999993
 40
0.6249999999999994
 40
0.6249999999999994
 40
0.6874999999999994
 40
0.6874999999999994
 40
0.7499999999999994
 40
0.7499999999999994
 40
0.8124999999999996
 40
0.8124999999999996
 40
0.8749999999999996
 40
0.8749999999999996
 40
1.0
 40
1.0
 40
1.0
 40
1.0
 10
537.8572514842292
 20
503.0669058260925
 30
0.0
 10
538.3876582823762
 20
503.202175000004
 30
0.0
 10
538.9061472434988
 20
503.3686605894706
 30
0.0
 10
539.9197573797964
 20
503.7628390242916
 30
0.0
 10
540.4163028430752
 20
503.9913075432585
 30
0.0
 10
541.860720822381
 20
504.7657098731373
 30
0.0
 10
542.7437534059148
 20
505.3875579401125
 30
0.0
 10
543.9515132043091
 20
506.4746211690977
 30
0.0
 10
544.3370320451617
 20
506.8652239878027
 30
0.0
 10
545.0552420133143
 20
507.6836405401499
 30
0.0
 10
545.3877236859654
 20
508.1107119425705
 30
0.0
 10
546.0007447641157
 20
508.9997065400578
 30
0.0
 10
546.2812826017065
 20
509.4616307851051
 30
0.0
 10
546.7895770573847
 20
510.4208942454075
 30
0.0
 10
547.018114568526
 20
510.9210355056899
 30
0.0
 10
547.6069815578135
 20
512.439489497696
 30
0.0
 10
547.8777605222713
 20
513.4839754717487
 30
0.0
 10
548.1006616740866
 20
515.09912575271
 30
0.0
 10
548.1434764419824
 20
515.6471650664494
 30
0.0
 10
548.1656219246885
 20
516.7317644653554
 30
0.0
 10
548.1460525936972
 20
517.2717266165928
 30
0.0
 10
548.046448921551
 20
518.3470390360749
 30
0.0
 10
547.9664167839072
 20
518.8823894709267
 30
0.0
 10
547.7443722921008
 20
519.9483633292606
 30
0.0
 10
547.6020501085949
 20
520.4781824651121
 30
0.0
 10
547.0918359233808
 20
522.0227761647475
 30
0.0
 10
546.6394713007898
 20
523.006084576362
 30
0.0
 10
546.0717969359729
 20
523.9416935709191
 30
0.0
  0
ARC
  5
CA
330
1F
100
AcDbEntity
  8
0
  6
Continuous
 62
     7
370
    25
100
AcDbCircle
 10
533.9796392334
 20
515.9398361556
 30
0.0
 40
14.50000000000002
100
AcDbArc
 50
326.5058229087
 51
33.4941770913
  0
SPLINE
  5
CB
330
1F
100
AcDbEntity
  8
0
  6
Continuous
 62
     7
370
    25
100
AcDbSpline
210
0.0
220
0.0
230
1.0
 70
     8
 71
     3
 72
   103
 73
    99
 74
     0
 42
0.00000001
 43
0.00000001
 40
0.0
 40
0.0
 40
0.0
 40
0.0
 40
0.0312499999999993
 40
0.0312499999999993
 40
0.0624999999999985
 40
0.0624999999999985
 40
0.0781249999999982
 40
0.0781249999999982
 40
0.093749999999998
 40
0.093749999999998
 40
0.1093749999999977
 40
0.1093749999999977
 40
0.1249999999999974
 40
0.1406249999999971
 40
0.1406249999999971
 40
0.1562499999999968
 40
0.1562499999999968
 40
0.1874999999999965
 40
0.1874999999999965
 40
0.2031249999999964
 40
0.2031249999999964
 40
0.2187499999999963
 40
0.2187499999999963
 40
0.2499999999999962
 40
0.2499999999999962
 40
0.2812499999999961
 40
0.2812499999999961
 40
0.2968749999999959
 40
0.2968749999999959
 40
0.3124999999999957
 40
0.3124999999999957
 40
0.3437499999999957
 40
0.3437499999999957
 40
0.3593749999999956
 40
0.3593749999999956
 40
0.3749999999999955
 40
0.3749999999999955
 40
0.3906249999999954
 40
0.3906249999999954
 40
0.4062499999999953
 40
0.4062499999999953
 40
0.4374999999999951
 40
0.4374999999999951
 40
0.4531249999999951
 40
0.4531249999999951
 40
0.4687499999999949
 40
0.4687499999999949
 40
0.4843749999999951
 40
0.4843749999999951
 40
0.4999999999999951
 40
0.4999999999999951
 40
0.531249999999995
 40
0.531249999999995
 40
0.5468749999999951
 40
0.5468749999999951
 40
0.5624999999999952
 40
0.5624999999999952
 40
0.5937499999999953
 40
0.5937499999999953
 40
0.6249999999999954
 40
0.6249999999999954
 40
0.6406249999999957
 40
0.6406249999999957
 40
0.6562499999999959
 40
0.6562499999999959
 40
0.6874999999999962
 40
0.6874999999999962
 40
0.7031249999999964
 40
0.7031249999999964
 40
0.7187499999999967
 40
0.7187499999999967
 40
0.7343749999999968
 40
0.7343749999999968
 40
0.749999999999997
 40
0.749999999999997
 40
0.7656249999999972
 40
0.7656249999999972
 40
0.7812499999999973
 40
0.7812499999999973
 40
0.8124999999999979
 40
0.8124999999999979
 40
0.828124999999998
 40
0.828124999999998
 40
0.8437499999999982
 40
0.8437499999999982
 40
0.8593749999999984
 40
0.8593749999999984
 40
0.8749999999999986
 40
0.8749999999999986
 40
0.9062499999999991
 40
0.9062499999999991
 40
0.9374999999999996
 40
0.9374999999999996
 40
0.9531249999999998
 40
0.9531249999999998
 40
0.96875
 40
0.96875
 40
1.0
 40
1.0
 40
1.0
 40
1.0
 10
546.0717969359747
 20
507.9379787402972
 30
0.0
 10
545.4974932112774
 20
507.0896270616057
 30
0.0
 10
544.8409559130665
 20
506.3108066343861
 30
0.0
 10
543.3631834022203
 20
504.8924301109118
 30
0.0
 10
542.5617471796521
 20
504.2730697196777
 30
0.0
 10
541.2722624905622
 20
503.4757470178141
 30
0.0
 10
540.827604644665
 20
503.2319684259354
 30
0.0
 10
539.9077465204684
 20
502.7897125193325
 30
0.0
 10
539.4339308545443
 20
502.5921657562431
 30
0.0
 10
538.4707572558345
 20
502.2496135683354
 30
0.0
 10
537.9781639737017
 20
502.1035674863874
 30
0.0
 10
536.9896410074992
 20
501.8665257540173
 30
0.0
 10
535.9945908273471
 20
501.6830712470368
 30
0.0
 10
534.9867379072195
 20
501.6047247546846
 30
0.0
 10
533.9723939599472
 20
501.5796682421521
 30
0.0
 10
533.4588521902654
 20
501.594134742979
 30
0.0
 10
531.935298645119
 20
501.7194483509855
 30
0.0
 10
530.9431050964919
 20
501.9092039350351
 30
0.0
 10
529.4894184567154
 20
502.3501770158643
 30
0.0
 10
529.0088951757845
 20
502.5242121142236
 30
0.0
 10
528.0679208842307
 20
502.9236408905373
 30
0.0
 10
527.6120491955088
 20
503.1468508704352
 30
0.0
 10
526.2868704760195
 20
503.8847008558857
 30
0.0
 10
525.4595186507433
 20
504.4667874270708
 30
0.0
 10
523.9212646113074
 20
505.8181633719804
 30
0.0
 10
523.236227336321
 20
506.5651060209782
 30
0.0
 10
522.3358323293076
 20
507.7846892880309
 30
0.0
 10
522.0567369263375
 20
508.2080880966901
 30
0.0
 10
521.5419137965528
 20
509.0896665118105
 30
0.0
 10
521.3078796484593
 20
509.5456113047481
 30
0.0
 10
520.6870172119162
 20
510.9333991439265
 30
0.0
 10
520.3749076246473
 20
511.8942468535552
 30
0.0
 10
520.0617611818665
 20
513.3898147176694
 30
0.0
 10
519.9838051578713
 20
513.8979661295925
 30
0.0
 10
519.8840575764564
 20
514.9080840836615
 30
0.0
 10
519.8615014700422
 20
515.4131133212674
 30
0.0
 10
519.8702215979364
 20
516.4231132053025
 30
0.0
 10
519.9017103205327
 20
516.9280813531144
 30
0.0
 10
520.0200796120613
 20
517.9379523048241
 30
0.0
 10
520.1077384034755
 20
518.4451383111302
 30
0.0
 10
520.4488906210613
 20
519.9315901145632
 30
0.0
 10
520.779805001934
 20
520.8859109461503
 30
0.0
 10
521.4307173343636
 20
522.2626619350685
 30
0.0
 10
521.6754370023218
 20
522.7149945731521
 30
0.0
 10
522.2082709476222
 20
523.5830099892586
 30
0.0
 10
522.4963498493024
 20
523.9995527336724
 30
0.0
 10
523.1148015303157
 20
524.7985387295581
 30
0.0
 10
523.4451759271136
 20
525.1809806769219
 30
0.0
 10
524.1486922042233
 20
525.9113832503317
 30
0.0
 10
524.5242539545575
 20
526.2612404147778
 30
0.0
 10
525.7000020888494
 20
527.2407932843528
 30
0.0
 10
526.5425832362804
 20
527.7986768981323
 30
0.0
 10
527.8927193851902
 20
528.4957859020086
 30
0.0
 10
528.3593488005686
 20
528.705441280338
 30
0.0
 10
529.3134026456605
 20
529.0721300214676
 30
0.0
 10
529.7964655162941
 20
529.2277692045419
 30
0.0
 10
531.2631881030745
 20
529.6142052895301
 30
0.0
 10
532.2663726158387
 20
529.7655694407774
 30
0.0
 10
534.3121231447931
 20
529.8458333603119
 30
0.0
 10
535.3210105227291
 20
529.7736573858208
 30
0.0
 10
536.8138891381773
 20
529.5013124172416
 30
0.0
 10
537.3080855382024
 20
529.3830086245929
 30
0.0
 10
538.2893587955501
 20
529.0892710365902
 30
0.0
 10
538.7681640797203
 20
528.9162500505829
 30
0.0
 10
540.165801959814
 20
528.3231110044504
 30
0.0
 10
541.0483868503587
 20
527.8291878261579
 30
0.0
 10
542.2960997070428
 20
526.9357420780372
 30
0.0
 10
542.6948241606857
 20
526.6152038678865
 30
0.0
 10
543.451936376389
 20
525.9345465470199
 30
0.0
 10
543.811464647546
 20
525.5737120806297
 30
0.0
 10
544.4914606474548
 20
524.8099600751783
 30
0.0
 10
544.8098283544296
 20
524.4090414621908
 30
0.0
 10
545.3952248456028
 20
523.5817363532431
 30
0.0
 10
545.6637666775317
 20
523.1536870144764
 30
0.0
 10
546.152904951466
 20
522.2690137657775
 30
0.0
 10
546.37350464046
 20
521.8123917909845
 30
0.0
 10
546.7653329088561
 20
520.869723572531
 30
0.0
 10
546.9352679953558
 20
520.3858100930383
 30
0.0
 10
547.3588288016566
 20
518.9253169549985
 30
0.0
 10
547.5318821045048
 20
517.9294817697069
 30
0.0
 10
547.6243001746834
 20
516.401824089712
 30
0.0
 10
547.6265571610882
 20
515.8884715323464
 30
0.0
 10
547.574242881547
 20
514.8758358473447
 30
0.0
 10
547.5199436378921
 20
514.3734411245578
 30
0.0
 10
547.3556435322757
 20
513.3764167187405
 30
0.0
 10
547.2456456325316
 20
512.8817866227439
 30
0.0
 10
546.9684150727279
 20
511.9005052075666
 30
0.0
 10
546.8009648156786
 20
511.4146956490858
 30
0.0
 10
546.2244147221955
 20
510.0044029760007
 30
0.0
 10
545.7390247341896
 20
509.1144873261725
 30
0.0
 10
544.5608675314187
 20
507.4378680172861
 30
0.0
 10
543.8876333878195
 20
506.6787907048157
 30
0.0
 10
542.7561757423172
 20
505.659254342843
 30
0.0
 10
542.3558012308624
 20
505.3375897973007
 30
0.0
 10
541.5254308101445
 20
504.745156072265
 30
0.0
 10
541.0971383600701
 20
504.4750814458281
 30
0.0
 10
539.7742349004328
 20
503.7407002327678
 30
0.0
 10
538.8420892128906
 20
503.3512561646175
 30
0.0
 10
537.8572514842292
 20
503.0669058260925
 30
0.0
  0
SPLINE
  5
CC
330
1F
100
AcDbEntity
  8
0
  6
Continuous
 62
     7
370
    25
100
AcDbSpline
210
0.0
220
0.0
230
1.0
 70
    24
 71
     3
 72
     8
 73
     4
 74
     0
 42
0.00000001
 43
0.00000001
 40
0.0000002803714622
 40
0.0000002803714622
 40
0.0000002803714622
 40
0.0000002803714622
 40
0.0011889076718962
 40
0.0011889076718962
 40
0.0011889076718962
 40
0.0011889076718962
 10
536.4953706922486
 20
527.7754221244858
 30
0.0
 10
536.6112074344461
 20
527.4927985983469
 30
0.0
 10
536.7277279761779
 20
527.2085067083375
 30
0.0
 10
536.8450854700511
 20
526.9221727860602
 30
0.0
  0
ARC
  5
CD
330
1F
100
AcDbEntity
  8
0
  6
Continuous
 62
     7
370
    25
100
AcDbCircle
 10
533.9796392334
 20
515.9398361556
 30
0.0
 40
12.09999999999989
100
AcDbArc
 50
72.0
 51
78.0
  0
SPLINE
  5
CE
330
1F
100
AcDbEntity
  8
0
  6
Continuous
 62
     7
370
    25
100
AcDbSpline
210
0.0
220
0.0
230
1.0
 70
    24
 71
     3
 72
     8
 73
     4
 74
     0
 42
0.00000001
 43
0.00000001
 40
0.0
 40
0.0
 40
0.0
 40
0.0
 40
1.0
 40
1.0
 40
1.0
 40
1.0
 10
536.9892583144219
 20
526.8835417888405
 30
0.0
 10
537.2340683435395
 20
527.0728420628678
 30
0.0
 10
537.4771083507219
 20
527.260773660789
 30
0.0
 10
537.7187448652905
 20
527.4476200027781
 30
0.0
  0
ARC
  5
CF
330
1F
100
AcDbEntity
  8
0
  6
Continuous
 62
     7
370
    25
100
AcDbCircle
 10
533.9796392334
 20
515.9398361556
 30
0.0
 40
11.35000000000002
100
AcDbArc
 50
74.6232618566
 51
75.3767381434
  0
SPLINE
  5
D0
330
1F
100
AcDbEntity
  8
0
  6
Continuous
 62
     7
370
    25
100
AcDbSpline
210
0.0
220
0.0
230
1.0
 70
    24
 71
     3
 72
     8
 73
     4
 74
     0
 42
0.00000001
 43
0.00000001
 40
0.0000003139884087
 40
0.0000003139884087
 40
0.0000003139884087
 40
0.0000003139884087
 40
0.0011889412888428
 40
0.0011889412888428
 40
0.0011889412888428
 40
0.0011889412888428
 10
533.9796392333536
 20
528.0398361556067
 30
0.0
 10
534.1517053999954
 20
527.7874724445321
 30
0.0
 10
534.3247872958643
 20
527.5336189972578
 30
0.0
 10
534.4991124168437
 20
527.2779421531549
 30
0.0
  0
ARC
  5
D1
330
1F
100
AcDbEntity
  8
0
  6
Continuous
 62
     7
370
    25
100
AcDbCircle
 10
533.9796392334
 20
515.9398361556
 30
0.0
 40
12.09999999999993
100
AcDbArc
 50
84.0
 51
90.0
  0
SPLINE
  5
D2
330
1F
100
AcDbEntity
  8
0
  6
Continuous
 62
     7
370
    25
100
AcDbSpline
210
0.0
220
0.0
230
1.0
 70
    24
 71
     3
 72
     8
 73
     4
 74
     0
 42
0.00000001
 43
0.00000001
 40
0.0000003202490055
 40
0.0000003202490055
 40
0.0000003202490055
 40
0.0000003202490055
 40
0.0011889475494396
 40
0.0011889475494396
 40
0.0011889475494396
 40
0.0011889475494396
 10
534.6481665746057
 20
527.2701305557537
 30
0.0
 10
534.8482622319395
 20
527.5061848383477
 30
0.0
 10
535.0469308778119
 20
527.7405556652823
 30
0.0
 10
535.2444336388922
 20
527.9735510895629
 30
0.0
  0
ARC
  5
D3
330
1F
100
AcDbEntity
  8
0
  6
Continuous
 62
     7
370
    25
100
AcDbCircle
 10
533.9796392334
 20
515.9398361556
 30
0.0
 40
11.35000000000001
100
AcDbArc
 50
86.6232618566
 51
87.3767381434
  0
SPLINE
  5
D4
330
1F
100
AcDbEntity
  8
0
  6
Continuous
 62
     7
370
    25
100
AcDbSpline
210
0.0
220
0.0
230
1.0
 70
    24
 71
     3
 72
     8
 73
     4
 74
     0
 42
0.00000001
 43
0.00000001
 40
0.0000003049601736
 40
0.0000003049601736
 40
0.0000003049601736
 40
0.0000003049601736
 40
0.0011889322606077
 40
0.0011889322606077
 40
0.0011889322606077
 40
0.0011889322606077
 10
529.0581258521365
 20
526.9937361930822
 30
0.0
 10
529.3179616857627
 20
526.833176086163
 30
0.0
 10
529.5793313645115
 20
526.6716681718016
 30
0.0
 10
529.8425784282178
 20
526.5090001667577
 30
0.0
  0
ARC
  5
D5
330
1F
100
AcDbEntity
  8
0
  6
Continuous
 62
     7
370
    25
100
AcDbCircle
 10
533.9796392334
 20
515.9398361556
 30
0.0
 40
12.09999999999993
100
AcDbArc
 50
108.0
 51
114.0
  0
SPLINE
  5
D6
330
1F
100
AcDbEntity
  8
0
  6
Continuous
 62
     7
370
    25
100
AcDbSpline
210
0.0
220
0.0
230
1.0
 70
    24
 71
     3
 72
     8
 73
     4
 74
     0
 42
0.00000001
 43
0.00000001
 40
0.0000003202490063
 40
0.0000003202490063
 40
0.0000003202490063
 40
0.0000003202490063
 40
0.0011889475494403
 40
0.0011889475494403
 40
0.0011889475494403
 40
0.0011889475494403
 10
529.9819234398882
 20
526.5624897051996
 30
0.0
 10
530.0687079922535
 20
526.8595222587786
 30
0.0
 10
530.1548736278838
 20
527.1544364812349
 30
0.0
 10
530.2405336014169
 20
527.4476200027781
 30
0.0
  0
ARC
  5
D7
330
1F
100
AcDbEntity
  8
0
  6
Continuous
 62
     7
370
    25
100
AcDbCircle
 10
533.9796392334
 20
515.9398361556
 30
0.0
 40
11.34999999999999
100
AcDbArc
 50
110.6232618566
 51
111.3767381434
  0
SPLINE
  5
D8
330
1F
100
AcDbEntity
  8
0
  6
Continuous
 62
     7
370
    25
100
AcDbSpline
210
0.0
220
0.0
230
1.0
 70
    24
 71
     3
 72
     8
 73
     4
 74
     0
 42
0.00000001
 43
0.00000001
 40
0.0000002702729228
 40
0.0000002702729228
 40
0.0000002702729228
 40
0.0000002702729228
 40
0.0011888975733568
 40
0.0011888975733568
 40
0.0011888975733568
 40
0.0011888975733568
 10
537.7187448652905
 20
527.4476200027781
 30
0.0
 10
537.8044048388235
 20
527.1544364812349
 30
0.0
 10
537.890570474454
 20
526.8595222587786
 30
0.0
 10
537.9773550268193
 20
526.5624897051996
 30
0.0
  0
ARC
  5
D9
330
1F
100
AcDbEntity
  8
0
  6
Continuous
 62
     7
370
    25
100
AcDbCircle
 10
533.9796392334
 20
515.9398361556
 30
0.0
 40
12.09999999999989
100
AcDbArc
 50
66.0
 51
72.0
  0
SPLINE
  5
DA
330
1F
100
AcDbEntity
  8
0
  6
Continuous
 62
     7
370
    25
100
AcDbSpline
210
0.0
220
0.0
230
1.0
 70
    24
 71
     3
 72
     8
 73
     4
 74
     0
 42
0.00000001
 43
0.00000001
 40
0.0000003202490057
 40
0.0000003202490057
 40
0.0000003202490057
 40
0.0000003202490057
 40
0.0011889475494398
 40
0.0011889475494398
 40
0.0011889475494398
 40
0.0011889475494398
 10
538.1167000384896
 20
526.5090001667577
 30
0.0
 10
538.379947102196
 20
526.6716681718016
 30
0.0
 10
538.6413167809446
 20
526.833176086163
 30
0.0
 10
538.9011526145708
 20
526.9937361930822
 30
0.0
  0
ARC
  5
DB
330
1F
100
AcDbEntity
  8
0
  6
Continuous
 62
     7
370
    25
100
AcDbCircle
 10
533.9796392334
 20
515.9398361556
 30
0.0
 40
11.34999999999999
100
AcDbArc
 50
68.6232618566
 51
69.3767381434
  0
ARC
  5
DC
330
1F
100
AcDbEntity
  8
0
  6
Continuous
 62
     7
370
    25
100
AcDbCircle
 10
635.5796392334
 20
515.9398361556
 30
0.0
 40
12.09999999999992
100
AcDbArc
 50
180.0
 51
186.0
  0
SPLINE
  5
DD
330
1F
100
AcDbEntity
  8
0
  6
Continuous
 62
     7
370
    25
100
AcDbSpline
210
0.0
220
0.0
230
1.0
 70
    24
 71
     3
 72
     8
 73
     4
 74
     0
 42
0.00000001
 43
0.00000001
 40
0.000000313989615
 40
0.000000313989615
 40
0.000000313989615
 40
0.000000313989615
 40
0.0011889412900492
 40
0.0011889412900492
 40
0.0011889412900492
 40
0.0011889412900492
 10
623.4796392333539
 20
515.9398361556068
 30
0.0
 10
623.7320029444284
 20
515.767769988965
 30
0.0
 10
623.9858563917027
 20
515.5946880930961
 30
0.0
 10
624.2415332358057
 20
515.4203629721168
 30
0.0
  0
ARC
  5
DE
330
1F
100
AcDbEntity
  8
0
  6
Continuous
 62
     7
370
    25
100
AcDbCircle
 10
635.5796392334
 20
515.9398361556
 30
0.0
 40
11.34999999999989
100
AcDbArc
 50
182.6232618566
 51
183.3767381434
  0
SPLINE
  5
DF
330
1F
100
AcDbEntity
  8
0
  6
Continuous
 62
     7
370
    25
100
AcDbSpline
210
0.0
220
0.0
230
1.0
 70
    24
 71
     3
 72
     8
 73
     4
 74
     0
 42
0.00000001
 43
0.00000001
 40
0.0000003202490055
 40
0.0000003202490055
 40
0.0000003202490055
 40
0.0000003202490055
 40
0.0011889475494397
 40
0.0011889475494397
 40
0.0011889475494397
 40
0.0011889475494397
 10
624.2493448332069
 20
515.2713088143549
 30
0.0
 10
624.0132905506127
 20
515.071213157021
 30
0.0
 10
623.7789197236783
 20
514.8725445111488
 30
0.0
 10
623.5459242993977
 20
514.6750417500684
 30
0.0
  0
SPLINE
  5
E0
330
1F
100
AcDbEntity
  8
0
  6
Continuous
 62
     7
370
    25
100
AcDbSpline
210
0.0
220
0.0
230
1.0
 70
    24
 71
     3
 72
     8
 73
     4
 74
     0
 42
0.00000001
 43
0.00000001
 40
0.0000002879391795
 40
0.0000002879391795
 40
0.0000002879391795
 40
0.0000002879391795
 40
0.0011889152396136
 40
0.0011889152396136
 40
0.0011889152396136
 40
0.0011889152396136
 10
527.9296392333537
 20
526.4187435413984
 30
0.0
 10
528.2048347603346
 20
526.2862232399355
 30
0.0
 10
528.4816548027294
 20
526.152920653692
 30
0.0
 10
528.7604632080668
 20
526.018660572029
 30
0.0
  0
ARC
  5
E1
330
1F
100
AcDbEntity
  8
0
  6
Continuous
 62
     7
370
    25
100
AcDbCircle
 10
533.9796392334
 20
515.9398361556
 30
0.0
 40
12.09999999999993
100
AcDbArc
 50
114.0
 51
120.0
  0
SPLINE
  5
E2
330
1F
100
AcDbEntity
  8
0
  6
Continuous
 62
     7
370
    25
100
AcDbSpline
210
0.0
220
0.0
230
1.0
 70
    24
 71
     3
 72
     8
 73
     4
 74
     0
 42
0.00000001
 43
0.00000001
 40
0.0000003202490064
 40
0.0000003202490064
 40
0.0000003202490064
 40
0.0000003202490064
 40
0.0011889475494404
 40
0.0011889475494404
 40
0.0011889475494404
 40
0.0011889475494404
 10
528.893453693929
 20
526.0864226091165
 30
0.0
 10
528.94871447507
 20
526.3908994431822
 30
0.0
 10
529.0035811558636
 20
526.6932048561494
 30
0.0
 10
529.0581258521365
 20
526.9937361930822
 30
0.0
  0
ARC
  5
E3
330
1F
100
AcDbEntity
  8
0
  6
Continuous
 62
     7
370
    25
100
AcDbCircle
 10
533.9796392334
 20
515.9398361556
 30
0.0
 40
11.35
100
AcDbArc
 50
116.6232618566
 51
117.3767381434
  0
SPLINE
  5
E4
330
1F
100
AcDbEntity
  8
0
  6
Continuous
 62
     7
370
    25
100
AcDbSpline
210
0.0
220
0.0
230
1.0
 70
    24
 71
     3
 72
     8
 73
     4
 74
     0
 42
0.00000001
 43
0.00000001
 40
0.0000002702729228
 40
0.0000002702729228
 40
0.0000002702729228
 40
0.0000002702729228
 40
0.0011888975733568
 40
0.0011888975733568
 40
0.0011888975733568
 40
0.0011888975733568
 10
522.4718553861824
 20
519.6789417875436
 30
0.0
 10
522.7650389077256
 20
519.7646017610766
 30
0.0
 10
523.059953130182
 20
519.8507673967069
 30
0.0
 10
523.356985683761
 20
519.9375519490724
 30
0.0
  0
ARC
  5
E5
330
1F
100
AcDbEntity
  8
0
  6
Continuous
 62
     7
370
    25
100
AcDbCircle
 10
533.9796392334
 20
515.9398361556
 30
0.0
 40
12.09999999999999
100
AcDbArc
 50
156.0
 51
162.0
  0
SPLINE
  5
E6
330
1F
100
AcDbEntity
  8
0
  6
Continuous
 62
     7
370
    25
100
AcDbSpline
210
0.0
220
0.0
230
1.0
 70
    24
 71
     3
 72
     8
 73
     4
 74
     0
 42
0.00000001
 43
0.00000001
 40
0.0000003202490055
 40
0.0000003202490055
 40
0.0000003202490055
 40
0.0000003202490055
 40
0.0011889475494396
 40
0.0011889475494396
 40
0.0011889475494396
 40
0.0011889475494396
 10
523.4104752222028
 20
520.0768969607427
 30
0.0
 10
523.247807217159
 20
520.3401440244489
 30
0.0
 10
523.0862993027974
 20
520.6015137031976
 30
0.0
 10
522.9257391958782
 20
520.8613495368238
 30
0.0
  0
ARC
  5
E7
330
1F
100
AcDbEntity
  8
0
  6
Continuous
 62
     7
370
    25
100
AcDbCircle
 10
533.9796392334
 20
515.9398361556
 30
0.0
 40
11.35000000000002
100
AcDbArc
 50
158.6232618566
 51
159.3767381434
  0
SPLINE
  5
E8
330
1F
100
AcDbEntity
  8
0
  6
Continuous
 62
     7
370
    25
100
AcDbSpline
210
0.0
220
0.0
230
1.0
 70
    24
 71
     3
 72
     8
 73
     4
 74
     0
 42
0.00000001
 43
0.00000001
 40
0.0000003139884087
 40
0.0000003139884087
 40
0.0000003139884087
 40
0.0000003139884087
 40
0.0011889412888428
 40
0.0011889412888428
 40
0.0011889412888428
 40
0.0011889412888428
 10
532.7148448278151
 20
527.9735510895629
 30
0.0
 10
532.9123475888956
 20
527.7405556652823
 30
0.0
 10
533.1110162347677
 20
527.5061848383477
 30
0.0
 10
533.3111118921016
 20
527.2701305557536
 30
0.0
  0
ARC
  5
E9
330
1F
100
AcDbEntity
  8
0
  6
Continuous
 62
     7
370
    25
100
AcDbCircle
 10
533.9796392334
 20
515.9398361556
 30
0.0
 40
12.09999999999991
100
AcDbArc
 50
90.0
 51
96.0
  0
SPLINE
  5
EA
330
1F
100
AcDbEntity
  8
0
  6
Continuous
 62
     7
370
    25
100
AcDbSpline
210
0.0
220
0.0
230
1.0
 70
    24
 71
     3
 72
     8
 73
     4
 74
     0
 42
0.00000001
 43
0.00000001
 40
0.0000003202490055
 40
0.0000003202490055
 40
0.0000003202490055
 40
0.0000003202490055
 40
0.0011889475494396
 40
0.0011889475494396
 40
0.0011889475494396
 40
0.0011889475494396
 10
533.4601660498637
 20
527.2779421531549
 30
0.0
 10
533.634491170843
 20
527.5336189972578
 30
0.0
 10
533.8075730667119
 20
527.7874724445321
 30
0.0
 10
533.9796392333536
 20
528.0398361556067
 30
0.0
  0
ARC
  5
EB
330
1F
100
AcDbEntity
  8
0
  6
Continuous
 62
     7
370
    25
100
AcDbCircle
 10
533.9796392334
 20
515.9398361556
 30
0.0
 40
11.35
100
AcDbArc
 50
92.6232618566
 51
93.3767381434
  0
SPLINE
  5
EC
330
1F
100
AcDbEntity
  8
0
  6
Continuous
 62
     7
370
    25
100
AcDbSpline
210
0.0
220
0.0
230
1.0
 70
    24
 71
     3
 72
     8
 73
     4
 74
     0
 42
0.00000001
 43
0.00000001
 40
0.0000002946070063
 40
0.0000002946070063
 40
0.0000002946070063
 40
0.0000002946070063
 40
0.0011889219074403
 40
0.0011889219074403
 40
0.0011889219074403
 40
0.0011889219074403
 10
535.2444336388922
 20
527.9735510895629
 30
0.0
 10
535.3891780181665
 20
527.7045840413234
 30
0.0
 10
535.5347768425611
 20
527.4340292451998
 30
0.0
 10
535.6814214846805
 20
527.1615310885957
 30
0.0
  0
ARC
  5
ED
330
1F
100
AcDbEntity
  8
0
  6
Continuous
 62
     7
370
    25
100
AcDbCircle
 10
533.9796392334
 20
515.9398361556
 30
0.0
 40
12.09999999999993
100
AcDbArc
 50
78.0
 51
84.0
  0
SPLINE
  5
EE
330
1F
100
AcDbEntity
  8
0
  6
Continuous
 62
     7
370
    25
100
AcDbSpline
210
0.0
220
0.0
230
1.0
 70
    24
 71
     3
 72
     8
 73
     4
 74
     0
 42
0.00000001
 43
0.00000001
 40
0.0000003202490055
 40
0.0000003202490055
 40
0.0000003202490055
 40
0.0000003202490055
 40
0.0011889475494396
 40
0.0011889475494396
 40
0.0011889475494396
 40
0.0011889475494396
 10
535.8288425738987
 20
527.1381818818879
 30
0.0
 10
536.0525164776926
 20
527.3520273428555
 30
0.0
 10
536.2745952183099
 20
527.5643477336249
 30
0.0
 10
536.4953706922486
 20
527.7754221244858
 30
0.0
  0
ARC
  5
EF
330
1F
100
AcDbEntity
  8
0
  6
Continuous
 62
     7
370
    25
100
AcDbCircle
 10
533.9796392334
 20
515.9398361556
 30
0.0
 40
11.35000000000004
100
AcDbArc
 50
80.6232618566
 51
81.3767381434
  0
SPLINE
  5
F0
330
1F
100
AcDbEntity
  8
0
  6
Continuous
 62
     7
370
    25
100
AcDbSpline
210
0.0
220
0.0
230
1.0
 70
    24
 71
     3
 72
     8
 73
     4
 74
     0
 42
0.00000001
 43
0.00000001
 40
0.0
 40
0.0
 40
0.0
 40
0.0
 40
1.0
 40
1.0
 40
1.0
 40
1.0
 10
530.2405336014169
 20
527.4476200027781
 30
0.0
 10
530.4821701159856
 20
527.260773660789
 30
0.0
 10
530.7252101231678
 20
527.0728420628678
 30
0.0
 10
530.9700201522855
 20
526.8835417888405
 30
0.0
  0
ARC
  5
F1
330
1F
100
AcDbEntity
  8
0
  6
Continuous
 62
     7
370
    25
100
AcDbCircle
 10
533.9796392334
 20
515.9398361556
 30
0.0
 40
12.09999999999991
100
AcDbArc
 50
102.0
 51
108.0
  0
SPLINE
  5
F2
330
1F
100
AcDbEntity
  8
0
  6
Continuous
 62
     7
370
    25
100
AcDbSpline
210
0.0
220
0.0
230
1.0
 70
    24
 71
     3
 72
     8
 73
     4
 74
     0
 42
0.00000001
 43
0.00000001
 40
0.0000003202490061
 40
0.0000003202490061
 40
0.0000003202490061
 40
0.0000003202490061
 40
0.0011889475494402
 40
0.0011889475494402
 40
0.0011889475494402
 40
0.0011889475494402
 10
531.1141929966562
 20
526.9221727860602
 30
0.0
 10
531.2315504905293
 20
527.2085067083374
 30
0.0
 10
531.3480710322613
 20
527.4927985983469
 30
0.0
 10
531.4639077744588
 20
527.7754221244858
 30
0.0
  0
ARC
  5
F3
330
1F
100
AcDbEntity
  8
0
  6
Continuous
 62
     7
370
    25
100
AcDbCircle
 10
533.9796392334
 20
515.9398361556
 30
0.0
 40
11.35000000000005
100
AcDbArc
 50
104.6232618566
 51
105.3767381434
  0
SPLINE
  5
F4
330
1F
100
AcDbEntity
  8
0
  6
Continuous
 62
     7
370
    25
100
AcDbSpline
210
0.0
220
0.0
230
1.0
 70
    24
 71
     3
 72
     8
 73
     4
 74
     0
 42
0.00000001
 43
0.00000001
 40
0.0000002803714622
 40
0.0000002803714622
 40
0.0000002803714622
 40
0.0000002803714622
 40
0.0011889076718962
 40
0.0011889076718962
 40
0.0011889076718962
 40
0.0011889076718962
 10
522.1440532644748
 20
518.4555676145017
 30
0.0
 10
522.4266767906136
 20
518.5714043566991
 30
0.0
 10
522.7109686806231
 20
518.687924898431
 30
0.0
 10
522.9973026029005
 20
518.8052823923042
 30
0.0
  0
ARC
  5
F5
330
1F
100
AcDbEntity
  8
0
  6
Continuous
 62
     7
370
    25
100
AcDbCircle
 10
533.9796392334
 20
515.9398361556
 30
0.0
 40
12.09999999999999
100
AcDbArc
 50
162.0
 51
168.0
  0
SPLINE
  5
F6
330
1F
100
AcDbEntity
  8
0
  6
Continuous
 62
     7
370
    25
100
AcDbSpline
210
0.0
220
0.0
230
1.0
 70
    24
 71
     3
 72
     8
 73
     4
 74
     0
 42
0.00000001
 43
0.00000001
 40
0.0
 40
0.0
 40
0.0
 40
0.0
 40
1.0
 40
1.0
 40
1.0
 40
1.0
 10
523.03593360012
 20
518.9494552366749
 30
0.0
 10
522.8466333260927
 20
519.1942652657926
 30
0.0
 10
522.6587017281714
 20
519.437305272975
 30
0.0
 10
522.4718553861824
 20
519.6789417875436
 30
0.0
  0
ARC
  5
F7
330
1F
100
AcDbEntity
  8
0
  6
Continuous
 62
     7
370
    25
100
AcDbCircle
 10
533.9796392334
 20
515.9398361556
 30
0.0
 40
11.35000000000008
100
AcDbArc
 50
164.6232618566
 51
165.3767381434
  0
SPLINE
  5
F8
330
1F
100
AcDbEntity
  8
0
  6
Continuous
 62
     7
370
    25
100
AcDbSpline
210
0.0
220
0.0
230
1.0
 70
    24
 71
     3
 72
     8
 73
     4
 74
     0
 42
0.00000001
 43
0.00000001
 40
0.0000003139884087
 40
0.0000003139884087
 40
0.0000003139884087
 40
0.0000003139884087
 40
0.0011889412888428
 40
0.0011889412888428
 40
0.0011889412888428
 40
0.0011889412888428
 10
531.4639077744588
 20
527.7754221244858
 30
0.0
 10
531.6846832483975
 20
527.5643477336249
 30
0.0
 10
531.9067619890147
 20
527.3520273428555
 30
0.0
 10
532.1304358928087
 20
527.1381818818879
 30
0.0
  0
ARC
  5
F9
330
1F
100
AcDbEntity
  8
0
  6
Continuous
 62
     7
370
    25
100
AcDbCircle
 10
533.9796392334
 20
515.9398361556
 30
0.0
 40
12.09999999999991
100
AcDbArc
 50
96.0
 51
102.0
  0
SPLINE
  5
FA
330
1F
100
AcDbEntity
  8
0
  6
Continuous
 62
     7
370
    25
100
AcDbSpline
210
0.0
220
0.0
230
1.0
 70
    24
 71
     3
 72
     8
 73
     4
 74
     0
 42
0.00000001
 43
0.00000001
 40
0.0000003202490059
 40
0.0000003202490059
 40
0.0000003202490059
 40
0.0000003202490059
 40
0.0011889475494399
 40
0.0011889475494399
 40
0.0011889475494399
 40
0.0011889475494399
 10
532.2778569820268
 20
527.1615310885957
 30
0.0
 10
532.4245016241463
 20
527.4340292451997
 30
0.0
 10
532.5701004485409
 20
527.7045840413234
 30
0.0
 10
532.7148448278151
 20
527.9735510895628
 30
0.0
  0
ARC
  5
FB
330
1F
100
AcDbEntity
  8
0
  6
Continuous
 62
     7
370
    25
100
AcDbCircle
 10
533.9796392334
 20
515.9398361556
 30
0.0
 40
11.35000000000005
100
AcDbArc
 50
98.6232618566
 51
99.3767381434
  0
SPLINE
  5
FC
330
1F
100
AcDbEntity
  8
0
  6
Continuous
 62
     7
370
    25
100
AcDbSpline
210
0.0
220
0.0
230
1.0
 70
    24
 71
     3
 72
     8
 73
     4
 74
     0
 42
0.00000001
 43
0.00000001
 40
0.0000002617953351
 40
0.0000002617953351
 40
0.0000002617953351
 40
0.0000002617953351
 40
0.0011888890957691
 40
0.0011888890957691
 40
0.0011888890957691
 40
0.0011888890957691
 10
525.8831588964117
 20
506.9477837673303
 30
0.0
 10
525.9241530980464
 20
507.2504612917725
 30
0.0
 10
525.9653892938486
 20
507.5549255614765
 30
0.0
 10
526.0069216839687
 20
507.8615767590705
 30
0.0
  0
ARC
  5
FD
330
1F
100
AcDbEntity
  8
0
  6
Continuous
 62
     7
370
    25
100
AcDbCircle
 10
533.9796392334
 20
515.9398361556
 30
0.0
 40
12.09999999999994
100
AcDbArc
 50
222.0
 51
228.0
  0
SPLINE
  5
FE
330
1F
100
AcDbEntity
  8
0
  6
Continuous
 62
     7
370
    25
100
AcDbSpline
210
0.0
220
0.0
230
1.0
 70
    24
 71
     3
 72
     8
 73
     4
 74
     0
 42
0.00000001
 43
0.00000001
 40
0.0000003202490064
 40
0.0000003202490064
 40
0.0000003202490064
 40
0.0000003202490064
 40
0.0011889475494404
 40
0.0011889475494404
 40
0.0011889475494404
 40
0.0011889475494404
 10
525.9013798368176
 20
507.9671186062216
 30
0.0
 10
525.5947286392235
 20
507.9255862161015
 30
0.0
 10
525.2902643695196
 20
507.8843500202993
 30
0.0
 10
524.9875868450774
 20
507.8433558186646
 30
0.0
  0
ARC
  5
FF
330
1F
100
AcDbEntity
  8
0
  6
Continuous
 62
     7
370
    25
100
AcDbCircle
 10
533.9796392334
 20
515.9398361556
 30
0.0
 40
11.35000000000003
100
AcDbArc
 50
224.6232618566
 51
225.3767381434
  0
SPLINE
  5
100
330
1F
100
AcDbEntity
  8
0
  6
Continuous
 62
     7
370
    25
100
AcDbSpline
210
0.0
220
0.0
230
1.0
 70
    24
 71
     3
 72
     8
 73
     4
 74
     0
 42
0.00000001
 43
0.00000001
 40
0.0000002636648993
 40
0.0000002636648993
 40
0.0000002636648993
 40
0.0000002636648993
 40
0.0011888909653333
 40
0.0011888909653333
 40
0.0011888909653333
 40
0.0011888909653333
 10
529.0581258521366
 20
504.8859361181314
 30
0.0
 10
529.0035811558638
 20
505.1864674550641
 30
0.0
 10
528.9487144750702
 20
505.4887728680314
 30
0.0
 10
528.8934536939291
 20
505.7932497020971
 30
0.0
  0
ARC
  5
101
330
1F
100
AcDbEntity
  8
0
  6
Continuous
 62
     7
370
    25
100
AcDbCircle
 10
533.9796392334
 20
515.9398361556
 30
0.0
 40
12.09999999999994
100
AcDbArc
 50
240.0
 51
246.0
  0
SPLINE
  5
102
330
1F
100
AcDbEntity
  8
0
  6
Continuous
 62
     7
370
    25
100
AcDbSpline
210
0.0
220
0.0
230
1.0
 70
    24
 71
     3
 72
     8
 73
     4
 74
     0
 42
0.00000001
 43
0.00000001
 40
0.000000320249006
 40
0.000000320249006
 40
0.000000320249006
 40
0.000000320249006
 40
0.00118894754944
 40
0.00118894754944
 40
0.00118894754944
 40
0.00118894754944
 10
528.7604632080669
 20
505.8610117391844
 30
0.0
 10
528.4816548027295
 20
505.7267516575214
 30
0.0
 10
528.2048347603347
 20
505.5934490712781
 30
0.0
 10
527.9296392333539
 20
505.4609287698151
 30
0.0
  0
ARC
  5
103
330
1F
100
AcDbEntity
  8
0
  6
Continuous
 62
     7
370
    25
100
AcDbCircle
 10
533.9796392334
 20
515.9398361556
 30
0.0
 40
11.3500000000001
100
AcDbArc
 50
242.6232618566
 51
243.3767381434
  0
SPLINE
  5
104
330
1F
100
AcDbEntity
  8
0
  6
Continuous
 62
     7
370
    25
100
AcDbSpline
210
0.0
220
0.0
230
1.0
 70
    24
 71
     3
 72
     8
 73
     4
 74
     0
 42
0.00000001
 43
0.00000001
 40
0.0000002946070063
 40
0.0000002946070063
 40
0.0000002946070063
 40
0.0000002946070063
 40
0.0011889219074403
 40
0.0011889219074403
 40
0.0011889219074403
 40
0.0011889219074403
 10
532.7148448278152
 20
503.9061212216507
 30
0.0
 10
532.570100448541
 20
504.1750882698902
 30
0.0
 10
532.4245016241465
 20
504.4456430660138
 30
0.0
 10
532.2778569820271
 20
504.7181412226178
 30
0.0
  0
ARC
  5
105
330
1F
100
AcDbEntity
  8
0
  6
Continuous
 62
     7
370
    25
100
AcDbCircle
 10
533.9796392334
 20
515.9398361556
 30
0.0
 40
12.10000000000004
100
AcDbArc
 50
258.0
 51
264.0
  0
SPLINE
  5
106
330
1F
100
AcDbEntity
  8
0
  6
Continuous
 62
     7
370
    25
100
AcDbSpline
210
0.0
220
0.0
230
1.0
 70
    24
 71
     3
 72
     8
 73
     4
 74
     0
 42
0.00000001
 43
0.00000001
 40
0.0000003202490055
 40
0.0000003202490055
 40
0.0000003202490055
 40
0.0000003202490055
 40
0.0011889475494396
 40
0.0011889475494396
 40
0.0011889475494396
 40
0.0011889475494396
 10
532.1304358928089
 20
504.7414904293257
 30
0.0
 10
531.906761989015
 20
504.527644968358
 30
0.0
 10
531.6846832483977
 20
504.3153245775886
 30
0.0
 10
531.4639077744589
 20
504.1042501867278
 30
0.0
  0
ARC
  5
107
330
1F
100
AcDbEntity
  8
0
  6
Continuous
 62
     7
370
    25
100
AcDbCircle
 10
533.9796392334
 20
515.9398361556
 30
0.0
 40
11.35000000000008
100
AcDbArc
 50
260.6232618566
 51
261.3767381434
  0
SPLINE
  5
108
330
1F
100
AcDbEntity
  8
0
  6
Continuous
 62
     7
370
    25
100
AcDbSpline
210
0.0
220
0.0
230
1.0
 70
    24
 71
     3
 72
     8
 73
     4
 74
     0
 42
0.00000001
 43
0.00000001
 40
0.0000003139884087
 40
0.0000003139884087
 40
0.0000003139884087
 40
0.0000003139884087
 40
0.0011889412888428
 40
0.0011889412888428
 40
0.0011889412888428
 40
0.0011889412888428
 10
536.4953706922487
 20
504.1042501867278
 30
0.0
 10
536.2745952183101
 20
504.3153245775886
 30
0.0
 10
536.0525164776928
 20
504.527644968358
 30
0.0
 10
535.8288425738989
 20
504.7414904293257
 30
0.0
  0
ARC
  5
109
330
1F
100
AcDbEntity
  8
0
  6
Continuous
 62
     7
370
    25
100
AcDbCircle
 10
533.9796392334
 20
515.9398361556
 30
0.0
 40
12.10000000000002
100
AcDbArc
 50
276.0
 51
282.0
  0
SPLINE
  5
10A
330
1F
100
AcDbEntity
  8
0
  6
Continuous
 62
     7
370
    25
100
AcDbSpline
210
0.0
220
0.0
230
1.0
 70
    24
 71
     3
 72
     8
 73
     4
 74
     0
 42
0.00000001
 43
0.00000001
 40
0.0000003202490059
 40
0.0000003202490059
 40
0.0000003202490059
 40
0.0000003202490059
 40
0.0011889475494399
 40
0.0011889475494399
 40
0.0011889475494399
 40
0.0011889475494399
 10
535.6814214846808
 20
504.7181412226179
 30
0.0
 10
535.5347768425613
 20
504.4456430660139
 30
0.0
 10
535.3891780181666
 20
504.1750882698902
 30
0.0
 10
535.2444336388925
 20
503.9061212216508
 30
0.0
  0
ARC
  5
10B
330
1F
100
AcDbEntity
  8
0
  6
Continuous
 62
     7
370
    25
100
AcDbCircle
 10
533.9796392334
 20
515.9398361556
 30
0.0
 40
11.35000000000007
100
AcDbArc
 50
278.6232618566
 51
279.3767381434
  0
SPLINE
  5
10C
330
1F
100
AcDbEntity
  8
0
  6
Continuous
 62
     7
370
    25
100
AcDbSpline
210
0.0
220
0.0
230
1.0
 70
    24
 71
     3
 72
     8
 73
     4
 74
     0
 42
0.00000001
 43
0.00000001
 40
0.0000002879391795
 40
0.0000002879391795
 40
0.0000002879391795
 40
0.0000002879391795
 40
0.0011889152396136
 40
0.0011889152396136
 40
0.0011889152396136
 40
0.0011889152396136
 10
540.0296392333538
 20
505.4609287698152
 30
0.0
 10
539.754443706373
 20
505.5934490712783
 30
0.0
 10
539.4776236639782
 20
505.7267516575216
 30
0.0
 10
539.1988152586408
 20
505.8610117391845
 30
0.0
  0
ARC
  5
10D
330
1F
100
AcDbEntity
  8
0
  6
Continuous
 62
     7
370
    25
100
AcDbCircle
 10
533.9796392334
 20
515.9398361556
 30
0.0
 40
12.10000000000003
100
AcDbArc
 50
294.0
 51
300.0
  0
SPLINE
  5
10E
330
1F
100
AcDbEntity
  8
0
  6
Continuous
 62
     7
370
    25
100
AcDbSpline
210
0.0
220
0.0
230
1.0
 70
    24
 71
     3
 72
     8
 73
     4
 74
     0
 42
0.00000001
 43
0.00000001
 40
0.0000003202490064
 40
0.0000003202490064
 40
0.0000003202490064
 40
0.0000003202490064
 40
0.0011889475494404
 40
0.0011889475494404
 40
0.0011889475494404
 40
0.0011889475494404
 10
539.0658247727786
 20
505.7932497020972
 30
0.0
 10
539.0105639916376
 20
505.4887728680315
 30
0.0
 10
538.955697310844
 20
505.1864674550642
 30
0.0
 10
538.9011526145711
 20
504.8859361181314
 30
0.0
  0
ARC
  5
10F
330
1F
100
AcDbEntity
  8
0
  6
Continuous
 62
     7
370
    25
100
AcDbCircle
 10
533.9796392334
 20
515.9398361556
 30
0.0
 40
11.3500000000001
100
AcDbArc
 50
296.6232618566
 51
297.3767381434
  0
SPLINE
  5
110
330
1F
100
AcDbEntity
  8
0
  6
Continuous
 62
     7
370
    25
100
AcDbSpline
210
0.0
220
0.0
230
1.0
 70
    24
 71
     3
 72
     8
 73
     4
 74
     0
 42
0.00000001
 43
0.00000001
 40
0.0000002946070063
 40
0.0000002946070063
 40
0.0000002946070063
 40
0.0000002946070063
 40
0.0011889219074404
 40
0.0011889219074404
 40
0.0011889219074404
 40
0.0011889219074404
 10
521.9459242993977
 20
517.2046305611453
 30
0.0
 10
522.2148913476373
 20
517.3493749404196
 30
0.0
 10
522.4854461437608
 20
517.4949737648142
 30
0.0
 10
522.7579443003648
 20
517.6416184069336
 30
0.0
  0
ARC
  5
111
330
1F
100
AcDbEntity
  8
0
  6
Continuous
 62
     7
370
    25
100
AcDbCircle
 10
533.9796392334
 20
515.9398361556
 30
0.0
 40
12.09999999999993
100
AcDbArc
 50
168.0
 51
174.0
  0
SPLINE
  5
112
330
1F
100
AcDbEntity
  8
0
  6
Continuous
 62
     7
370
    25
100
AcDbSpline
210
0.0
220
0.0
230
1.0
 70
    24
 71
     3
 72
     8
 73
     4
 74
     0
 42
0.00000001
 43
0.00000001
 40
0.0000003202490055
 40
0.0000003202490055
 40
0.0000003202490055
 40
0.0000003202490055
 40
0.0011889475494396
 40
0.0011889475494396
 40
0.0011889475494396
 40
0.0011889475494396
 10
522.7812935070727
 20
517.7890394961516
 30
0.0
 10
522.5674480461049
 20
518.0127133999456
 30
0.0
 10
522.3551276553357
 20
518.234792140563
 30
0.0
 10
522.1440532644748
 20
518.4555676145017
 30
0.0
  0
ARC
  5
113
330
1F
100
AcDbEntity
  8
0
  6
Continuous
 62
     7
370
    25
100
AcDbCircle
 10
533.9796392334
 20
515.9398361556
 30
0.0
 40
11.35000000000004
100
AcDbArc
 50
170.6232618566
 51
171.3767381434
  0
SPLINE
  5
114
330
1F
100
AcDbEntity
  8
0
  6
Continuous
 62
     7
370
    25
100
AcDbSpline
210
0.0
220
0.0
230
1.0
 70
    24
 71
     3
 72
     8
 73
     4
 74
     0
 42
0.00000001
 43
0.00000001
 40
0.000000313989615
 40
0.000000313989615
 40
0.000000313989615
 40
0.000000313989615
 40
0.0011889412900491
 40
0.0011889412900491
 40
0.0011889412900491
 40
0.0011889412900491
 10
521.8796392333538
 20
515.9398361556068
 30
0.0
 10
522.1320029444285
 20
516.1119023222486
 30
0.0
 10
522.3858563917026
 20
516.2849842181174
 30
0.0
 10
522.6415332358058
 20
516.4593093390968
 30
0.0
  0
ARC
  5
115
330
1F
100
AcDbEntity
  8
0
  6
Continuous
 62
     7
370
    25
100
AcDbCircle
 10
533.9796392334
 20
515.9398361556
 30
0.0
 40
12.09999999999993
100
AcDbArc
 50
174.0
 51
180.0
  0
SPLINE
  5
116
330
1F
100
AcDbEntity
  8
0
  6
Continuous
 62
     7
370
    25
100
AcDbSpline
210
0.0
220
0.0
230
1.0
 70
    24
 71
     3
 72
     8
 73
     4
 74
     0
 42
0.00000001
 43
0.00000001
 40
0.0000003202490055
 40
0.0000003202490055
 40
0.0000003202490055
 40
0.0000003202490055
 40
0.0011889475494397
 40
0.0011889475494397
 40
0.0011889475494397
 40
0.0011889475494397
 10
522.6493448332069
 20
516.6083634968588
 30
0.0
 10
522.4132905506127
 20
516.8084591541926
 30
0.0
 10
522.1789197236784
 20
517.0071278000648
 30
0.0
 10
521.9459242993977
 20
517.2046305611453
 30
0.0
  0
ARC
  5
117
330
1F
100
AcDbEntity
  8
0
  6
Continuous
 62
     7
370
    25
100
AcDbCircle
 10
533.9796392334
 20
515.9398361556
 30
0.0
 40
11.35000000000001
100
AcDbArc
 50
176.6232618566
 51
177.3767381434
  0
SPLINE
  5
118
330
1F
100
AcDbEntity
  8
0
  6
Continuous
 62
     7
370
    25
100
AcDbSpline
210
0.0
220
0.0
230
1.0
 70
    24
 71
     3
 72
     8
 73
     4
 74
     0
 42
0.00000001
 43
0.00000001
 40
0.0000002636648993
 40
0.0000002636648993
 40
0.0000002636648993
 40
0.0000002636648993
 40
0.0011888909653333
 40
0.0011888909653333
 40
0.0011888909653333
 40
0.0011888909653333
 10
545.0335392708292
 20
511.0183227743897
 30
0.0
 10
544.7330079338965
 20
510.9637780781168
 30
0.0
 10
544.4307025209292
 20
510.9089113973232
 30
0.0
 10
544.1262256868636
 20
510.8536506161823
 30
0.0
  0
ARC
  5
119
330
1F
100
AcDbEntity
  8
0
  6
Continuous
 62
     7
370
    25
100
AcDbCircle
 10
533.9796392334
 20
515.9398361556
 30
0.0
 40
12.10000000000002
100
AcDbArc
 50
330.0
 51
336.0
  0
SPLINE
  5
11A
330
1F
100
AcDbEntity
  8
0
  6
Continuous
 62
     7
370
    25
100
AcDbSpline
210
0.0
220
0.0
230
1.0
 70
    24
 71
     3
 72
     8
 73
     4
 74
     0
 42
0.00000001
 43
0.00000001
 40
0.000000320249006
 40
0.000000320249006
 40
0.000000320249006
 40
0.000000320249006
 40
0.0011889475494401
 40
0.0011889475494401
 40
0.0011889475494401
 40
0.0011889475494401
 10
544.0584636497761
 20
510.72066013032
 30
0.0
 10
544.1927237314392
 20
510.4418517249826
 30
0.0
 10
544.3260263176825
 20
510.1650316825879
 30
0.0
 10
544.4585466191455
 20
509.8898361556069
 30
0.0
  0
ARC
  5
11B
330
1F
100
AcDbEntity
  8
0
  6
Continuous
 62
     7
370
    25
100
AcDbCircle
 10
533.9796392334
 20
515.9398361556
 30
0.0
 40
11.35000000000002
100
AcDbArc
 50
332.6232618566
 51
333.3767381434
  0
SPLINE
  5
11C
330
1F
100
AcDbEntity
  8
0
  6
Continuous
 62
     7
370
    25
100
AcDbSpline
210
0.0
220
0.0
230
1.0
 70
    24
 71
     3
 72
     8
 73
     4
 74
     0
 42
0.00000001
 43
0.00000001
 40
0.0000002601545755
 40
0.0000002601545755
 40
0.0000002601545755
 40
0.0000002601545755
 40
0.0011888874550094
 40
0.0011888874550094
 40
0.0011888874550094
 40
0.0011888874550094
 10
540.0296392333537
 20
526.4187435413985
 30
0.0
 10
540.05247104926
 20
526.1141570732937
 30
0.0
 10
540.0754376443805
 20
525.8077725911813
 30
0.0
 10
540.0985692056148
 20
525.4991873885391
 30
0.0
  0
ARC
  5
11D
330
1F
100
AcDbEntity
  8
0
  6
Continuous
 62
     7
370
    25
100
AcDbCircle
 10
533.9796392334
 20
515.9398361556
 30
0.0
 40
12.09999999999995
100
AcDbArc
 50
54.0
 51
60.0
  0
SPLINE
  5
11E
330
1F
100
AcDbEntity
  8
0
  6
Continuous
 62
     7
370
    25
100
AcDbSpline
210
0.0
220
0.0
230
1.0
 70
    24
 71
     3
 72
     8
 73
     4
 74
     0
 42
0.00000001
 43
0.00000001
 40
0.0000003202490062
 40
0.0000003202490062
 40
0.0000003202490062
 40
0.0000003202490062
 40
0.0011889475494402
 40
0.0011889475494402
 40
0.0011889475494402
 40
0.0011889475494402
 10
540.223748094076
 20
525.4178952678645
 30
0.0
 10
540.515063157811
 20
525.5222764445963
 30
0.0
 10
540.804300665539
 20
525.6259132116912
 30
0.0
 10
541.0918407860926
 20
525.7289417875436
 30
0.0
  0
ARC
  5
11F
330
1F
100
AcDbEntity
  8
0
  6
Continuous
 62
     7
370
    25
100
AcDbCircle
 10
533.9796392334
 20
515.9398361556
 30
0.0
 40
11.35000000000006
100
AcDbArc
 50
56.6232618566
 51
57.3767381434
  0
SPLINE
  5
120
330
1F
100
AcDbEntity
  8
0
  6
Continuous
 62
     7
370
    25
100
AcDbSpline
210
0.0
220
0.0
230
1.0
 70
    24
 71
     3
 72
     8
 73
     4
 74
     0
 42
0.00000001
 43
0.00000001
 40
0.0000002946070062
 40
0.0000002946070062
 40
0.0000002946070062
 40
0.0000002946070062
 40
0.0011889219074403
 40
0.0011889219074403
 40
0.0011889219074403
 40
0.0011889219074403
 10
546.0133541673098
 20
514.6750417500684
 30
0.0
 10
545.7443871190703
 20
514.5302973707942
 30
0.0
 10
545.4738323229467
 20
514.3846985463995
 30
0.0
 10
545.2013341663427
 20
514.23805390428
 30
0.0
  0
ARC
  5
121
330
1F
100
AcDbEntity
  8
0
  6
Continuous
 62
     7
370
    25
100
AcDbCircle
 10
533.9796392334
 20
515.9398361556
 30
0.0
 40
12.10000000000003
100
AcDbArc
 50
348.0
 51
354.0
  0
SPLINE
  5
122
330
1F
100
AcDbEntity
  8
0
  6
Continuous
 62
     7
370
    25
100
AcDbSpline
210
0.0
220
0.0
230
1.0
 70
    24
 71
     3
 72
     8
 73
     4
 74
     0
 42
0.00000001
 43
0.00000001
 40
0.0000003202490055
 40
0.0000003202490055
 40
0.0000003202490055
 40
0.0000003202490055
 40
0.0011889475494396
 40
0.0011889475494396
 40
0.0011889475494396
 40
0.0011889475494396
 10
545.1779849596348
 20
514.090632815062
 30
0.0
 10
545.3918304206026
 20
513.866958911268
 30
0.0
 10
545.6041508113719
 20
513.6448801706508
 30
0.0
 10
545.8152252022328
 20
513.4241046967121
 30
0.0
  0
ARC
  5
123
330
1F
100
AcDbEntity
  8
0
  6
Continuous
 62
     7
370
    25
100
AcDbCircle
 10
533.9796392334
 20
515.9398361556
 30
0.0
 40
11.35000000000004
100
AcDbArc
 50
350.6232618566
 51
351.3767381434
  0
ARC
  5
124
330
1F
100
AcDbEntity
  8
0
  6
Continuous
 62
     7
370
    25
100
AcDbCircle
 10
635.5796392334
 20
515.9398361556
 30
0.0
 40
11.3499999999999
100
AcDbArc
 50
176.6232618566
 51
177.3767381434
  0
ARC
  5
125
330
1F
100
AcDbEntity
  8
0
  6
Continuous
 62
     7
370
    25
100
AcDbCircle
 10
635.5796392334
 20
515.9398361556
 30
0.0
 40
12.09999999999983
100
AcDbArc
 50
174.0
 51
180.0
  0
SPLINE
  5
126
330
1F
100
AcDbEntity
  8
0
  6
Continuous
 62
     7
370
    25
100
AcDbSpline
210
0.0
220
0.0
230
1.0
 70
    24
 71
     3
 72
     8
 73
     4
 74
     0
 42
0.00000001
 43
0.00000001
 40
0.0000003139884087
 40
0.0000003139884087
 40
0.0000003139884087
 40
0.0000003139884087
 40
0.0011889412888428
 40
0.0011889412888428
 40
0.0011889412888428
 40
0.0011889412888428
 10
623.5459242993977
 20
517.2046305611454
 30
0.0
 10
623.7789197236783
 20
517.0071278000648
 30
0.0
 10
624.0132905506127
 20
516.8084591541927
 30
0.0
 10
624.2493448332069
 20
516.6083634968588
 30
0.0
  0
SPLINE
  5
127
330
1F
100
AcDbEntity
  8
0
  6
Continuous
 62
     7
370
    25
100
AcDbSpline
210
0.0
220
0.0
230
1.0
 70
    24
 71
     3
 72
     8
 73
     4
 74
     0
 42
0.00000001
 43
0.00000001
 40
0.0000003202490055
 40
0.0000003202490055
 40
0.0000003202490055
 40
0.0000003202490055
 40
0.0011889475494397
 40
0.0011889475494397
 40
0.0011889475494397
 40
0.0011889475494397
 10
624.2415332358057
 20
516.4593093390968
 30
0.0
 10
623.9858563917027
 20
516.2849842181174
 30
0.0
 10
623.7320029444284
 20
516.1119023222486
 30
0.0
 10
623.4796392333539
 20
515.9398361556068
 30
0.0
  0
ARC
  5
128
330
1F
100
AcDbEntity
  8
0
  6
Continuous
 62
     7
370
    25
100
AcDbCircle
 10
635.5796392334
 20
515.9398361556
 30
0.0
 40
12.09999999999992
100
AcDbArc
 50
156.0
 51
162.0
  0
SPLINE
  5
129
330
1F
100
AcDbEntity
  8
0
  6
Continuous
 62
     7
370
    25
100
AcDbSpline
210
0.0
220
0.0
230
1.0
 70
    24
 71
     3
 72
     8
 73
     4
 74
     0
 42
0.00000001
 43
0.00000001
 40
0.0000003139884087
 40
0.0000003139884087
 40
0.0000003139884087
 40
0.0000003139884087
 40
0.0011889412888429
 40
0.0011889412888429
 40
0.0011889412888429
 40
0.0011889412888429
 10
624.5257391958783
 20
520.8613495368239
 30
0.0
 10
624.6862993027975
 20
520.6015137031977
 30
0.0
 10
624.847807217159
 20
520.340144024449
 30
0.0
 10
625.0104752222028
 20
520.0768969607427
 30
0.0
  0
ARC
  5
12A
330
1F
100
AcDbEntity
  8
0
  6
Continuous
 62
     7
370
    25
100
AcDbCircle
 10
635.5796392334
 20
515.9398361556
 30
0.0
 40
11.34999999999992
100
AcDbArc
 50
158.6232618566
 51
159.3767381434
  0
SPLINE
  5
12B
330
1F
100
AcDbEntity
  8
0
  6
Continuous
 62
     7
370
    25
100
AcDbSpline
210
0.0
220
0.0
230
1.0
 70
    24
 71
     3
 72
     8
 73
     4
 74
     0
 42
0.00000001
 43
0.00000001
 40
0.0000003202490063
 40
0.0000003202490063
 40
0.0000003202490063
 40
0.0000003202490063
 40
0.0011889475494403
 40
0.0011889475494403
 40
0.0011889475494403
 40
0.0011889475494403
 10
624.956985683761
 20
519.9375519490725
 30
0.0
 10
624.659953130182
 20
519.8507673967069
 30
0.0
 10
624.3650389077256
 20
519.7646017610766
 30
0.0
 10
624.0718553861824
 20
519.6789417875437
 30
0.0
  0
ARC
  5
12C
330
1F
100
AcDbEntity
  8
0
  6
Continuous
 62
     7
370
    25
100
AcDbCircle
 10
635.5796392334
 20
515.9398361556
 30
0.0
 40
12.09999999999994
100
AcDbArc
 50
138.0
 51
144.0
  0
SPLINE
  5
12D
330
1F
100
AcDbEntity
  8
0
  6
Continuous
 62
     7
370
    25
100
AcDbSpline
210
0.0
220
0.0
230
1.0
 70
    24
 71
     3
 72
     8
 73
     4
 74
     0
 42
0.00000001
 43
0.00000001
 40
0.0000002670387239
 40
0.0000002670387239
 40
0.0000002670387239
 40
0.0000002670387239
 40
0.0011888943391579
 40
0.0011888943391579
 40
0.0011888943391579
 40
0.0011888943391579
 10
626.5875868450773
 20
524.036316492549
 30
0.0
 10
626.6599948926819
 20
523.7395821281551
 30
0.0
 10
626.7328303745209
 20
523.4410961017554
 30
0.0
 10
626.8061890243059
 20
523.1404660884223
 30
0.0
  0
ARC
  5
12E
330
1F
100
AcDbEntity
  8
0
  6
Continuous
 62
     7
370
    25
100
AcDbCircle
 10
635.5796392334
 20
515.9398361556
 30
0.0
 40
11.34999999999988
100
AcDbArc
 50
140.6232618566
 51
141.3767381434
  0
SPLINE
  5
12F
330
1F
100
AcDbEntity
  8
0
  6
Continuous
 62
     7
370
    25
100
AcDbSpline
210
0.0
220
0.0
230
1.0
 70
    24
 71
     3
 72
     8
 73
     4
 74
     0
 42
0.00000001
 43
0.00000001
 40
0.0000003202490065
 40
0.0000003202490065
 40
0.0000003202490065
 40
0.0000003202490065
 40
0.0011889475494404
 40
0.0011889475494404
 40
0.0011889475494404
 40
0.0011889475494404
 10
626.7122574735297
 20
523.0244702834598
 30
0.0
 10
626.4029448263664
 20
523.0337213763576
 30
0.0
 10
626.0958380876102
 20
523.0429064937324
 30
0.0
 10
625.7905336014169
 20
523.0520377083458
 30
0.0
  0
ARC
  5
130
330
1F
100
AcDbEntity
  8
0
  6
Continuous
 62
     7
370
    25
100
AcDbCircle
 10
635.5796392334
 20
515.9398361556
 30
0.0
 40
12.09999999999996
100
AcDbArc
 50
120.0
 51
126.0
  0
SPLINE
  5
131
330
1F
100
AcDbEntity
  8
0
  6
Continuous
 62
     7
370
    25
100
AcDbSpline
210
0.0
220
0.0
230
1.0
 70
    24
 71
     3
 72
     8
 73
     4
 74
     0
 42
0.00000001
 43
0.00000001
 40
0.0000002601545754
 40
0.0000002601545754
 40
0.0000002601545754
 40
0.0000002601545754
 40
0.0011888874550094
 40
0.0011888874550094
 40
0.0011888874550094
 40
0.0011888874550094
 10
629.5296392333538
 20
526.4187435413985
 30
0.0
 10
629.5068074174475
 20
526.1141570732937
 30
0.0
 10
629.483840822327
 20
525.8077725911814
 30
0.0
 10
629.4607092610927
 20
525.4991873885391
 30
0.0
  0
ARC
  5
132
330
1F
100
AcDbEntity
  8
0
  6
Continuous
 62
     7
370
    25
100
AcDbCircle
 10
635.5796392334
 20
515.9398361556
 30
0.0
 40
11.35
100
AcDbArc
 50
122.6232618566
 51
123.3767381434
  0
SPLINE
  5
133
330
1F
100
AcDbEntity
  8
0
  6
Continuous
 62
     7
370
    25
100
AcDbSpline
210
0.0
220
0.0
230
1.0
 70
    24
 71
     3
 72
     8
 73
     4
 74
     0
 42
0.00000001
 43
0.00000001
 40
0.0000003202490062
 40
0.0000003202490062
 40
0.0000003202490062
 40
0.0000003202490062
 40
0.0011889475494402
 40
0.0011889475494402
 40
0.0011889475494402
 40
0.0011889475494402
 10
629.3355303726315
 20
525.4178952678645
 30
0.0
 10
629.0442153088965
 20
525.5222764445963
 30
0.0
 10
628.7549778011684
 20
525.6259132116912
 30
0.0
 10
628.4674376806148
 20
525.7289417875436
 30
0.0
  0
ARC
  5
134
330
1F
100
AcDbEntity
  8
0
  6
Continuous
 62
     7
370
    25
100
AcDbCircle
 10
635.5796392334
 20
515.9398361556
 30
0.0
 40
12.09999999999989
100
AcDbArc
 50
102.0
 51
108.0
  0
SPLINE
  5
135
330
1F
100
AcDbEntity
  8
0
  6
Continuous
 62
     7
370
    25
100
AcDbSpline
210
0.0
220
0.0
230
1.0
 70
    24
 71
     3
 72
     8
 73
     4
 74
     0
 42
0.00000001
 43
0.00000001
 40
0.0000002803714621
 40
0.0000002803714621
 40
0.0000002803714621
 40
0.0000002803714621
 40
0.0011889076718962
 40
0.0011889076718962
 40
0.0011889076718962
 40
0.0011889076718962
 10
633.0639077744588
 20
527.7754221244858
 30
0.0
 10
632.9480710322614
 20
527.4927985983469
 30
0.0
 10
632.8315504905295
 20
527.2085067083375
 30
0.0
 10
632.7141929966563
 20
526.9221727860602
 30
0.0
  0
ARC
  5
136
330
1F
100
AcDbEntity
  8
0
  6
Continuous
 62
     7
370
    25
100
AcDbCircle
 10
635.5796392334
 20
515.9398361556
 30
0.0
 40
11.35000000000002
100
AcDbArc
 50
104.6232618566
 51
105.3767381434
  0
SPLINE
  5
137
330
1F
100
AcDbEntity
  8
0
  6
Continuous
 62
     7
370
    25
100
AcDbSpline
210
0.0
220
0.0
230
1.0
 70
    24
 71
     3
 72
     8
 73
     4
 74
     0
 42
0.00000001
 43
0.00000001
 40
0.0
 40
0.0
 40
0.0
 40
0.0
 40
1.0
 40
1.0
 40
1.0
 40
1.0
 10
632.5700201522856
 20
526.8835417888405
 30
0.0
 10
632.3252101231678
 20
527.0728420628678
 30
0.0
 10
632.0821701159856
 20
527.2607736607891
 30
0.0
 10
631.840533601417
 20
527.4476200027781
 30
0.0
  0
ARC
  5
138
330
1F
100
AcDbEntity
  8
0
  6
Continuous
 62
     7
370
    25
100
AcDbCircle
 10
635.5796392334
 20
515.9398361556
 30
0.0
 40
12.09999999999995
100
AcDbArc
 50
84.0
 51
90.0
  0
SPLINE
  5
139
330
1F
100
AcDbEntity
  8
0
  6
Continuous
 62
     7
370
    25
100
AcDbSpline
210
0.0
220
0.0
230
1.0
 70
    24
 71
     3
 72
     8
 73
     4
 74
     0
 42
0.00000001
 43
0.00000001
 40
0.0000003139884087
 40
0.0000003139884087
 40
0.0000003139884087
 40
0.0000003139884087
 40
0.0011889412888428
 40
0.0011889412888428
 40
0.0011889412888428
 40
0.0011889412888428
 10
636.8444336388924
 20
527.9735510895629
 30
0.0
 10
636.6469308778119
 20
527.7405556652823
 30
0.0
 10
636.4482622319397
 20
527.5061848383477
 30
0.0
 10
636.2481665746058
 20
527.2701305557537
 30
0.0
  0
ARC
  5
13A
330
1F
100
AcDbEntity
  8
0
  6
Continuous
 62
     7
370
    25
100
AcDbCircle
 10
635.5796392334
 20
515.9398361556
 30
0.0
 40
11.35000000000002
100
AcDbArc
 50
86.6232618566
 51
87.3767381434
  0
SPLINE
  5
13B
330
1F
100
AcDbEntity
  8
0
  6
Continuous
 62
     7
370
    25
100
AcDbSpline
210
0.0
220
0.0
230
1.0
 70
    24
 71
     3
 72
     8
 73
     4
 74
     0
 42
0.00000001
 43
0.00000001
 40
0.0000003202490055
 40
0.0000003202490055
 40
0.0000003202490055
 40
0.0000003202490055
 40
0.0011889475494397
 40
0.0011889475494397
 40
0.0011889475494397
 40
0.0011889475494397
 10
636.0991124168438
 20
527.2779421531549
 30
0.0
 10
635.9247872958645
 20
527.5336189972578
 30
0.0
 10
635.7517053999956
 20
527.7874724445321
 30
0.0
 10
635.5796392333538
 20
528.0398361556067
 30
0.0
  0
ARC
  5
13C
330
1F
100
AcDbEntity
  8
0
  6
Continuous
 62
     7
370
    25
100
AcDbCircle
 10
635.5796392334
 20
515.9398361556
 30
0.0
 40
12.09999999999998
100
AcDbArc
 50
66.0
 51
72.0
  0
SPLINE
  5
13D
330
1F
100
AcDbEntity
  8
0
  6
Continuous
 62
     7
370
    25
100
AcDbSpline
210
0.0
220
0.0
230
1.0
 70
    24
 71
     3
 72
     8
 73
     4
 74
     0
 42
0.00000001
 43
0.00000001
 40
0.0000003049601736
 40
0.0000003049601736
 40
0.0000003049601736
 40
0.0000003049601736
 40
0.0011889322606077
 40
0.0011889322606077
 40
0.0011889322606077
 40
0.0011889322606077
 10
640.501152614571
 20
526.9937361930822
 30
0.0
 10
640.2413167809448
 20
526.833176086163
 30
0.0
 10
639.979947102196
 20
526.6716681718016
 30
0.0
 10
639.7167000384896
 20
526.5090001667577
 30
0.0
  0
ARC
  5
13E
330
1F
100
AcDbEntity
  8
0
  6
Continuous
 62
     7
370
    25
100
AcDbCircle
 10
635.5796392334
 20
515.9398361556
 30
0.0
 40
11.35000000000003
100
AcDbArc
 50
68.6232618566
 51
69.3767381434
  0
SPLINE
  5
13F
330
1F
100
AcDbEntity
  8
0
  6
Continuous
 62
     7
370
    25
100
AcDbSpline
210
0.0
220
0.0
230
1.0
 70
    24
 71
     3
 72
     8
 73
     4
 74
     0
 42
0.00000001
 43
0.00000001
 40
0.0000003202490063
 40
0.0000003202490063
 40
0.0000003202490063
 40
0.0000003202490063
 40
0.0011889475494403
 40
0.0011889475494403
 40
0.0011889475494403
 40
0.0011889475494403
 10
639.5773550268193
 20
526.5624897051996
 30
0.0
 10
639.490570474454
 20
526.8595222587786
 30
0.0
 10
639.4044048388237
 20
527.1544364812349
 30
0.0
 10
639.3187448652906
 20
527.4476200027781
 30
0.0
  0
ARC
  5
140
330
1F
100
AcDbEntity
  8
0
  6
Continuous
 62
     7
370
    25
100
AcDbCircle
 10
635.5796392334
 20
515.9398361556
 30
0.0
 40
12.09999999999994
100
AcDbArc
 50
48.0
 51
54.0
  0
SPLINE
  5
141
330
1F
100
AcDbEntity
  8
0
  6
Continuous
 62
     7
370
    25
100
AcDbSpline
210
0.0
220
0.0
230
1.0
 70
    24
 71
     3
 72
     8
 73
     4
 74
     0
 42
0.00000001
 43
0.00000001
 40
0.0000002670387239
 40
0.0000002670387239
 40
0.0000002670387239
 40
0.0000002670387239
 40
0.0011888943391579
 40
0.0011888943391579
 40
0.0011888943391579
 40
0.0011888943391579
 10
643.6761195702959
 20
524.9318885438831
 30
0.0
 10
643.379385205902
 20
524.8594804962787
 30
0.0
 10
643.0808991795024
 20
524.7866450144396
 30
0.0
 10
642.7802691661692
 20
524.7132863646547
 30
0.0
  0
ARC
  5
142
330
1F
100
AcDbEntity
  8
0
  6
Continuous
 62
     7
370
    25
100
AcDbCircle
 10
635.5796392334
 20
515.9398361556
 30
0.0
 40
11.35000000000004
100
AcDbArc
 50
50.6232618566
 51
51.3767381434
  0
SPLINE
  5
143
330
1F
100
AcDbEntity
  8
0
  6
Continuous
 62
     7
370
    25
100
AcDbSpline
210
0.0
220
0.0
230
1.0
 70
    24
 71
     3
 72
     8
 73
     4
 74
     0
 42
0.00000001
 43
0.00000001
 40
0.0000003202490065
 40
0.0000003202490065
 40
0.0000003202490065
 40
0.0000003202490065
 40
0.0011889475494404
 40
0.0011889475494404
 40
0.0011889475494404
 40
0.0011889475494404
 10
642.6642733612068
 20
524.8072179154308
 30
0.0
 10
642.6735244541045
 20
525.1165305625941
 30
0.0
 10
642.6827095714794
 20
525.4236373013503
 30
0.0
 10
642.6918407860926
 20
525.7289417875436
 30
0.0
  0
ARC
  5
144
330
1F
100
AcDbEntity
  8
0
  6
Continuous
 62
     7
370
    25
100
AcDbCircle
 10
635.5796392334
 20
515.9398361556
 30
0.0
 40
12.10000000000008
100
AcDbArc
 50
30.0
 51
36.0
  0
SPLINE
  5
145
330
1F
100
AcDbEntity
  8
0
  6
Continuous
 62
     7
370
    25
100
AcDbSpline
210
0.0
220
0.0
230
1.0
 70
    24
 71
     3
 72
     8
 73
     4
 74
     0
 42
0.00000001
 43
0.00000001
 40
0.0000002601545754
 40
0.0000002601545754
 40
0.0000002601545754
 40
0.0000002601545754
 40
0.0011888874550094
 40
0.0011888874550094
 40
0.0011888874550094
 40
0.0011888874550094
 10
646.0585466191455
 20
521.9898361556067
 30
0.0
 10
645.7539601510407
 20
522.012667971513
 30
0.0
 10
645.4475756689284
 20
522.0356345666335
 30
0.0
 10
645.138990466286
 20
522.0587661278678
 30
0.0
  0
ARC
  5
146
330
1F
100
AcDbEntity
  8
0
  6
Continuous
 62
     7
370
    25
100
AcDbCircle
 10
635.5796392334
 20
515.9398361556
 30
0.0
 40
11.35000000000009
100
AcDbArc
 50
32.6232618566
 51
33.3767381434
  0
SPLINE
  5
147
330
1F
100
AcDbEntity
  8
0
  6
Continuous
 62
     7
370
    25
100
AcDbSpline
210
0.0
220
0.0
230
1.0
 70
    24
 71
     3
 72
     8
 73
     4
 74
     0
 42
0.00000001
 43
0.00000001
 40
0.0000003202490062
 40
0.0000003202490062
 40
0.0000003202490062
 40
0.0000003202490062
 40
0.0011889475494402
 40
0.0011889475494402
 40
0.0011889475494402
 40
0.0011889475494402
 10
645.0576983456115
 20
522.183945016329
 30
0.0
 10
645.1620795223432
 20
522.4752600800641
 30
0.0
 10
645.2657162894383
 20
522.7644975877921
 30
0.0
 10
645.3687448652906
 20
523.0520377083457
 30
0.0
  0
ARC
  5
148
330
1F
100
AcDbEntity
  8
0
  6
Continuous
 62
     7
370
    25
100
AcDbCircle
 10
635.5796392334
 20
515.9398361556
 30
0.0
 40
12.10000000000011
100
AcDbArc
 50
12.0
 51
18.0
  0
SPLINE
  5
149
330
1F
100
AcDbEntity
  8
0
  6
Continuous
 62
     7
370
    25
100
AcDbSpline
210
0.0
220
0.0
230
1.0
 70
    24
 71
     3
 72
     8
 73
     4
 74
     0
 42
0.00000001
 43
0.00000001
 40
0.0000002803714621
 40
0.0000002803714621
 40
0.0000002803714621
 40
0.0000002803714621
 40
0.0011889076718962
 40
0.0011889076718962
 40
0.0011889076718962
 40
0.0011889076718962
 10
647.4152252022327
 20
518.4555676145017
 30
0.0
 10
647.1326016760938
 20
518.5714043566991
 30
0.0
 10
646.8483097860844
 20
518.687924898431
 30
0.0
 10
646.561975863807
 20
518.8052823923042
 30
0.0
  0
ARC
  5
14A
330
1F
100
AcDbEntity
  8
0
  6
Continuous
 62
     7
370
    25
100
AcDbCircle
 10
635.5796392334
 20
515.9398361556
 30
0.0
 40
11.35000000000008
100
AcDbArc
 50
14.6232618566
 51
15.3767381434
  0
SPLINE
  5
14B
330
1F
100
AcDbEntity
  8
0
  6
Continuous
 62
     7
370
    25
100
AcDbSpline
210
0.0
220
0.0
230
1.0
 70
    24
 71
     3
 72
     8
 73
     4
 74
     0
 42
0.00000001
 43
0.00000001
 40
0.0
 40
0.0
 40
0.0
 40
0.0
 40
1.0
 40
1.0
 40
1.0
 40
1.0
 10
646.5233448665874
 20
518.9494552366749
 30
0.0
 10
646.7126451406149
 20
519.1942652657926
 30
0.0
 10
646.9005767385361
 20
519.437305272975
 30
0.0
 10
647.0874230805251
 20
519.6789417875436
 30
0.0
  0
ARC
  5
14C
330
1F
100
AcDbEntity
  8
0
  6
Continuous
 62
     7
370
    25
100
AcDbCircle
 10
635.5796392334
 20
515.9398361556
 30
0.0
 40
12.10000000000007
100
AcDbArc
 50
354.0
 51
0.0
  0
SPLINE
  5
14D
330
1F
100
AcDbEntity
  8
0
  6
Continuous
 62
     7
370
    25
100
AcDbSpline
210
0.0
220
0.0
230
1.0
 70
    24
 71
     3
 72
     8
 73
     4
 74
     0
 42
0.00000001
 43
0.00000001
 40
0.0000003139884087
 40
0.0000003139884087
 40
0.0000003139884087
 40
0.0000003139884087
 40
0.0011889412888428
 40
0.0011889412888428
 40
0.0011889412888428
 40
0.0011889412888428
 10
647.6133541673098
 20
514.6750417500681
 30
0.0
 10
647.3803587430291
 20
514.8725445111486
 30
0.0
 10
647.1459879160948
 20
515.0712131570208
 30
0.0
 10
646.9099336335006
 20
515.2713088143547
 30
0.0
  0
ARC
  5
14E
330
1F
100
AcDbEntity
  8
0
  6
Continuous
 62
     7
370
    25
100
AcDbCircle
 10
635.5796392334
 20
515.9398361556
 30
0.0
 40
11.35000000000013
100
AcDbArc
 50
356.6232618566
 51
357.3767381434
  0
SPLINE
  5
14F
330
1F
100
AcDbEntity
  8
0
  6
Continuous
 62
     7
370
    25
100
AcDbSpline
210
0.0
220
0.0
230
1.0
 70
    24
 71
     3
 72
     8
 73
     4
 74
     0
 42
0.00000001
 43
0.00000001
 40
0.0000003202490055
 40
0.0000003202490055
 40
0.0000003202490055
 40
0.0000003202490055
 40
0.0011889475494397
 40
0.0011889475494397
 40
0.0011889475494397
 40
0.0011889475494397
 10
646.9177452309018
 20
515.4203629721168
 30
0.0
 10
647.1734220750049
 20
515.5946880930961
 30
0.0
 10
647.427275522279
 20
515.767769988965
 30
0.0
 10
647.6796392333537
 20
515.9398361556068
 30
0.0
  0
ARC
  5
150
330
1F
100
AcDbEntity
  8
0
  6
Continuous
 62
     7
370
    25
100
AcDbCircle
 10
635.5796392334
 20
515.9398361556
 30
0.0
 40
12.10000000000008
100
AcDbArc
 50
336.0
 51
342.0
  0
SPLINE
  5
151
330
1F
100
AcDbEntity
  8
0
  6
Continuous
 62
     7
370
    25
100
AcDbSpline
210
0.0
220
0.0
230
1.0
 70
    24
 71
     3
 72
     8
 73
     4
 74
     0
 42
0.00000001
 43
0.00000001
 40
0.0000003139884087
 40
0.0000003139884087
 40
0.0000003139884087
 40
0.0000003139884087
 40
0.0011889412888429
 40
0.0011889412888429
 40
0.0011889412888429
 40
0.0011889412888429
 10
646.6335392708291
 20
511.0183227743895
 30
0.0
 10
646.4729791639099
 20
511.2781586080158
 30
0.0
 10
646.3114712495485
 20
511.5395282867645
 30
0.0
 10
646.1488032445046
 20
511.8027753504708
 30
0.0
  0
ARC
  5
152
330
1F
100
AcDbEntity
  8
0
  6
Continuous
 62
     7
370
    25
100
AcDbCircle
 10
635.5796392334
 20
515.9398361556
 30
0.0
 40
11.35000000000013
100
AcDbArc
 50
338.6232618566
 51
339.3767381434
  0
SPLINE
  5
153
330
1F
100
AcDbEntity
  8
0
  6
Continuous
 62
     7
370
    25
100
AcDbSpline
210
0.0
220
0.0
230
1.0
 70
    24
 71
     3
 72
     8
 73
     4
 74
     0
 42
0.00000001
 43
0.00000001
 40
0.0000003202490063
 40
0.0000003202490063
 40
0.0000003202490063
 40
0.0000003202490063
 40
0.0011889475494403
 40
0.0011889475494403
 40
0.0011889475494403
 40
0.0011889475494403
 10
646.2022927829465
 20
511.9421203621412
 30
0.0
 10
646.4993253365255
 20
512.0289049145065
 30
0.0
 10
646.7942395589819
 20
512.1150705501368
 30
0.0
 10
647.087423080525
 20
512.2007305236699
 30
0.0
  0
ARC
  5
154
330
1F
100
AcDbEntity
  8
0
  6
Continuous
 62
     7
370
    25
100
AcDbCircle
 10
635.5796392334
 20
515.9398361556
 30
0.0
 40
12.10000000000006
100
AcDbArc
 50
318.0
 51
324.0
  0
SPLINE
  5
155
330
1F
100
AcDbEntity
  8
0
  6
Continuous
 62
     7
370
    25
100
AcDbSpline
210
0.0
220
0.0
230
1.0
 70
    24
 71
     3
 72
     8
 73
     4
 74
     0
 42
0.00000001
 43
0.00000001
 40
0.0000002670387239
 40
0.0000002670387239
 40
0.0000002670387239
 40
0.0000002670387239
 40
0.0011888943391579
 40
0.0011888943391579
 40
0.0011888943391579
 40
0.0011888943391579
 10
644.5716916216301
 20
507.8433558186646
 30
0.0
 10
644.4992835740256
 20
508.1400901830584
 30
0.0
 10
644.4264480921867
 20
508.4385762094581
 30
0.0
 10
644.3530894424016
 20
508.7392062227912
 30
0.0
  0
ARC
  5
156
330
1F
100
AcDbEntity
  8
0
  6
Continuous
 62
     7
370
    25
100
AcDbCircle
 10
635.5796392334
 20
515.9398361556
 30
0.0
 40
11.35000000000016
100
AcDbArc
 50
320.6232618566
 51
321.3767381434
  0
SPLINE
  5
157
330
1F
100
AcDbEntity
  8
0
  6
Continuous
 62
     7
370
    25
100
AcDbSpline
210
0.0
220
0.0
230
1.0
 70
    24
 71
     3
 72
     8
 73
     4
 74
     0
 42
0.00000001
 43
0.00000001
 40
0.0000003202490065
 40
0.0000003202490065
 40
0.0000003202490065
 40
0.0000003202490065
 40
0.0011889475494404
 40
0.0011889475494404
 40
0.0011889475494404
 40
0.0011889475494404
 10
644.4470209931777
 20
508.8552020277537
 30
0.0
 10
644.756333640341
 20
508.845950934856
 30
0.0
 10
645.0634403790971
 20
508.836765817481
 30
0.0
 10
645.3687448652905
 20
508.8276346028678
 30
0.0
  0
ARC
  5
158
330
1F
100
AcDbEntity
  8
0
  6
Continuous
 62
     7
370
    25
100
AcDbCircle
 10
635.5796392334
 20
515.9398361556
 30
0.0
 40
12.1
100
AcDbArc
 50
300.0
 51
306.0
  0
ARC
  5
159
330
1F
100
AcDbEntity
  8
0
  6
Continuous
 62
     7
370
    25
100
AcDbCircle
 10
635.5796392334
 20
515.9398361556
 30
0.0
 40
11.35000000000011
100
AcDbArc
 50
302.6232618566
 51
303.3767381434
  0
SPLINE
  5
15A
330
1F
100
AcDbEntity
  8
0
  6
Continuous
 62
     7
370
    25
100
AcDbSpline
210
0.0
220
0.0
230
1.0
 70
    24
 71
     3
 72
     8
 73
     4
 74
     0
 42
0.00000001
 43
0.00000001
 40
0.0000003202490062
 40
0.0000003202490062
 40
0.0000003202490062
 40
0.0000003202490062
 40
0.0011889475494402
 40
0.0011889475494402
 40
0.0011889475494402
 40
0.0011889475494402
 10
641.8237480940759
 20
506.4617770433491
 30
0.0
 10
642.1150631578109
 20
506.3573958666173
 30
0.0
 10
642.404300665539
 20
506.2537590995222
 30
0.0
 10
642.6918407860925
 20
506.1507305236699
 30
0.0
  0
SPLINE
  5
15B
330
1F
100
AcDbEntity
  8
0
  6
Continuous
 62
     7
370
    25
100
AcDbSpline
210
0.0
220
0.0
230
1.0
 70
    24
 71
     3
 72
     8
 73
     4
 74
     0
 42
0.00000001
 43
0.00000001
 40
0.0000002601545754
 40
0.0000002601545754
 40
0.0000002601545754
 40
0.0000002601545754
 40
0.0011888874550094
 40
0.0011888874550094
 40
0.0011888874550094
 40
0.0011888874550094
 10
641.6296392333536
 20
505.4609287698151
 30
0.0
 10
641.6524710492599
 20
505.7655152379199
 30
0.0
 10
641.6754376443804
 20
506.0718997200321
 30
0.0
 10
641.6985692056147
 20
506.3804849226744
 30
0.0
  0
SPLINE
  5
15C
330
1F
100
AcDbEntity
  8
0
  6
Continuous
 62
     7
370
    25
100
AcDbSpline
210
0.0
220
0.0
230
1.0
 70
    24
 71
     3
 72
     8
 73
     4
 74
     0
 42
0.00000001
 43
0.00000001
 40
0.0000002617953351
 40
0.0000002617953351
 40
0.0000002617953351
 40
0.0000002617953351
 40
0.0011888890957691
 40
0.0011888890957691
 40
0.0011888890957691
 40
0.0011888890957691
 10
542.9716916216303
 20
507.8433558186647
 30
0.0
 10
542.6690140971881
 20
507.8843500202995
 30
0.0
 10
542.3645498274841
 20
507.9255862161016
 30
0.0
 10
542.05789862989
 20
507.9671186062217
 30
0.0
  0
ARC
  5
15D
330
1F
100
AcDbEntity
  8
0
  6
Continuous
 62
     7
370
    25
100
AcDbCircle
 10
533.9796392334
 20
515.9398361556
 30
0.0
 40
12.10000000000002
100
AcDbArc
 50
312.0
 51
318.0
  0
SPLINE
  5
15E
330
1F
100
AcDbEntity
  8
0
  6
Continuous
 62
     7
370
    25
100
AcDbSpline
210
0.0
220
0.0
230
1.0
 70
    24
 71
     3
 72
     8
 73
     4
 74
     0
 42
0.00000001
 43
0.00000001
 40
0.0000003202490064
 40
0.0000003202490064
 40
0.0000003202490064
 40
0.0000003202490064
 40
0.0011889475494404
 40
0.0011889475494404
 40
0.0011889475494404
 40
0.0011889475494404
 10
541.952356782739
 20
507.8615767590706
 30
0.0
 10
541.9938891728591
 20
507.5549255614766
 30
0.0
 10
542.0351253686613
 20
507.2504612917726
 30
0.0
 10
542.076119570296
 20
506.9477837673305
 30
0.0
  0
ARC
  5
15F
330
1F
100
AcDbEntity
  8
0
  6
Continuous
 62
     7
370
    25
100
AcDbCircle
 10
533.9796392334
 20
515.9398361556
 30
0.0
 40
11.35000000000007
100
AcDbArc
 50
314.6232618566
 51
315.3767381434
  0
ARC
  5
160
330
1F
100
AcDbEntity
  8
0
  6
Continuous
 62
     7
370
    25
100
AcDbCircle
 10
635.5796392334
 20
515.9398361556
 30
0.0
 40
12.1
100
AcDbArc
 50
282.0
 51
288.0
  0
ARC
  5
161
330
1F
100
AcDbEntity
  8
0
  6
Continuous
 62
     7
370
    25
100
AcDbCircle
 10
635.5796392334
 20
515.9398361556
 30
0.0
 40
11.35000000000005
100
AcDbArc
 50
284.6232618566
 51
285.3767381434
  0
SPLINE
  5
162
330
1F
100
AcDbEntity
  8
0
  6
Continuous
 62
     7
370
    25
100
AcDbSpline
210
0.0
220
0.0
230
1.0
 70
    24
 71
     3
 72
     8
 73
     4
 74
     0
 42
0.00000001
 43
0.00000001
 40
0.0
 40
0.0
 40
0.0
 40
0.0
 40
1.0
 40
1.0
 40
1.0
 40
1.0
 10
638.5892583144218
 20
504.9961305223731
 30
0.0
 10
638.8340683435395
 20
504.8068302483457
 30
0.0
 10
639.0771083507218
 20
504.6188986504244
 30
0.0
 10
639.3187448652905
 20
504.4320523084355
 30
0.0
  0
SPLINE
  5
163
330
1F
100
AcDbEntity
  8
0
  6
Continuous
 62
     7
370
    25
100
AcDbSpline
210
0.0
220
0.0
230
1.0
 70
    24
 71
     3
 72
     8
 73
     4
 74
     0
 42
0.00000001
 43
0.00000001
 40
0.0000002803714621
 40
0.0000002803714621
 40
0.0000002803714621
 40
0.0000002803714621
 40
0.0011889076718962
 40
0.0011889076718962
 40
0.0011889076718962
 40
0.0011889076718962
 10
638.0953706922485
 20
504.1042501867278
 30
0.0
 10
638.211207434446
 20
504.3868737128666
 30
0.0
 10
638.3277279761779
 20
504.671165602876
 30
0.0
 10
638.445085470051
 20
504.9574995251535
 30
0.0
  0
ARC
  5
164
330
1F
100
AcDbEntity
  8
0
  6
Continuous
 62
     7
370
    25
100
AcDbCircle
 10
635.5796392334
 20
515.9398361556
 30
0.0
 40
12.10000000000006
100
AcDbArc
 50
264.0
 51
270.0
  0
ARC
  5
165
330
1F
100
AcDbEntity
  8
0
  6
Continuous
 62
     7
370
    25
100
AcDbCircle
 10
635.5796392334
 20
515.9398361556
 30
0.0
 40
11.35
100
AcDbArc
 50
266.6232618566
 51
267.3767381434
  0
SPLINE
  5
166
330
1F
100
AcDbEntity
  8
0
  6
Continuous
 62
     7
370
    25
100
AcDbSpline
210
0.0
220
0.0
230
1.0
 70
    24
 71
     3
 72
     8
 73
     4
 74
     0
 42
0.00000001
 43
0.00000001
 40
0.0000003202490055
 40
0.0000003202490055
 40
0.0000003202490055
 40
0.0000003202490055
 40
0.0011889475494397
 40
0.0011889475494397
 40
0.0011889475494397
 40
0.0011889475494397
 10
635.0601660498636
 20
504.6017301580588
 30
0.0
 10
635.234491170843
 20
504.3460533139558
 30
0.0
 10
635.4075730667118
 20
504.0921998666814
 30
0.0
 10
635.5796392333535
 20
503.8398361556068
 30
0.0
  0
SPLINE
  5
167
330
1F
100
AcDbEntity
  8
0
  6
Continuous
 62
     7
370
    25
100
AcDbSpline
210
0.0
220
0.0
230
1.0
 70
    24
 71
     3
 72
     8
 73
     4
 74
     0
 42
0.00000001
 43
0.00000001
 40
0.0000003139884087
 40
0.0000003139884087
 40
0.0000003139884087
 40
0.0000003139884087
 40
0.0011889412888428
 40
0.0011889412888428
 40
0.0011889412888428
 40
0.0011889412888428
 10
634.314844827815
 20
503.9061212216507
 30
0.0
 10
634.5123475888955
 20
504.1391166459314
 30
0.0
 10
634.7110162347676
 20
504.3734874728658
 30
0.0
 10
634.9111118921016
 20
504.60954175546
 30
0.0
  0
ARC
  5
168
330
1F
100
AcDbEntity
  8
0
  6
Continuous
 62
     7
370
    25
100
AcDbCircle
 10
635.5796392334
 20
515.9398361556
 30
0.0
 40
12.09999999999999
100
AcDbArc
 50
246.0
 51
252.0
  0
ARC
  5
169
330
1F
100
AcDbEntity
  8
0
  6
Continuous
 62
     7
370
    25
100
AcDbCircle
 10
635.5796392334
 20
515.9398361556
 30
0.0
 40
11.35000000000002
100
AcDbArc
 50
248.6232618566
 51
249.3767381434
  0
SPLINE
  5
16A
330
1F
100
AcDbEntity
  8
0
  6
Continuous
 62
     7
370
    25
100
AcDbSpline
210
0.0
220
0.0
230
1.0
 70
    24
 71
     3
 72
     8
 73
     4
 74
     0
 42
0.00000001
 43
0.00000001
 40
0.0000003202490063
 40
0.0000003202490063
 40
0.0000003202490063
 40
0.0000003202490063
 40
0.0011889475494403
 40
0.0011889475494403
 40
0.0011889475494403
 40
0.0011889475494403
 10
631.5819234398881
 20
505.3171826060141
 30
0.0
 10
631.6687079922534
 20
505.020150052435
 30
0.0
 10
631.7548736278837
 20
504.7252358299787
 30
0.0
 10
631.8405336014168
 20
504.4320523084355
 30
0.0
  0
SPLINE
  5
16B
330
1F
100
AcDbEntity
  8
0
  6
Continuous
 62
     7
370
    25
100
AcDbSpline
210
0.0
220
0.0
230
1.0
 70
    24
 71
     3
 72
     8
 73
     4
 74
     0
 42
0.00000001
 43
0.00000001
 40
0.0000003049601736
 40
0.0000003049601736
 40
0.0000003049601736
 40
0.0000003049601736
 40
0.0011889322606077
 40
0.0011889322606077
 40
0.0011889322606077
 40
0.0011889322606077
 10
630.6581258521364
 20
504.8859361181314
 30
0.0
 10
630.9179616857626
 20
505.0464962250506
 30
0.0
 10
631.1793313645114
 20
505.2080041394121
 30
0.0
 10
631.4425784282178
 20
505.3706721444559
 30
0.0
  0
ARC
  5
16C
330
1F
100
AcDbEntity
  8
0
  6
Continuous
 62
     7
370
    25
100
AcDbCircle
 10
635.5796392334
 20
515.9398361556
 30
0.0
 40
12.09999999999998
100
AcDbArc
 50
228.0
 51
234.0
  0
ARC
  5
16D
330
1F
100
AcDbEntity
  8
0
  6
Continuous
 62
     7
370
    25
100
AcDbCircle
 10
635.5796392334
 20
515.9398361556
 30
0.0
 40
11.35
100
AcDbArc
 50
230.6232618566
 51
231.3767381434
  0
SPLINE
  5
16E
330
1F
100
AcDbEntity
  8
0
  6
Continuous
 62
     7
370
    25
100
AcDbSpline
210
0.0
220
0.0
230
1.0
 70
    24
 71
     3
 72
     8
 73
     4
 74
     0
 42
0.00000001
 43
0.00000001
 40
0.0000003202490065
 40
0.0000003202490065
 40
0.0000003202490065
 40
0.0000003202490065
 40
0.0011889475494404
 40
0.0011889475494404
 40
0.0011889475494404
 40
0.0011889475494404
 10
628.4950051055006
 20
507.0724543957829
 30
0.0
 10
628.485754012603
 20
506.7631417486196
 30
0.0
 10
628.4765688952281
 20
506.4560350098635
 30
0.0
 10
628.4674376806147
 20
506.15073052367
 30
0.0
  0
SPLINE
  5
16F
330
1F
100
AcDbEntity
  8
0
  6
Continuous
 62
     7
370
    25
100
AcDbSpline
210
0.0
220
0.0
230
1.0
 70
    24
 71
     3
 72
     8
 73
     4
 74
     0
 42
0.00000001
 43
0.00000001
 40
0.0000002670387239
 40
0.0000002670387239
 40
0.0000002670387239
 40
0.0000002670387239
 40
0.0011888943391579
 40
0.0011888943391579
 40
0.0011888943391579
 40
0.0011888943391579
 10
627.4831588964115
 20
506.9477837673304
 30
0.0
 10
627.7798932608055
 20
507.0201918149349
 30
0.0
 10
628.078379287205
 20
507.093027296774
 30
0.0
 10
628.3790093005381
 20
507.166385946559
 30
0.0
  0
ARC
  5
170
330
1F
100
AcDbEntity
  8
0
  6
Continuous
 62
     7
370
    25
100
AcDbCircle
 10
635.5796392334
 20
515.9398361556
 30
0.0
 40
12.09999999999999
100
AcDbArc
 50
210.0
 51
216.0
  0
ARC
  5
171
330
1F
100
AcDbEntity
  8
0
  6
Continuous
 62
     7
370
    25
100
AcDbCircle
 10
635.5796392334
 20
515.9398361556
 30
0.0
 40
11.34999999999997
100
AcDbArc
 50
212.6232618566
 51
213.3767381434
  0
SPLINE
  5
172
330
1F
100
AcDbEntity
  8
0
  6
Continuous
 62
     7
370
    25
100
AcDbSpline
210
0.0
220
0.0
230
1.0
 70
    24
 71
     3
 72
     8
 73
     4
 74
     0
 42
0.00000001
 43
0.00000001
 40
0.0000003202490062
 40
0.0000003202490062
 40
0.0000003202490062
 40
0.0000003202490062
 40
0.0011889475494402
 40
0.0011889475494402
 40
0.0011889475494402
 40
0.0011889475494402
 10
626.1015801210959
 20
509.6957272948848
 30
0.0
 10
625.9971989443642
 20
509.4044122311496
 30
0.0
 10
625.8935621772692
 20
509.1151747234216
 30
0.0
 10
625.7905336014168
 20
508.8276346028679
 30
0.0
  0
SPLINE
  5
173
330
1F
100
AcDbEntity
  8
0
  6
Continuous
 62
     7
370
    25
100
AcDbSpline
210
0.0
220
0.0
230
1.0
 70
    24
 71
     3
 72
     8
 73
     4
 74
     0
 42
0.00000001
 43
0.00000001
 40
0.0000002601545754
 40
0.0000002601545754
 40
0.0000002601545754
 40
0.0000002601545754
 40
0.0011888874550094
 40
0.0011888874550094
 40
0.0011888874550094
 40
0.0011888874550094
 10
625.100731847562
 20
509.8898361556069
 30
0.0
 10
625.4053183156668
 20
509.8670043397007
 30
0.0
 10
625.711702797779
 20
509.8440377445802
 30
0.0
 10
626.0202880004213
 20
509.8209061833459
 30
0.0
  0
ARC
  5
174
330
1F
100
AcDbEntity
  8
0
  6
Continuous
 62
     7
370
    25
100
AcDbCircle
 10
635.5796392334
 20
515.9398361556
 30
0.0
 40
12.09999999999986
100
AcDbArc
 50
192.0
 51
198.0
  0
ARC
  5
175
330
1F
100
AcDbEntity
  8
0
  6
Continuous
 62
     7
370
    25
100
AcDbCircle
 10
635.5796392334
 20
515.9398361556
 30
0.0
 40
11.34999999999989
100
AcDbArc
 50
194.6232618566
 51
195.3767381434
  0
SPLINE
  5
176
330
1F
100
AcDbEntity
  8
0
  6
Continuous
 62
     7
370
    25
100
AcDbSpline
210
0.0
220
0.0
230
1.0
 70
    24
 71
     3
 72
     8
 73
     4
 74
     0
 42
0.00000001
 43
0.00000001
 40
0.0
 40
0.0
 40
0.0
 40
0.0
 40
1.0
 40
1.0
 40
1.0
 40
1.0
 10
624.6359336001201
 20
512.9302170745387
 30
0.0
 10
624.4466333260926
 20
512.6854070454211
 30
0.0
 10
624.2587017281713
 20
512.4423670382388
 30
0.0
 10
624.0718553861824
 20
512.2007305236701
 30
0.0
  0
SPLINE
  5
177
330
1F
100
AcDbEntity
  8
0
  6
Continuous
 62
     7
370
    25
100
AcDbSpline
210
0.0
220
0.0
230
1.0
 70
    24
 71
     3
 72
     8
 73
     4
 74
     0
 42
0.00000001
 43
0.00000001
 40
0.0000002803714621
 40
0.0000002803714621
 40
0.0000002803714621
 40
0.0000002803714621
 40
0.0011889076718962
 40
0.0011889076718962
 40
0.0011889076718962
 40
0.0011889076718962
 10
623.7440532644747
 20
513.4241046967121
 30
0.0
 10
624.0266767906136
 20
513.3082679545145
 30
0.0
 10
624.310968680623
 20
513.1917474127827
 30
0.0
 10
624.5973026029004
 20
513.0743899189096
 30
0.0
  0
SPLINE
  5
178
330
1F
100
AcDbEntity
  8
0
  6
Continuous
 62
     7
370
    25
100
AcDbSpline
210
0.0
220
0.0
230
1.0
 70
    24
 71
     3
 72
     8
 73
     4
 74
     0
 42
0.00000001
 43
0.00000001
 40
0.0000002670387239
 40
0.0000002670387239
 40
0.0000002670387239
 40
0.0000002670387239
 40
0.0011888943391579
 40
0.0011888943391579
 40
0.0011888943391579
 40
0.0011888943391579
 10
525.8831588964116
 20
524.9318885438831
 30
0.0
 10
526.1798932608054
 20
524.8594804962787
 30
0.0
 10
526.4783792872051
 20
524.7866450144396
 30
0.0
 10
526.7790093005382
 20
524.7132863646547
 30
0.0
  0
ARC
  5
179
330
1F
100
AcDbEntity
  8
0
  6
Continuous
 62
     7
370
    25
100
AcDbCircle
 10
533.9796392334
 20
515.9398361556
 30
0.0
 40
12.09999999999994
100
AcDbArc
 50
126.0
 51
132.0
  0
SPLINE
  5
17A
330
1F
100
AcDbEntity
  8
0
  6
Continuous
 62
     7
370
    25
100
AcDbSpline
210
0.0
220
0.0
230
1.0
 70
    24
 71
     3
 72
     8
 73
     4
 74
     0
 42
0.00000001
 43
0.00000001
 40
0.0000003202490065
 40
0.0000003202490065
 40
0.0000003202490065
 40
0.0000003202490065
 40
0.0011889475494404
 40
0.0011889475494404
 40
0.0011889475494404
 40
0.0011889475494404
 10
526.8950051055007
 20
524.8072179154308
 30
0.0
 10
526.885754012603
 20
525.1165305625941
 30
0.0
 10
526.876568895228
 20
525.4236373013503
 30
0.0
 10
526.8674376806148
 20
525.7289417875436
 30
0.0
  0
ARC
  5
17B
330
1F
100
AcDbEntity
  8
0
  6
Continuous
 62
     7
370
    25
100
AcDbCircle
 10
533.9796392334
 20
515.9398361556
 30
0.0
 40
11.35000000000004
100
AcDbArc
 50
128.6232618566
 51
129.3767381434
  0
SPLINE
  5
17C
330
1F
100
AcDbEntity
  8
0
  6
Continuous
 62
     7
370
    25
100
AcDbSpline
210
0.0
220
0.0
230
1.0
 70
    24
 71
     3
 72
     8
 73
     4
 74
     0
 42
0.00000001
 43
0.00000001
 40
0.0000002601545755
 40
0.0000002601545755
 40
0.0000002601545755
 40
0.0000002601545755
 40
0.0011888874550094
 40
0.0011888874550094
 40
0.0011888874550094
 40
0.0011888874550094
 10
523.5007318475621
 20
521.9898361556067
 30
0.0
 10
523.8053183156668
 20
522.012667971513
 30
0.0
 10
524.1117027977791
 20
522.0356345666335
 30
0.0
 10
524.4202880004214
 20
522.0587661278678
 30
0.0
  0
ARC
  5
17D
330
1F
100
AcDbEntity
  8
0
  6
Continuous
 62
     7
370
    25
100
AcDbCircle
 10
533.9796392334
 20
515.9398361556
 30
0.0
 40
12.09999999999996
100
AcDbArc
 50
144.0
 51
150.0
  0
SPLINE
  5
17E
330
1F
100
AcDbEntity
  8
0
  6
Continuous
 62
     7
370
    25
100
AcDbSpline
210
0.0
220
0.0
230
1.0
 70
    24
 71
     3
 72
     8
 73
     4
 74
     0
 42
0.00000001
 43
0.00000001
 40
0.0000003202490062
 40
0.0000003202490062
 40
0.0000003202490062
 40
0.0000003202490062
 40
0.0011889475494402
 40
0.0011889475494402
 40
0.0011889475494402
 40
0.0011889475494402
 10
524.501580121096
 20
522.183945016329
 30
0.0
 10
524.3971989443643
 20
522.4752600800641
 30
0.0
 10
524.2935621772692
 20
522.764497587792
 30
0.0
 10
524.1905336014169
 20
523.0520377083457
 30
0.0
  0
ARC
  5
17F
330
1F
100
AcDbEntity
  8
0
  6
Continuous
 62
     7
370
    25
100
AcDbCircle
 10
533.9796392334
 20
515.9398361556
 30
0.0
 40
11.35
100
AcDbArc
 50
146.6232618566
 51
147.3767381434
  0
SPLINE
  5
180
330
1F
100
AcDbEntity
  8
0
  6
Continuous
 62
     7
370
    25
100
AcDbSpline
210
0.0
220
0.0
230
1.0
 70
    24
 71
     3
 72
     8
 73
     4
 74
     0
 42
0.00000001
 43
0.00000001
 40
0.0000003139884087
 40
0.0000003139884087
 40
0.0000003139884087
 40
0.0000003139884087
 40
0.0011889412888428
 40
0.0011889412888428
 40
0.0011889412888428
 40
0.0011889412888428
 10
521.9459242993977
 20
514.6750417500681
 30
0.0
 10
522.1789197236784
 20
514.8725445111486
 30
0.0
 10
522.4132905506127
 20
515.0712131570208
 30
0.0
 10
522.6493448332069
 20
515.2713088143547
 30
0.0
  0
ARC
  5
181
330
1F
100
AcDbEntity
  8
0
  6
Continuous
 62
     7
370
    25
100
AcDbCircle
 10
533.9796392334
 20
515.9398361556
 30
0.0
 40
12.09999999999995
100
AcDbArc
 50
180.0
 51
186.0
  0
SPLINE
  5
182
330
1F
100
AcDbEntity
  8
0
  6
Continuous
 62
     7
370
    25
100
AcDbSpline
210
0.0
220
0.0
230
1.0
 70
    24
 71
     3
 72
     8
 73
     4
 74
     0
 42
0.00000001
 43
0.00000001
 40
0.0000003202490055
 40
0.0000003202490055
 40
0.0000003202490055
 40
0.0000003202490055
 40
0.0011889475494396
 40
0.0011889475494396
 40
0.0011889475494396
 40
0.0011889475494396
 10
522.6415332358058
 20
515.4203629721168
 30
0.0
 10
522.3858563917026
 20
515.5946880930961
 30
0.0
 10
522.1320029444285
 20
515.767769988965
 30
0.0
 10
521.8796392333538
 20
515.9398361556068
 30
0.0
  0
ARC
  5
183
330
1F
100
AcDbEntity
  8
0
  6
Continuous
 62
     7
370
    25
100
AcDbCircle
 10
533.9796392334
 20
515.9398361556
 30
0.0
 40
11.35000000000002
100
AcDbArc
 50
182.6232618566
 51
183.3767381434
  0
SPLINE
  5
184
330
1F
100
AcDbEntity
  8
0
  6
Continuous
 62
     7
370
    25
100
AcDbSpline
210
0.0
220
0.0
230
1.0
 70
    24
 71
     3
 72
     8
 73
     4
 74
     0
 42
0.00000001
 43
0.00000001
 40
0.0000002879391795
 40
0.0000002879391795
 40
0.0000002879391795
 40
0.0000002879391795
 40
0.0011889152396136
 40
0.0011889152396136
 40
0.0011889152396136
 40
0.0011889152396136
 10
523.5007318475621
 20
509.8898361556068
 30
0.0
 10
523.6332521490251
 20
510.1650316825877
 30
0.0
 10
523.7665547352685
 20
510.4418517249824
 30
0.0
 10
523.9008148169315
 20
510.7206601303198
 30
0.0
  0
ARC
  5
185
330
1F
100
AcDbEntity
  8
0
  6
Continuous
 62
     7
370
    25
100
AcDbCircle
 10
533.9796392334
 20
515.9398361556
 30
0.0
 40
12.09999999999998
100
AcDbArc
 50
204.0
 51
210.0
  0
SPLINE
  5
186
330
1F
100
AcDbEntity
  8
0
  6
Continuous
 62
     7
370
    25
100
AcDbSpline
210
0.0
220
0.0
230
1.0
 70
    24
 71
     3
 72
     8
 73
     4
 74
     0
 42
0.00000001
 43
0.00000001
 40
0.0000003202490064
 40
0.0000003202490064
 40
0.0000003202490064
 40
0.0000003202490064
 40
0.0011889475494404
 40
0.0011889475494404
 40
0.0011889475494404
 40
0.0011889475494404
 10
523.833052779844
 20
510.8536506161821
 30
0.0
 10
523.5285759457784
 20
510.908911397323
 30
0.0
 10
523.2262705328112
 20
510.9637780781165
 30
0.0
 10
522.9257391958784
 20
511.0183227743895
 30
0.0
  0
ARC
  5
187
330
1F
100
AcDbEntity
  8
0
  6
Continuous
 62
     7
370
    25
100
AcDbCircle
 10
533.9796392334
 20
515.9398361556
 30
0.0
 40
11.35000000000002
100
AcDbArc
 50
206.6232618566
 51
207.3767381434
  0
SPLINE
  5
188
330
1F
100
AcDbEntity
  8
0
  6
Continuous
 62
     7
370
    25
100
AcDbSpline
210
0.0
220
0.0
230
1.0
 70
    24
 71
     3
 72
     8
 73
     4
 74
     0
 42
0.00000001
 43
0.00000001
 40
0.0000002670387239
 40
0.0000002670387239
 40
0.0000002670387239
 40
0.0000002670387239
 40
0.0011888943391579
 40
0.0011888943391579
 40
0.0011888943391579
 40
0.0011888943391579
 10
524.9875868450774
 20
507.8433558186646
 30
0.0
 10
525.0599948926819
 20
508.1400901830585
 30
0.0
 10
525.1328303745208
 20
508.4385762094581
 30
0.0
 10
525.2061890243059
 20
508.7392062227912
 30
0.0
  0
ARC
  5
189
330
1F
100
AcDbEntity
  8
0
  6
Continuous
 62
     7
370
    25
100
AcDbCircle
 10
533.9796392334
 20
515.9398361556
 30
0.0
 40
12.09999999999997
100
AcDbArc
 50
216.0
 51
222.0
  0
SPLINE
  5
18A
330
1F
100
AcDbEntity
  8
0
  6
Continuous
 62
     7
370
    25
100
AcDbSpline
210
0.0
220
0.0
230
1.0
 70
    24
 71
     3
 72
     8
 73
     4
 74
     0
 42
0.00000001
 43
0.00000001
 40
0.0000003202490065
 40
0.0000003202490065
 40
0.0000003202490065
 40
0.0000003202490065
 40
0.0011889475494404
 40
0.0011889475494404
 40
0.0011889475494404
 40
0.0011889475494404
 10
525.1122574735298
 20
508.8552020277537
 30
0.0
 10
524.8029448263665
 20
508.845950934856
 30
0.0
 10
524.4958380876103
 20
508.836765817481
 30
0.0
 10
524.190533601417
 20
508.8276346028678
 30
0.0
  0
ARC
  5
18B
330
1F
100
AcDbEntity
  8
0
  6
Continuous
 62
     7
370
    25
100
AcDbCircle
 10
533.9796392334
 20
515.9398361556
 30
0.0
 40
11.35000000000008
100
AcDbArc
 50
218.6232618566
 51
219.3767381434
  0
SPLINE
  5
18C
330
1F
100
AcDbEntity
  8
0
  6
Continuous
 62
     7
370
    25
100
AcDbSpline
210
0.0
220
0.0
230
1.0
 70
    24
 71
     3
 72
     8
 73
     4
 74
     0
 42
0.00000001
 43
0.00000001
 40
0.0000002601545755
 40
0.0000002601545755
 40
0.0000002601545755
 40
0.0000002601545755
 40
0.0011888874550094
 40
0.0011888874550094
 40
0.0011888874550094
 40
0.0011888874550094
 10
527.9296392333539
 20
505.4609287698151
 30
0.0
 10
527.9068074174476
 20
505.7655152379199
 30
0.0
 10
527.8838408223271
 20
506.0718997200321
 30
0.0
 10
527.8607092610928
 20
506.3804849226744
 30
0.0
  0
ARC
  5
18D
330
1F
100
AcDbEntity
  8
0
  6
Continuous
 62
     7
370
    25
100
AcDbCircle
 10
533.9796392334
 20
515.9398361556
 30
0.0
 40
12.1
100
AcDbArc
 50
234.0
 51
240.0
  0
SPLINE
  5
18E
330
1F
100
AcDbEntity
  8
0
  6
Continuous
 62
     7
370
    25
100
AcDbSpline
210
0.0
220
0.0
230
1.0
 70
    24
 71
     3
 72
     8
 73
     4
 74
     0
 42
0.00000001
 43
0.00000001
 40
0.0000003202490062
 40
0.0000003202490062
 40
0.0000003202490062
 40
0.0000003202490062
 40
0.0011889475494402
 40
0.0011889475494402
 40
0.0011889475494402
 40
0.0011889475494402
 10
527.7355303726316
 20
506.4617770433491
 30
0.0
 10
527.4442153088966
 20
506.3573958666173
 30
0.0
 10
527.1549778011686
 20
506.2537590995222
 30
0.0
 10
526.8674376806149
 20
506.1507305236699
 30
0.0
  0
ARC
  5
18F
330
1F
100
AcDbEntity
  8
0
  6
Continuous
 62
     7
370
    25
100
AcDbCircle
 10
533.9796392334
 20
515.9398361556
 30
0.0
 40
11.35000000000004
100
AcDbArc
 50
236.6232618566
 51
237.3767381434
  0
SPLINE
  5
190
330
1F
100
AcDbEntity
  8
0
  6
Continuous
 62
     7
370
    25
100
AcDbSpline
210
0.0
220
0.0
230
1.0
 70
    24
 71
     3
 72
     8
 73
     4
 74
     0
 42
0.00000001
 43
0.00000001
 40
0.0000003139884087
 40
0.0000003139884087
 40
0.0000003139884087
 40
0.0000003139884087
 40
0.0011889412888428
 40
0.0011889412888428
 40
0.0011889412888428
 40
0.0011889412888428
 10
535.2444336388924
 20
503.9061212216507
 30
0.0
 10
535.046930877812
 20
504.1391166459314
 30
0.0
 10
534.8482622319398
 20
504.3734874728658
 30
0.0
 10
534.6481665746059
 20
504.60954175546
 30
0.0
  0
ARC
  5
191
330
1F
100
AcDbEntity
  8
0
  6
Continuous
 62
     7
370
    25
100
AcDbCircle
 10
533.9796392334
 20
515.9398361556
 30
0.0
 40
12.09999999999995
100
AcDbArc
 50
270.0
 51
276.0
  0
SPLINE
  5
192
330
1F
100
AcDbEntity
  8
0
  6
Continuous
 62
     7
370
    25
100
AcDbSpline
210
0.0
220
0.0
230
1.0
 70
    24
 71
     3
 72
     8
 73
     4
 74
     0
 42
0.00000001
 43
0.00000001
 40
0.0000003202490055
 40
0.0000003202490055
 40
0.0000003202490055
 40
0.0000003202490055
 40
0.0011889475494396
 40
0.0011889475494396
 40
0.0011889475494396
 40
0.0011889475494396
 10
534.4991124168439
 20
504.6017301580588
 30
0.0
 10
534.3247872958646
 20
504.3460533139558
 30
0.0
 10
534.1517053999956
 20
504.0921998666814
 30
0.0
 10
533.9796392333539
 20
503.8398361556069
 30
0.0
  0
ARC
  5
193
330
1F
100
AcDbEntity
  8
0
  6
Continuous
 62
     7
370
    25
100
AcDbCircle
 10
533.9796392334
 20
515.9398361556
 30
0.0
 40
11.35000000000001
100
AcDbArc
 50
272.6232618566
 51
273.3767381434
  0
SPLINE
  5
194
330
1F
100
AcDbEntity
  8
0
  6
Continuous
 62
     7
370
    25
100
AcDbSpline
210
0.0
220
0.0
230
1.0
 70
    24
 71
     3
 72
     8
 73
     4
 74
     0
 42
0.00000001
 43
0.00000001
 40
0.0000003049601736
 40
0.0000003049601736
 40
0.0000003049601736
 40
0.0000003049601736
 40
0.0011889322606077
 40
0.0011889322606077
 40
0.0011889322606077
 40
0.0011889322606077
 10
538.9011526145711
 20
504.8859361181314
 30
0.0
 10
538.6413167809449
 20
505.0464962250506
 30
0.0
 10
538.3799471021961
 20
505.2080041394121
 30
0.0
 10
538.1167000384897
 20
505.3706721444559
 30
0.0
  0
ARC
  5
195
330
1F
100
AcDbEntity
  8
0
  6
Continuous
 62
     7
370
    25
100
AcDbCircle
 10
533.9796392334
 20
515.9398361556
 30
0.0
 40
12.10000000000003
100
AcDbArc
 50
288.0
 51
294.0
  0
SPLINE
  5
196
330
1F
100
AcDbEntity
  8
0
  6
Continuous
 62
     7
370
    25
100
AcDbSpline
210
0.0
220
0.0
230
1.0
 70
    24
 71
     3
 72
     8
 73
     4
 74
     0
 42
0.00000001
 43
0.00000001
 40
0.0000003202490063
 40
0.0000003202490063
 40
0.0000003202490063
 40
0.0000003202490063
 40
0.0011889475494403
 40
0.0011889475494403
 40
0.0011889475494403
 40
0.0011889475494403
 10
537.9773550268194
 20
505.3171826060141
 30
0.0
 10
537.8905704744541
 20
505.020150052435
 30
0.0
 10
537.8044048388238
 20
504.7252358299788
 30
0.0
 10
537.7187448652907
 20
504.4320523084356
 30
0.0
  0
ARC
  5
197
330
1F
100
AcDbEntity
  8
0
  6
Continuous
 62
     7
370
    25
100
AcDbCircle
 10
533.9796392334
 20
515.9398361556
 30
0.0
 40
11.35000000000007
100
AcDbArc
 50
290.6232618566
 51
291.3767381434
  0
SPLINE
  5
198
330
1F
100
AcDbEntity
  8
0
  6
Continuous
 62
     7
370
    25
100
AcDbSpline
210
0.0
220
0.0
230
1.0
 70
    24
 71
     3
 72
     8
 73
     4
 74
     0
 42
0.00000001
 43
0.00000001
 40
0.0000002670387239
 40
0.0000002670387239
 40
0.0000002670387239
 40
0.0000002670387239
 40
0.0011888943391579
 40
0.0011888943391579
 40
0.0011888943391579
 40
0.0011888943391579
 10
542.076119570296
 20
506.9477837673304
 30
0.0
 10
541.779385205902
 20
507.0201918149349
 30
0.0
 10
541.4808991795023
 20
507.093027296774
 30
0.0
 10
541.1802691661693
 20
507.166385946559
 30
0.0
  0
ARC
  5
199
330
1F
100
AcDbEntity
  8
0
  6
Continuous
 62
     7
370
    25
100
AcDbCircle
 10
533.9796392334
 20
515.9398361556
 30
0.0
 40
12.09999999999998
100
AcDbArc
 50
306.0
 51
312.0
  0
SPLINE
  5
19A
330
1F
100
AcDbEntity
  8
0
  6
Continuous
 62
     7
370
    25
100
AcDbSpline
210
0.0
220
0.0
230
1.0
 70
    24
 71
     3
 72
     8
 73
     4
 74
     0
 42
0.00000001
 43
0.00000001
 40
0.0000003202490065
 40
0.0000003202490065
 40
0.0000003202490065
 40
0.0000003202490065
 40
0.0011889475494404
 40
0.0011889475494404
 40
0.0011889475494404
 40
0.0011889475494404
 10
541.0642733612069
 20
507.0724543957829
 30
0.0
 10
541.0735244541045
 20
506.7631417486196
 30
0.0
 10
541.0827095714794
 20
506.4560350098635
 30
0.0
 10
541.0918407860927
 20
506.15073052367
 30
0.0
  0
ARC
  5
19B
330
1F
100
AcDbEntity
  8
0
  6
Continuous
 62
     7
370
    25
100
AcDbCircle
 10
533.9796392334
 20
515.9398361556
 30
0.0
 40
11.35000000000003
100
AcDbArc
 50
308.6232618566
 51
309.3767381434
  0
ARC
  5
19C
330
1F
100
AcDbEntity
  8
0
  6
Continuous
 62
     7
370
    25
100
AcDbCircle
 10
533.9796392334
 20
515.9398361556
 30
0.0
 40
12.10000000000002
100
AcDbArc
 50
324.0
 51
330.0
  0
SPLINE
  5
19D
330
1F
100
AcDbEntity
  8
0
  6
Continuous
 62
     7
370
    25
100
AcDbSpline
210
0.0
220
0.0
230
1.0
 70
    24
 71
     3
 72
     8
 73
     4
 74
     0
 42
0.00000001
 43
0.00000001
 40
0.0000003202490062
 40
0.0000003202490062
 40
0.0000003202490062
 40
0.0000003202490062
 40
0.0011889475494402
 40
0.0011889475494402
 40
0.0011889475494402
 40
0.0011889475494402
 10
543.4576983456116
 20
509.6957272948848
 30
0.0
 10
543.5620795223433
 20
509.4044122311496
 30
0.0
 10
543.6657162894383
 20
509.1151747234216
 30
0.0
 10
543.7687448652907
 20
508.827634602868
 30
0.0
  0
ARC
  5
19E
330
1F
100
AcDbEntity
  8
0
  6
Continuous
 62
     7
370
    25
100
AcDbCircle
 10
533.9796392334
 20
515.9398361556
 30
0.0
 40
11.35000000000006
100
AcDbArc
 50
326.6232618566
 51
327.3767381434
  0
SPLINE
  5
19F
330
1F
100
AcDbEntity
  8
0
  6
Continuous
 62
     7
370
    25
100
AcDbSpline
210
0.0
220
0.0
230
1.0
 70
    24
 71
     3
 72
     8
 73
     4
 74
     0
 42
0.00000001
 43
0.00000001
 40
0.0000002601545755
 40
0.0000002601545755
 40
0.0000002601545755
 40
0.0000002601545755
 40
0.0011888874550094
 40
0.0011888874550094
 40
0.0011888874550094
 40
0.0011888874550094
 10
544.4585466191455
 20
509.8898361556069
 30
0.0
 10
544.1539601510407
 20
509.8670043397007
 30
0.0
 10
543.8475756689285
 20
509.8440377445802
 30
0.0
 10
543.5389904662861
 20
509.8209061833459
 30
0.0
  0
ARC
  5
1A0
330
1F
100
AcDbEntity
  8
0
  6
Continuous
 62
     7
370
    25
100
AcDbCircle
 10
635.5796392334
 20
515.9398361556
 30
0.0
 40
12.09999999999992
100
AcDbArc
 50
162.0
 51
168.0
  0
SPLINE
  5
1A1
330
1F
100
AcDbEntity
  8
0
  6
Continuous
 62
     7
370
    25
100
AcDbSpline
210
0.0
220
0.0
230
1.0
 70
    24
 71
     3
 72
     8
 73
     4
 74
     0
 42
0.00000001
 43
0.00000001
 40
0.0000003279386314
 40
0.0000003279386314
 40
0.0000003279386314
 40
0.0000003279386314
 40
0.0011889552390655
 40
0.0011889552390655
 40
0.0011889552390655
 40
0.0011889552390655
 10
624.0718553861824
 20
519.6789417875437
 30
0.0
 10
624.2586961684272
 20
519.4373124630395
 30
0.0
 10
624.4466398963991
 20
519.1942567688322
 30
0.0
 10
624.6359336001201
 20
518.9494552366749
 30
0.0
  0
ARC
  5
1A2
330
1F
100
AcDbEntity
  8
0
  6
Continuous
 62
     7
370
    25
100
AcDbCircle
 10
635.5796392334
 20
515.9398361556
 30
0.0
 40
11.34999999999986
100
AcDbArc
 50
164.6232618566
 51
165.3767381434
  0
SPLINE
  5
1A3
330
1F
100
AcDbEntity
  8
0
  6
Continuous
 62
     7
370
    25
100
AcDbSpline
210
0.0
220
0.0
230
1.0
 70
    24
 71
     3
 72
     8
 73
     4
 74
     0
 42
0.00000001
 43
0.00000001
 40
0.0000003202490061
 40
0.0000003202490061
 40
0.0000003202490061
 40
0.0000003202490061
 40
0.0011889475494402
 40
0.0011889475494402
 40
0.0011889475494402
 40
0.0011889475494402
 10
624.5973026029005
 20
518.8052823923043
 30
0.0
 10
624.3109686806231
 20
518.6879248984311
 30
0.0
 10
624.0266767906136
 20
518.5714043566992
 30
0.0
 10
623.7440532644747
 20
518.4555676145018
 30
0.0
  0
ARC
  5
1A4
330
1F
100
AcDbEntity
  8
0
  6
Continuous
 62
     7
370
    25
100
AcDbCircle
 10
635.5796392334
 20
515.9398361556
 30
0.0
 40
12.09999999999994
100
AcDbArc
 50
144.0
 51
150.0
  0
SPLINE
  5
1A5
330
1F
100
AcDbEntity
  8
0
  6
Continuous
 62
     7
370
    25
100
AcDbSpline
210
0.0
220
0.0
230
1.0
 70
    24
 71
     3
 72
     8
 73
     4
 74
     0
 42
0.00000001
 43
0.00000001
 40
0.0000002755774367
 40
0.0000002755774367
 40
0.0000002755774367
 40
0.0000002755774367
 40
0.0011889028778707
 40
0.0011889028778707
 40
0.0011889028778707
 40
0.0011889028778707
 10
625.7905336014169
 20
523.0520377083458
 30
0.0
 10
625.8935621772692
 20
522.7644975877921
 30
0.0
 10
625.9971989443643
 20
522.4752600800641
 30
0.0
 10
626.101580121096
 20
522.183945016329
 30
0.0
  0
ARC
  5
1A6
330
1F
100
AcDbEntity
  8
0
  6
Continuous
 62
     7
370
    25
100
AcDbCircle
 10
635.5796392334
 20
515.9398361556
 30
0.0
 40
11.34999999999994
100
AcDbArc
 50
146.6232618566
 51
147.3767381434
  0
SPLINE
  5
1A7
330
1F
100
AcDbEntity
  8
0
  6
Continuous
 62
     7
370
    25
100
AcDbSpline
210
0.0
220
0.0
230
1.0
 70
    24
 71
     3
 72
     8
 73
     4
 74
     0
 42
0.00000001
 43
0.00000001
 40
0.0000003202490065
 40
0.0000003202490065
 40
0.0000003202490065
 40
0.0000003202490065
 40
0.0011889475494404
 40
0.0011889475494404
 40
0.0011889475494404
 40
0.0011889475494404
 10
626.0202880004214
 20
522.0587661278679
 30
0.0
 10
625.7117027977791
 20
522.0356345666335
 30
0.0
 10
625.4053183156669
 20
522.012667971513
 30
0.0
 10
625.1007318475621
 20
521.9898361556068
 30
0.0
  0
ARC
  5
1A8
330
1F
100
AcDbEntity
  8
0
  6
Continuous
 62
     7
370
    25
100
AcDbCircle
 10
635.5796392334
 20
515.9398361556
 30
0.0
 40
12.09999999999996
100
AcDbArc
 50
126.0
 51
132.0
  0
SPLINE
  5
1A9
330
1F
100
AcDbEntity
  8
0
  6
Continuous
 62
     7
370
    25
100
AcDbSpline
210
0.0
220
0.0
230
1.0
 70
    24
 71
     3
 72
     8
 73
     4
 74
     0
 42
0.00000001
 43
0.00000001
 40
0.0000002595427406
 40
0.0000002595427406
 40
0.0000002595427406
 40
0.0000002595427406
 40
0.0011888868431745
 40
0.0011888868431745
 40
0.0011888868431745
 40
0.0011888868431745
 10
628.4674376806148
 20
525.7289417875436
 30
0.0
 10
628.4765688952282
 20
525.4236373013503
 30
0.0
 10
628.4857540126031
 20
525.1165305625941
 30
0.0
 10
628.4950051055007
 20
524.8072179154308
 30
0.0
  0
ARC
  5
1AA
330
1F
100
AcDbEntity
  8
0
  6
Continuous
 62
     7
370
    25
100
AcDbCircle
 10
635.5796392334
 20
515.9398361556
 30
0.0
 40
11.34999999999997
100
AcDbArc
 50
128.6232618566
 51
129.3767381434
  0
SPLINE
  5
1AB
330
1F
100
AcDbEntity
  8
0
  6
Continuous
 62
     7
370
    25
100
AcDbSpline
210
0.0
220
0.0
230
1.0
 70
    24
 71
     3
 72
     8
 73
     4
 74
     0
 42
0.00000001
 43
0.00000001
 40
0.0000003202490064
 40
0.0000003202490064
 40
0.0000003202490064
 40
0.0000003202490064
 40
0.0011889475494404
 40
0.0011889475494404
 40
0.0011889475494404
 40
0.0011889475494404
 10
628.3790093005382
 20
524.7132863646547
 30
0.0
 10
628.0783792872053
 20
524.7866450144397
 30
0.0
 10
627.7798932608055
 20
524.8594804962787
 30
0.0
 10
627.4831588964116
 20
524.9318885438832
 30
0.0
  0
ARC
  5
1AC
330
1F
100
AcDbEntity
  8
0
  6
Continuous
 62
     7
370
    25
100
AcDbCircle
 10
635.5796392334
 20
515.9398361556
 30
0.0
 40
12.09999999999985
100
AcDbArc
 50
108.0
 51
114.0
  0
SPLINE
  5
1AD
330
1F
100
AcDbEntity
  8
0
  6
Continuous
 62
     7
370
    25
100
AcDbSpline
210
0.0
220
0.0
230
1.0
 70
    24
 71
     3
 72
     8
 73
     4
 74
     0
 42
0.00000001
 43
0.00000001
 40
0.0000002702729228
 40
0.0000002702729228
 40
0.0000002702729228
 40
0.0000002702729228
 40
0.0011888975733568
 40
0.0011888975733568
 40
0.0011888975733568
 40
0.0011888975733568
 10
631.840533601417
 20
527.4476200027781
 30
0.0
 10
631.754873627884
 20
527.1544364812349
 30
0.0
 10
631.6687079922535
 20
526.8595222587786
 30
0.0
 10
631.5819234398882
 20
526.5624897051996
 30
0.0
  0
ARC
  5
1AE
330
1F
100
AcDbEntity
  8
0
  6
Continuous
 62
     7
370
    25
100
AcDbCircle
 10
635.5796392334
 20
515.9398361556
 30
0.0
 40
11.34999999999995
100
AcDbArc
 50
110.6232618566
 51
111.3767381434
  0
SPLINE
  5
1AF
330
1F
100
AcDbEntity
  8
0
  6
Continuous
 62
     7
370
    25
100
AcDbSpline
210
0.0
220
0.0
230
1.0
 70
    24
 71
     3
 72
     8
 73
     4
 74
     0
 42
0.00000001
 43
0.00000001
 40
0.0000003202490057
 40
0.0000003202490057
 40
0.0000003202490057
 40
0.0000003202490057
 40
0.0011889475494398
 40
0.0011889475494398
 40
0.0011889475494398
 40
0.0011889475494398
 10
631.4425784282179
 20
526.5090001667577
 30
0.0
 10
631.1793313645115
 20
526.6716681718016
 30
0.0
 10
630.9179616857627
 20
526.833176086163
 30
0.0
 10
630.6581258521367
 20
526.9937361930822
 30
0.0
  0
ARC
  5
1B0
330
1F
100
AcDbEntity
  8
0
  6
Continuous
 62
     7
370
    25
100
AcDbCircle
 10
635.5796392334
 20
515.9398361556
 30
0.0
 40
12.09999999999992
100
AcDbArc
 50
90.0
 51
96.0
  0
ARC
  5
1B1
330
1F
100
AcDbEntity
  8
0
  6
Continuous
 62
     7
370
    25
100
AcDbCircle
 10
635.5796392334
 20
515.9398361556
 30
0.0
 40
11.35000000000001
100
AcDbArc
 50
92.6232618566
 51
93.3767381434
  0
SPLINE
  5
1B2
330
1F
100
AcDbEntity
  8
0
  6
Continuous
 62
     7
370
    25
100
AcDbSpline
210
0.0
220
0.0
230
1.0
 70
    24
 71
     3
 72
     8
 73
     4
 74
     0
 42
0.00000001
 43
0.00000001
 40
0.0000003202490055
 40
0.0000003202490055
 40
0.0000003202490055
 40
0.0000003202490055
 40
0.0011889475494397
 40
0.0011889475494397
 40
0.0011889475494397
 40
0.0011889475494397
 10
634.9111118921016
 20
527.2701305557537
 30
0.0
 10
634.7110162347678
 20
527.5061848383477
 30
0.0
 10
634.5123475888956
 20
527.7405556652823
 30
0.0
 10
634.3148448278153
 20
527.9735510895629
 30
0.0
  0
SPLINE
  5
1B3
330
1F
100
AcDbEntity
  8
0
  6
Continuous
 62
     7
370
    25
100
AcDbSpline
210
0.0
220
0.0
230
1.0
 70
    24
 71
     3
 72
     8
 73
     4
 74
     0
 42
0.00000001
 43
0.00000001
 40
0.0000003139884087
 40
0.0000003139884087
 40
0.0000003139884087
 40
0.0000003139884087
 40
0.0011889412888428
 40
0.0011889412888428
 40
0.0011889412888428
 40
0.0011889412888428
 10
635.5796392333538
 20
528.0398361556067
 30
0.0
 10
635.4075730667121
 20
527.7874724445321
 30
0.0
 10
635.2344911708432
 20
527.5336189972578
 30
0.0
 10
635.0601660498638
 20
527.2779421531549
 30
0.0
  0
ARC
  5
1B4
330
1F
100
AcDbEntity
  8
0
  6
Continuous
 62
     7
370
    25
100
AcDbCircle
 10
635.5796392334
 20
515.9398361556
 30
0.0
 40
12.09999999999992
100
AcDbArc
 50
72.0
 51
78.0
  0
SPLINE
  5
1B5
330
1F
100
AcDbEntity
  8
0
  6
Continuous
 62
     7
370
    25
100
AcDbSpline
210
0.0
220
0.0
230
1.0
 70
    24
 71
     3
 72
     8
 73
     4
 74
     0
 42
0.00000001
 43
0.00000001
 40
0.0
 40
0.0
 40
0.0
 40
0.0
 40
1.0
 40
1.0
 40
1.0
 40
1.0
 10
639.3187448652906
 20
527.4476200027781
 30
0.0
 10
639.0771083507219
 20
527.260773660789
 30
0.0
 10
638.8340683435396
 20
527.0728420628678
 30
0.0
 10
638.589258314422
 20
526.8835417888405
 30
0.0
  0
ARC
  5
1B6
330
1F
100
AcDbEntity
  8
0
  6
Continuous
 62
     7
370
    25
100
AcDbCircle
 10
635.5796392334
 20
515.9398361556
 30
0.0
 40
11.35000000000005
100
AcDbArc
 50
74.6232618566
 51
75.3767381434
  0
SPLINE
  5
1B7
330
1F
100
AcDbEntity
  8
0
  6
Continuous
 62
     7
370
    25
100
AcDbSpline
210
0.0
220
0.0
230
1.0
 70
    24
 71
     3
 72
     8
 73
     4
 74
     0
 42
0.00000001
 43
0.00000001
 40
0.0000003202490061
 40
0.0000003202490061
 40
0.0000003202490061
 40
0.0000003202490061
 40
0.0011889475494402
 40
0.0011889475494402
 40
0.0011889475494402
 40
0.0011889475494402
 10
638.4450854700511
 20
526.9221727860602
 30
0.0
 10
638.327727976178
 20
527.2085067083375
 30
0.0
 10
638.2112074344462
 20
527.4927985983469
 30
0.0
 10
638.0953706922486
 20
527.7754221244858
 30
0.0
  0
ARC
  5
1B8
330
1F
100
AcDbEntity
  8
0
  6
Continuous
 62
     7
370
    25
100
AcDbCircle
 10
635.5796392334
 20
515.9398361556
 30
0.0
 40
12.10000000000006
100
AcDbArc
 50
54.0
 51
60.0
  0
ARC
  5
1B9
330
1F
100
AcDbEntity
  8
0
  6
Continuous
 62
     7
370
    25
100
AcDbCircle
 10
635.5796392334
 20
515.9398361556
 30
0.0
 40
11.35000000000003
100
AcDbArc
 50
56.6232618566
 51
57.3767381434
  0
SPLINE
  5
1BA
330
1F
100
AcDbEntity
  8
0
  6
Continuous
 62
     7
370
    25
100
AcDbSpline
210
0.0
220
0.0
230
1.0
 70
    24
 71
     3
 72
     8
 73
     4
 74
     0
 42
0.00000001
 43
0.00000001
 40
0.0000003202490065
 40
0.0000003202490065
 40
0.0000003202490065
 40
0.0000003202490065
 40
0.0011889475494405
 40
0.0011889475494405
 40
0.0011889475494405
 40
0.0011889475494405
 10
641.6985692056148
 20
525.4991873885391
 30
0.0
 10
641.6754376443805
 20
525.8077725911813
 30
0.0
 10
641.65247104926
 20
526.1141570732937
 30
0.0
 10
641.6296392333538
 20
526.4187435413984
 30
0.0
  0
SPLINE
  5
1BB
330
1F
100
AcDbEntity
  8
0
  6
Continuous
 62
     7
370
    25
100
AcDbSpline
210
0.0
220
0.0
230
1.0
 70
    24
 71
     3
 72
     8
 73
     4
 74
     0
 42
0.00000001
 43
0.00000001
 40
0.0000002755774367
 40
0.0000002755774367
 40
0.0000002755774367
 40
0.0000002755774367
 40
0.0011889028778707
 40
0.0011889028778707
 40
0.0011889028778707
 40
0.0011889028778707
 10
642.6918407860926
 20
525.7289417875436
 30
0.0
 10
642.4043006655392
 20
525.6259132116912
 30
0.0
 10
642.115063157811
 20
525.5222764445963
 30
0.0
 10
641.823748094076
 20
525.4178952678644
 30
0.0
  0
ARC
  5
1BC
330
1F
100
AcDbEntity
  8
0
  6
Continuous
 62
     7
370
    25
100
AcDbCircle
 10
635.5796392334
 20
515.9398361556
 30
0.0
 40
12.10000000000005
100
AcDbArc
 50
36.0
 51
42.0
  0
ARC
  5
1BD
330
1F
100
AcDbEntity
  8
0
  6
Continuous
 62
     7
370
    25
100
AcDbCircle
 10
635.5796392334
 20
515.9398361556
 30
0.0
 40
11.35000000000015
100
AcDbArc
 50
38.6232618566
 51
39.3767381434
  0
SPLINE
  5
1BE
330
1F
100
AcDbEntity
  8
0
  6
Continuous
 62
     7
370
    25
100
AcDbSpline
210
0.0
220
0.0
230
1.0
 70
    24
 71
     3
 72
     8
 73
     4
 74
     0
 42
0.00000001
 43
0.00000001
 40
0.0000003202490064
 40
0.0000003202490064
 40
0.0000003202490064
 40
0.0000003202490064
 40
0.0011889475494404
 40
0.0011889475494404
 40
0.0011889475494404
 40
0.0011889475494404
 10
644.3530894424017
 20
523.1404660884223
 30
0.0
 10
644.4264480921867
 20
523.4410961017554
 30
0.0
 10
644.4992835740258
 20
523.739582128155
 30
0.0
 10
644.5716916216302
 20
524.0363164925488
 30
0.0
  0
SPLINE
  5
1BF
330
1F
100
AcDbEntity
  8
0
  6
Continuous
 62
     7
370
    25
100
AcDbSpline
210
0.0
220
0.0
230
1.0
 70
    24
 71
     3
 72
     8
 73
     4
 74
     0
 42
0.00000001
 43
0.00000001
 40
0.0000002595427406
 40
0.0000002595427406
 40
0.0000002595427406
 40
0.0000002595427406
 40
0.0011888868431745
 40
0.0011888868431745
 40
0.0011888868431745
 40
0.0011888868431745
 10
645.3687448652906
 20
523.0520377083457
 30
0.0
 10
645.0634403790972
 20
523.0429064937323
 30
0.0
 10
644.7563336403412
 20
523.0337213763574
 30
0.0
 10
644.4470209931778
 20
523.0244702834598
 30
0.0
  0
ARC
  5
1C0
330
1F
100
AcDbEntity
  8
0
  6
Continuous
 62
     7
370
    25
100
AcDbCircle
 10
635.5796392334
 20
515.9398361556
 30
0.0
 40
12.1000000000001
100
AcDbArc
 50
18.0
 51
24.0
  0
ARC
  5
1C1
330
1F
100
AcDbEntity
  8
0
  6
Continuous
 62
     7
370
    25
100
AcDbCircle
 10
635.5796392334
 20
515.9398361556
 30
0.0
 40
11.35000000000013
100
AcDbArc
 50
20.6232618566
 51
21.3767381434
  0
SPLINE
  5
1C2
330
1F
100
AcDbEntity
  8
0
  6
Continuous
 62
     7
370
    25
100
AcDbSpline
210
0.0
220
0.0
230
1.0
 70
    24
 71
     3
 72
     8
 73
     4
 74
     0
 42
0.00000001
 43
0.00000001
 40
0.0000003202490055
 40
0.0000003202490055
 40
0.0000003202490055
 40
0.0000003202490055
 40
0.0011889475494397
 40
0.0011889475494397
 40
0.0011889475494397
 40
0.0011889475494397
 10
646.1488032445047
 20
520.0768969607427
 30
0.0
 10
646.3114712495486
 20
520.3401440244489
 30
0.0
 10
646.47297916391
 20
520.6015137031977
 30
0.0
 10
646.6335392708293
 20
520.8613495368239
 30
0.0
  0
SPLINE
  5
1C3
330
1F
100
AcDbEntity
  8
0
  6
Continuous
 62
     7
370
    25
100
AcDbSpline
210
0.0
220
0.0
230
1.0
 70
    24
 71
     3
 72
     8
 73
     4
 74
     0
 42
0.00000001
 43
0.00000001
 40
0.0000002702729228
 40
0.0000002702729228
 40
0.0000002702729228
 40
0.0000002702729228
 40
0.0011888975733568
 40
0.0011888975733568
 40
0.0011888975733568
 40
0.0011888975733568
 10
647.0874230805251
 20
519.6789417875436
 30
0.0
 10
646.7942395589819
 20
519.7646017610766
 30
0.0
 10
646.4993253365255
 20
519.8507673967069
 30
0.0
 10
646.2022927829465
 20
519.9375519490724
 30
0.0
  0
ARC
  5
1C4
330
1F
100
AcDbEntity
  8
0
  6
Continuous
 62
     7
370
    25
100
AcDbCircle
 10
635.5796392334
 20
515.9398361556
 30
0.0
 40
12.10000000000004
100
AcDbArc
 50
0.0
 51
6.0
  0
ARC
  5
1C5
330
1F
100
AcDbEntity
  8
0
  6
Continuous
 62
     7
370
    25
100
AcDbCircle
 10
635.5796392334
 20
515.9398361556
 30
0.0
 40
11.35000000000013
100
AcDbArc
 50
2.6232618566
 51
3.3767381434
  0
SPLINE
  5
1C6
330
1F
100
AcDbEntity
  8
0
  6
Continuous
 62
     7
370
    25
100
AcDbSpline
210
0.0
220
0.0
230
1.0
 70
    24
 71
     3
 72
     8
 73
     4
 74
     0
 42
0.00000001
 43
0.00000001
 40
0.0000003202490055
 40
0.0000003202490055
 40
0.0000003202490055
 40
0.0000003202490055
 40
0.0011889475494397
 40
0.0011889475494397
 40
0.0011889475494397
 40
0.0011889475494397
 10
646.9099336335006
 20
516.6083634968588
 30
0.0
 10
647.1459879160948
 20
516.8084591541926
 30
0.0
 10
647.3803587430291
 20
517.0071278000648
 30
0.0
 10
647.6133541673098
 20
517.2046305611453
 30
0.0
  0
SPLINE
  5
1C7
330
1F
100
AcDbEntity
  8
0
  6
Continuous
 62
     7
370
    25
100
AcDbSpline
210
0.0
220
0.0
230
1.0
 70
    24
 71
     3
 72
     8
 73
     4
 74
     0
 42
0.00000001
 43
0.00000001
 40
0.000000313989615
 40
0.000000313989615
 40
0.000000313989615
 40
0.000000313989615
 40
0.0011889412900492
 40
0.0011889412900492
 40
0.0011889412900492
 40
0.0011889412900492
 10
647.6796392333537
 20
515.9398361556068
 30
0.0
 10
647.427275522279
 20
516.1119023222486
 30
0.0
 10
647.1734220750049
 20
516.2849842181174
 30
0.0
 10
646.9177452309018
 20
516.4593093390968
 30
0.0
  0
ARC
  5
1C8
330
1F
100
AcDbEntity
  8
0
  6
Continuous
 62
     7
370
    25
100
AcDbCircle
 10
635.5796392334
 20
515.9398361556
 30
0.0
 40
12.10000000000013
100
AcDbArc
 50
324.0
 51
330.0
  0
SPLINE
  5
1C9
330
1F
100
AcDbEntity
  8
0
  6
Continuous
 62
     7
370
    25
100
AcDbSpline
210
0.0
220
0.0
230
1.0
 70
    24
 71
     3
 72
     8
 73
     4
 74
     0
 42
0.00000001
 43
0.00000001
 40
0.0000002755774367
 40
0.0000002755774367
 40
0.0000002755774367
 40
0.0000002755774367
 40
0.0011889028778707
 40
0.0011889028778707
 40
0.0011889028778707
 40
0.0011889028778707
 10
645.3687448652905
 20
508.8276346028678
 30
0.0
 10
645.2657162894382
 20
509.1151747234214
 30
0.0
 10
645.1620795223432
 20
509.4044122311494
 30
0.0
 10
645.0576983456114
 20
509.6957272948845
 30
0.0
  0
ARC
  5
1CA
330
1F
100
AcDbEntity
  8
0
  6
Continuous
 62
     7
370
    25
100
AcDbCircle
 10
635.5796392334
 20
515.9398361556
 30
0.0
 40
11.35000000000019
100
AcDbArc
 50
326.6232618566
 51
327.3767381434
  0
SPLINE
  5
1CB
330
1F
100
AcDbEntity
  8
0
  6
Continuous
 62
     7
370
    25
100
AcDbSpline
210
0.0
220
0.0
230
1.0
 70
    24
 71
     3
 72
     8
 73
     4
 74
     0
 42
0.00000001
 43
0.00000001
 40
0.0000003202490065
 40
0.0000003202490065
 40
0.0000003202490065
 40
0.0000003202490065
 40
0.0011889475494404
 40
0.0011889475494404
 40
0.0011889475494404
 40
0.0011889475494404
 10
645.138990466286
 20
509.8209061833456
 30
0.0
 10
645.4475756689283
 20
509.84403774458
 30
0.0
 10
645.7539601510406
 20
509.8670043397004
 30
0.0
 10
646.0585466191454
 20
509.8898361556067
 30
0.0
  0
SPLINE
  5
1CC
330
1F
100
AcDbEntity
  8
0
  6
Continuous
 62
     7
370
    25
100
AcDbSpline
210
0.0
220
0.0
230
1.0
 70
    24
 71
     3
 72
     8
 73
     4
 74
     0
 42
0.00000001
 43
0.00000001
 40
0.0000003202490055
 40
0.0000003202490055
 40
0.0000003202490055
 40
0.0000003202490055
 40
0.0011889475494396
 40
0.0011889475494396
 40
0.0011889475494396
 40
0.0011889475494396
 10
545.3099336335006
 20
515.2713088143549
 30
0.0
 10
545.5459879160948
 20
515.071213157021
 30
0.0
 10
545.7803587430292
 20
514.8725445111488
 30
0.0
 10
546.0133541673098
 20
514.6750417500684
 30
0.0
  0
ARC
  5
1CD
330
1F
100
AcDbEntity
  8
0
  6
Continuous
 62
     7
370
    25
100
AcDbCircle
 10
533.9796392334
 20
515.9398361556
 30
0.0
 40
11.35000000000001
100
AcDbArc
 50
356.6232618566
 51
357.3767381434
  0
SPLINE
  5
1CE
330
1F
100
AcDbEntity
  8
0
  6
Continuous
 62
     7
370
    25
100
AcDbSpline
210
0.0
220
0.0
230
1.0
 70
    24
 71
     3
 72
     8
 73
     4
 74
     0
 42
0.00000001
 43
0.00000001
 40
0.000000313989615
 40
0.000000313989615
 40
0.000000313989615
 40
0.000000313989615
 40
0.0011889412900491
 40
0.0011889412900491
 40
0.0011889412900491
 40
0.0011889412900491
 10
546.0796392333536
 20
515.9398361556068
 30
0.0
 10
545.827275522279
 20
515.767769988965
 30
0.0
 10
545.5734220750048
 20
515.5946880930961
 30
0.0
 10
545.3177452309018
 20
515.4203629721168
 30
0.0
  0
ARC
  5
1CF
330
1F
100
AcDbEntity
  8
0
  6
Continuous
 62
     7
370
    25
100
AcDbCircle
 10
533.9796392334
 20
515.9398361556
 30
0.0
 40
12.10000000000003
100
AcDbArc
 50
354.0
 51
0.0
  0
SPLINE
  5
1D0
330
1F
100
AcDbEntity
  8
0
  6
Continuous
 62
     7
370
    25
100
AcDbSpline
210
0.0
220
0.0
230
1.0
 70
    24
 71
     3
 72
     8
 73
     4
 74
     0
 42
0.00000001
 43
0.00000001
 40
0.0000003139884087
 40
0.0000003139884087
 40
0.0000003139884087
 40
0.0000003139884087
 40
0.0011889412888428
 40
0.0011889412888428
 40
0.0011889412888428
 40
0.0011889412888428
 10
546.0133541673098
 20
517.2046305611454
 30
0.0
 10
545.7803587430291
 20
517.0071278000648
 30
0.0
 10
545.5459879160948
 20
516.8084591541927
 30
0.0
 10
545.3099336335006
 20
516.6083634968588
 30
0.0
  0
ARC
  5
1D1
330
1F
100
AcDbEntity
  8
0
  6
Continuous
 62
     7
370
    25
100
AcDbCircle
 10
533.9796392334
 20
515.9398361556
 30
0.0
 40
12.09999999999994
100
AcDbArc
 50
0.0
 51
6.0
  0
ARC
  5
1D2
330
1F
100
AcDbEntity
  8
0
  6
Continuous
 62
     7
370
    25
100
AcDbCircle
 10
533.9796392334
 20
515.9398361556
 30
0.0
 40
11.35000000000001
100
AcDbArc
 50
2.6232618566
 51
3.3767381434
  0
SPLINE
  5
1D3
330
1F
100
AcDbEntity
  8
0
  6
Continuous
 62
     7
370
    25
100
AcDbSpline
210
0.0
220
0.0
230
1.0
 70
    24
 71
     3
 72
     8
 73
     4
 74
     0
 42
0.00000001
 43
0.00000001
 40
0.0000003202490055
 40
0.0000003202490055
 40
0.0000003202490055
 40
0.0000003202490055
 40
0.0011889475494397
 40
0.0011889475494397
 40
0.0011889475494397
 40
0.0011889475494397
 10
545.3177452309018
 20
516.4593093390968
 30
0.0
 10
545.5734220750048
 20
516.2849842181174
 30
0.0
 10
545.827275522279
 20
516.1119023222486
 30
0.0
 10
546.0796392333536
 20
515.9398361556068
 30
0.0
  0
SPLINE
  5
1D4
330
1F
100
AcDbEntity
  8
0
  6
Continuous
 62
     7
370
    25
100
AcDbSpline
210
0.0
220
0.0
230
1.0
 70
    24
 71
     3
 72
     8
 73
     4
 74
     0
 42
0.00000001
 43
0.00000001
 40
0.0000003139884087
 40
0.0000003139884087
 40
0.0000003139884087
 40
0.0000003139884087
 40
0.0011889412888428
 40
0.0011889412888428
 40
0.0011889412888428
 40
0.0011889412888428
 10
545.0335392708292
 20
520.8613495368239
 30
0.0
 10
544.87297916391
 20
520.6015137031977
 30
0.0
 10
544.7114712495485
 20
520.340144024449
 30
0.0
 10
544.5488032445047
 20
520.0768969607427
 30
0.0
  0
ARC
  5
1D5
330
1F
100
AcDbEntity
  8
0
  6
Continuous
 62
     7
370
    25
100
AcDbCircle
 10
533.9796392334
 20
515.9398361556
 30
0.0
 40
12.10000000000003
100
AcDbArc
 50
18.0
 51
24.0
  0
SPLINE
  5
1D6
330
1F
100
AcDbEntity
  8
0
  6
Continuous
 62
     7
370
    25
100
AcDbSpline
210
0.0
220
0.0
230
1.0
 70
    24
 71
     3
 72
     8
 73
     4
 74
     0
 42
0.00000001
 43
0.00000001
 40
0.0000003202490063
 40
0.0000003202490063
 40
0.0000003202490063
 40
0.0000003202490063
 40
0.0011889475494403
 40
0.0011889475494403
 40
0.0011889475494403
 40
0.0011889475494403
 10
544.6022927829465
 20
519.9375519490725
 30
0.0
 10
544.8993253365255
 20
519.8507673967069
 30
0.0
 10
545.1942395589818
 20
519.7646017610766
 30
0.0
 10
545.4874230805251
 20
519.6789417875437
 30
0.0
  0
ARC
  5
1D7
330
1F
100
AcDbEntity
  8
0
  6
Continuous
 62
     7
370
    25
100
AcDbCircle
 10
533.9796392334
 20
515.9398361556
 30
0.0
 40
11.35000000000003
100
AcDbArc
 50
20.6232618566
 51
21.3767381434
  0
SPLINE
  5
1D8
330
1F
100
AcDbEntity
  8
0
  6
Continuous
 62
     7
370
    25
100
AcDbSpline
210
0.0
220
0.0
230
1.0
 70
    24
 71
     3
 72
     8
 73
     4
 74
     0
 42
0.00000001
 43
0.00000001
 40
0.0000002879391795
 40
0.0000002879391795
 40
0.0000002879391795
 40
0.0000002879391795
 40
0.0011889152396135
 40
0.0011889152396135
 40
0.0011889152396135
 40
0.0011889152396135
 10
544.4585466191454
 20
521.9898361556068
 30
0.0
 10
544.3260263176824
 20
521.714640628626
 30
0.0
 10
544.1927237314391
 20
521.4378205862312
 30
0.0
 10
544.0584636497761
 20
521.1590121808938
 30
0.0
  0
ARC
  5
1D9
330
1F
100
AcDbEntity
  8
0
  6
Continuous
 62
     7
370
    25
100
AcDbCircle
 10
533.9796392334
 20
515.9398361556
 30
0.0
 40
12.09999999999999
100
AcDbArc
 50
24.0
 51
30.0
  0
SPLINE
  5
1DA
330
1F
100
AcDbEntity
  8
0
  6
Continuous
 62
     7
370
    25
100
AcDbSpline
210
0.0
220
0.0
230
1.0
 70
    24
 71
     3
 72
     8
 73
     4
 74
     0
 42
0.00000001
 43
0.00000001
 40
0.0000003202490064
 40
0.0000003202490064
 40
0.0000003202490064
 40
0.0000003202490064
 40
0.0011889475494404
 40
0.0011889475494404
 40
0.0011889475494404
 40
0.0011889475494404
 10
544.1262256868636
 20
521.0260216950315
 30
0.0
 10
544.4307025209291
 20
520.9707609138904
 30
0.0
 10
544.7330079338964
 20
520.9158942330969
 30
0.0
 10
545.0335392708292
 20
520.8613495368239
 30
0.0
  0
ARC
  5
1DB
330
1F
100
AcDbEntity
  8
0
  6
Continuous
 62
     7
370
    25
100
AcDbCircle
 10
533.9796392334
 20
515.9398361556
 30
0.0
 40
11.3500000000001
100
AcDbArc
 50
26.6232618566
 51
27.3767381434
  0
SPLINE
  5
1DC
330
1F
100
AcDbEntity
  8
0
  6
Continuous
 62
     7
370
    25
100
AcDbSpline
210
0.0
220
0.0
230
1.0
 70
    24
 71
     3
 72
     8
 73
     4
 74
     0
 42
0.00000001
 43
0.00000001
 40
0.0000002755774367
 40
0.0000002755774367
 40
0.0000002755774367
 40
0.0000002755774367
 40
0.0011889028778707
 40
0.0011889028778707
 40
0.0011889028778707
 40
0.0011889028778707
 10
543.7687448652906
 20
523.0520377083458
 30
0.0
 10
543.6657162894383
 20
522.7644975877921
 30
0.0
 10
543.5620795223432
 20
522.4752600800641
 30
0.0
 10
543.4576983456114
 20
522.183945016329
 30
0.0
  0
ARC
  5
1DD
330
1F
100
AcDbEntity
  8
0
  6
Continuous
 62
     7
370
    25
100
AcDbCircle
 10
533.9796392334
 20
515.9398361556
 30
0.0
 40
12.10000000000003
100
AcDbArc
 50
30.0
 51
36.0
  0
SPLINE
  5
1DE
330
1F
100
AcDbEntity
  8
0
  6
Continuous
 62
     7
370
    25
100
AcDbSpline
210
0.0
220
0.0
230
1.0
 70
    24
 71
     3
 72
     8
 73
     4
 74
     0
 42
0.00000001
 43
0.00000001
 40
0.0000003202490065
 40
0.0000003202490065
 40
0.0000003202490065
 40
0.0000003202490065
 40
0.0011889475494404
 40
0.0011889475494404
 40
0.0011889475494404
 40
0.0011889475494404
 10
543.538990466286
 20
522.0587661278679
 30
0.0
 10
543.8475756689284
 20
522.0356345666335
 30
0.0
 10
544.1539601510406
 20
522.012667971513
 30
0.0
 10
544.4585466191454
 20
521.9898361556068
 30
0.0
  0
ARC
  5
1DF
330
1F
100
AcDbEntity
  8
0
  6
Continuous
 62
     7
370
    25
100
AcDbCircle
 10
533.9796392334
 20
515.9398361556
 30
0.0
 40
11.35
100
AcDbArc
 50
32.6232618566
 51
33.3767381434
  0
SPLINE
  5
1E0
330
1F
100
AcDbEntity
  8
0
  6
Continuous
 62
     7
370
    25
100
AcDbSpline
210
0.0
220
0.0
230
1.0
 70
    24
 71
     3
 72
     8
 73
     4
 74
     0
 42
0.00000001
 43
0.00000001
 40
0.0000002670387239
 40
0.0000002670387239
 40
0.0000002670387239
 40
0.0000002670387239
 40
0.0011888943391579
 40
0.0011888943391579
 40
0.0011888943391579
 40
0.0011888943391579
 10
542.9716916216302
 20
524.036316492549
 30
0.0
 10
542.8992835740256
 20
523.7395821281551
 30
0.0
 10
542.8264480921866
 20
523.4410961017554
 30
0.0
 10
542.7530894424016
 20
523.1404660884223
 30
0.0
  0
ARC
  5
1E1
330
1F
100
AcDbEntity
  8
0
  6
Continuous
 62
     7
370
    25
100
AcDbCircle
 10
533.9796392334
 20
515.9398361556
 30
0.0
 40
12.10000000000003
100
AcDbArc
 50
36.0
 51
42.0
  0
SPLINE
  5
1E2
330
1F
100
AcDbEntity
  8
0
  6
Continuous
 62
     7
370
    25
100
AcDbSpline
210
0.0
220
0.0
230
1.0
 70
    24
 71
     3
 72
     8
 73
     4
 74
     0
 42
0.00000001
 43
0.00000001
 40
0.0000003202490065
 40
0.0000003202490065
 40
0.0000003202490065
 40
0.0000003202490065
 40
0.0011889475494404
 40
0.0011889475494404
 40
0.0011889475494404
 40
0.0011889475494404
 10
542.8470209931778
 20
523.0244702834598
 30
0.0
 10
543.156333640341
 20
523.0337213763576
 30
0.0
 10
543.463440379097
 20
523.0429064937324
 30
0.0
 10
543.7687448652906
 20
523.0520377083458
 30
0.0
  0
ARC
  5
1E3
330
1F
100
AcDbEntity
  8
0
  6
Continuous
 62
     7
370
    25
100
AcDbCircle
 10
533.9796392334
 20
515.9398361556
 30
0.0
 40
11.34999999999997
100
AcDbArc
 50
38.6232618566
 51
39.3767381434
  0
SPLINE
  5
1E4
330
1F
100
AcDbEntity
  8
0
  6
Continuous
 62
     7
370
    25
100
AcDbSpline
210
0.0
220
0.0
230
1.0
 70
    24
 71
     3
 72
     8
 73
     4
 74
     0
 42
0.00000001
 43
0.00000001
 40
0.0000002617953351
 40
0.0000002617953351
 40
0.0000002617953351
 40
0.0000002617953351
 40
0.0011888890957691
 40
0.0011888890957691
 40
0.0011888890957691
 40
0.0011888890957691
 10
542.0761195702959
 20
524.9318885438832
 30
0.0
 10
542.0351253686612
 20
524.6292110194411
 30
0.0
 10
541.993889172859
 20
524.3247467497371
 30
0.0
 10
541.9523567827389
 20
524.0180955521431
 30
0.0
  0
ARC
  5
1E5
330
1F
100
AcDbEntity
  8
0
  6
Continuous
 62
     7
370
    25
100
AcDbCircle
 10
533.9796392334
 20
515.9398361556
 30
0.0
 40
12.09999999999993
100
AcDbArc
 50
42.0
 51
48.0
  0
SPLINE
  5
1E6
330
1F
100
AcDbEntity
  8
0
  6
Continuous
 62
     7
370
    25
100
AcDbSpline
210
0.0
220
0.0
230
1.0
 70
    24
 71
     3
 72
     8
 73
     4
 74
     0
 42
0.00000001
 43
0.00000001
 40
0.0000003202490064
 40
0.0000003202490064
 40
0.0000003202490064
 40
0.0000003202490064
 40
0.0011889475494404
 40
0.0011889475494404
 40
0.0011889475494404
 40
0.0011889475494404
 10
542.0578986298899
 20
523.912553704992
 30
0.0
 10
542.364549827484
 20
523.9540860951121
 30
0.0
 10
542.669014097188
 20
523.9953222909141
 30
0.0
 10
542.9716916216302
 20
524.036316492549
 30
0.0
  0
ARC
  5
1E7
330
1F
100
AcDbEntity
  8
0
  6
Continuous
 62
     7
370
    25
100
AcDbCircle
 10
533.9796392334
 20
515.9398361556
 30
0.0
 40
11.35000000000003
100
AcDbArc
 50
44.6232618566
 51
45.3767381434
  0
SPLINE
  5
1E8
330
1F
100
AcDbEntity
  8
0
  6
Continuous
 62
     7
370
    25
100
AcDbSpline
210
0.0
220
0.0
230
1.0
 70
    24
 71
     3
 72
     8
 73
     4
 74
     0
 42
0.00000001
 43
0.00000001
 40
0.0000002595427406
 40
0.0000002595427406
 40
0.0000002595427406
 40
0.0000002595427406
 40
0.0011888868431745
 40
0.0011888868431745
 40
0.0011888868431745
 40
0.0011888868431745
 10
541.0918407860926
 20
525.7289417875436
 30
0.0
 10
541.0827095714793
 20
525.4236373013503
 30
0.0
 10
541.0735244541044
 20
525.1165305625941
 30
0.0
 10
541.0642733612068
 20
524.8072179154308
 30
0.0
  0
ARC
  5
1E9
330
1F
100
AcDbEntity
  8
0
  6
Continuous
 62
     7
370
    25
100
AcDbCircle
 10
533.9796392334
 20
515.9398361556
 30
0.0
 40
12.09999999999993
100
AcDbArc
 50
48.0
 51
54.0
  0
SPLINE
  5
1EA
330
1F
100
AcDbEntity
  8
0
  6
Continuous
 62
     7
370
    25
100
AcDbSpline
210
0.0
220
0.0
230
1.0
 70
    24
 71
     3
 72
     8
 73
     4
 74
     0
 42
0.00000001
 43
0.00000001
 40
0.0000003202490064
 40
0.0000003202490064
 40
0.0000003202490064
 40
0.0000003202490064
 40
0.0011889475494403
 40
0.0011889475494403
 40
0.0011889475494403
 40
0.0011889475494403
 10
541.1802691661692
 20
524.7132863646547
 30
0.0
 10
541.4808991795022
 20
524.7866450144397
 30
0.0
 10
541.7793852059019
 20
524.8594804962787
 30
0.0
 10
542.0761195702959
 20
524.9318885438832
 30
0.0
  0
ARC
  5
1EB
330
1F
100
AcDbEntity
  8
0
  6
Continuous
 62
     7
370
    25
100
AcDbCircle
 10
533.9796392334
 20
515.9398361556
 30
0.0
 40
11.34999999999997
100
AcDbArc
 50
50.6232618566
 51
51.3767381434
  0
SPLINE
  5
1EC
330
1F
100
AcDbEntity
  8
0
  6
Continuous
 62
     7
370
    25
100
AcDbSpline
210
0.0
220
0.0
230
1.0
 70
    24
 71
     3
 72
     8
 73
     4
 74
     0
 42
0.00000001
 43
0.00000001
 40
0.0000002636648993
 40
0.0000002636648993
 40
0.0000002636648993
 40
0.0000002636648993
 40
0.0011888909653333
 40
0.0011888909653333
 40
0.0011888909653333
 40
0.0011888909653333
 10
538.901152614571
 20
526.9937361930822
 30
0.0
 10
538.9556973108438
 20
526.6932048561495
 30
0.0
 10
539.0105639916374
 20
526.3908994431822
 30
0.0
 10
539.0658247727785
 20
526.0864226091165
 30
0.0
  0
ARC
  5
1ED
330
1F
100
AcDbEntity
  8
0
  6
Continuous
 62
     7
370
    25
100
AcDbCircle
 10
533.9796392334
 20
515.9398361556
 30
0.0
 40
12.09999999999995
100
AcDbArc
 50
60.0
 51
66.0
  0
SPLINE
  5
1EE
330
1F
100
AcDbEntity
  8
0
  6
Continuous
 62
     7
370
    25
100
AcDbSpline
210
0.0
220
0.0
230
1.0
 70
    24
 71
     3
 72
     8
 73
     4
 74
     0
 42
0.00000001
 43
0.00000001
 40
0.000000320249006
 40
0.000000320249006
 40
0.000000320249006
 40
0.000000320249006
 40
0.0011889475494401
 40
0.0011889475494401
 40
0.0011889475494401
 40
0.0011889475494401
 10
539.1988152586407
 20
526.018660572029
 30
0.0
 10
539.477623663978
 20
526.1529206536921
 30
0.0
 10
539.7544437063729
 20
526.2862232399355
 30
0.0
 10
540.0296392333537
 20
526.4187435413985
 30
0.0
  0
ARC
  5
1EF
330
1F
100
AcDbEntity
  8
0
  6
Continuous
 62
     7
370
    25
100
AcDbCircle
 10
533.9796392334
 20
515.9398361556
 30
0.0
 40
11.35
100
AcDbArc
 50
62.6232618566
 51
63.3767381434
  0
ARC
  5
1F0
330
1F
100
AcDbEntity
  8
0
  6
Continuous
 62
     7
370
    25
100
AcDbCircle
 10
635.5796392334
 20
515.9398361556
 30
0.0
 40
12.09999999999998
100
AcDbArc
 50
234.0
 51
240.0
  0
ARC
  5
1F1
330
1F
100
AcDbEntity
  8
0
  6
Continuous
 62
     7
370
    25
100
AcDbCircle
 10
635.5796392334
 20
515.9398361556
 30
0.0
 40
11.35000000000001
100
AcDbArc
 50
236.6232618566
 51
237.3767381434
  0
SPLINE
  5
1F2
330
1F
100
AcDbEntity
  8
0
  6
Continuous
 62
     7
370
    25
100
AcDbSpline
210
0.0
220
0.0
230
1.0
 70
    24
 71
     3
 72
     8
 73
     4
 74
     0
 42
0.00000001
 43
0.00000001
 40
0.0000002755774367
 40
0.0000002755774367
 40
0.0000002755774367
 40
0.0000002755774367
 40
0.0011889028778707
 40
0.0011889028778707
 40
0.0011889028778707
 40
0.0011889028778707
 10
628.4674376806147
 20
506.15073052367
 30
0.0
 10
628.7549778011683
 20
506.2537590995224
 30
0.0
 10
629.0442153088964
 20
506.3573958666174
 30
0.0
 10
629.3355303726314
 20
506.4617770433492
 30
0.0
  0
SPLINE
  5
1F3
330
1F
100
AcDbEntity
  8
0
  6
Continuous
 62
     7
370
    25
100
AcDbSpline
210
0.0
220
0.0
230
1.0
 70
    24
 71
     3
 72
     8
 73
     4
 74
     0
 42
0.00000001
 43
0.00000001
 40
0.0000003202490065
 40
0.0000003202490065
 40
0.0000003202490065
 40
0.0000003202490065
 40
0.0011889475494404
 40
0.0011889475494404
 40
0.0011889475494404
 40
0.0011889475494404
 10
629.4607092610926
 20
506.3804849226745
 30
0.0
 10
629.4838408223269
 20
506.0718997200322
 30
0.0
 10
629.5068074174474
 20
505.76551523792
 30
0.0
 10
629.5296392333536
 20
505.4609287698152
 30
0.0
  0
ARC
  5
1F4
330
1F
100
AcDbEntity
  8
0
  6
Continuous
 62
     7
370
    25
100
AcDbCircle
 10
635.5796392334
 20
515.9398361556
 30
0.0
 40
12.09999999999993
100
AcDbArc
 50
222.0
 51
228.0
  0
ARC
  5
1F5
330
1F
100
AcDbEntity
  8
0
  6
Continuous
 62
     7
370
    25
100
AcDbCircle
 10
635.5796392334
 20
515.9398361556
 30
0.0
 40
11.35000000000003
100
AcDbArc
 50
224.6232618566
 51
225.3767381434
  0
SPLINE
  5
1F6
330
1F
100
AcDbEntity
  8
0
  6
Continuous
 62
     7
370
    25
100
AcDbSpline
210
0.0
220
0.0
230
1.0
 70
    24
 71
     3
 72
     8
 73
     4
 74
     0
 42
0.00000001
 43
0.00000001
 40
0.0000003202490064
 40
0.0000003202490064
 40
0.0000003202490064
 40
0.0000003202490064
 40
0.0011889475494404
 40
0.0011889475494404
 40
0.0011889475494404
 40
0.0011889475494404
 10
627.6069216839685
 20
507.8615767590706
 30
0.0
 10
627.5653892938484
 20
507.5549255614766
 30
0.0
 10
627.5241530980462
 20
507.2504612917726
 30
0.0
 10
627.4831588964115
 20
506.9477837673304
 30
0.0
  0
SPLINE
  5
1F7
330
1F
100
AcDbEntity
  8
0
  6
Continuous
 62
     7
370
    25
100
AcDbSpline
210
0.0
220
0.0
230
1.0
 70
    24
 71
     3
 72
     8
 73
     4
 74
     0
 42
0.00000001
 43
0.00000001
 40
0.0000002617953351
 40
0.0000002617953351
 40
0.0000002617953351
 40
0.0000002617953351
 40
0.0011888890957691
 40
0.0011888890957691
 40
0.0011888890957691
 40
0.0011888890957691
 10
626.5875868450772
 20
507.8433558186647
 30
0.0
 10
626.8902643695194
 20
507.8843500202995
 30
0.0
 10
627.1947286392234
 20
507.9255862161016
 30
0.0
 10
627.5013798368174
 20
507.9671186062217
 30
0.0
  0
ARC
  5
1F8
330
1F
100
AcDbEntity
  8
0
  6
Continuous
 62
     7
370
    25
100
AcDbCircle
 10
635.5796392334
 20
515.9398361556
 30
0.0
 40
12.09999999999992
100
AcDbArc
 50
204.0
 51
210.0
  0
ARC
  5
1F9
330
1F
100
AcDbEntity
  8
0
  6
Continuous
 62
     7
370
    25
100
AcDbCircle
 10
635.5796392334
 20
515.9398361556
 30
0.0
 40
11.34999999999992
100
AcDbArc
 50
206.6232618566
 51
207.3767381434
  0
SPLINE
  5
1FA
330
1F
100
AcDbEntity
  8
0
  6
Continuous
 62
     7
370
    25
100
AcDbSpline
210
0.0
220
0.0
230
1.0
 70
    24
 71
     3
 72
     8
 73
     4
 74
     0
 42
0.00000001
 43
0.00000001
 40
0.000000320249006
 40
0.000000320249006
 40
0.000000320249006
 40
0.000000320249006
 40
0.0011889475494401
 40
0.0011889475494401
 40
0.0011889475494401
 40
0.0011889475494401
 10
625.5008148169314
 20
510.72066013032
 30
0.0
 10
625.3665547352683
 20
510.4418517249826
 30
0.0
 10
625.233252149025
 20
510.1650316825879
 30
0.0
 10
625.100731847562
 20
509.8898361556069
 30
0.0
  0
SPLINE
  5
1FB
330
1F
100
AcDbEntity
  8
0
  6
Continuous
 62
     7
370
    25
100
AcDbSpline
210
0.0
220
0.0
230
1.0
 70
    24
 71
     3
 72
     8
 73
     4
 74
     0
 42
0.00000001
 43
0.00000001
 40
0.0000002636648993
 40
0.0000002636648993
 40
0.0000002636648993
 40
0.0000002636648993
 40
0.0011888909653332
 40
0.0011888909653332
 40
0.0011888909653332
 40
0.0011888909653332
 10
624.5257391958783
 20
511.0183227743897
 30
0.0
 10
624.826270532811
 20
510.9637780781168
 30
0.0
 10
625.1285759457783
 20
510.9089113973232
 30
0.0
 10
625.4330527798439
 20
510.8536506161823
 30
0.0
  0
SPLINE
  5
1FC
330
1F
100
AcDbEntity
  8
0
  6
Continuous
 62
     7
370
    25
100
AcDbSpline
210
0.0
220
0.0
230
1.0
 70
    24
 71
     3
 72
     8
 73
     4
 74
     0
 42
0.00000001
 43
0.00000001
 40
0.0000002755774367
 40
0.0000002755774367
 40
0.0000002755774367
 40
0.0000002755774367
 40
0.0011889028778707
 40
0.0011889028778707
 40
0.0011889028778707
 40
0.0011889028778707
 10
526.8674376806148
 20
525.7289417875436
 30
0.0
 10
527.1549778011683
 20
525.6259132116912
 30
0.0
 10
527.4442153088964
 20
525.5222764445962
 30
0.0
 10
527.7355303726315
 20
525.4178952678644
 30
0.0
  0
ARC
  5
1FD
330
1F
100
AcDbEntity
  8
0
  6
Continuous
 62
     7
370
    25
100
AcDbCircle
 10
533.9796392334
 20
515.9398361556
 30
0.0
 40
12.09999999999994
100
AcDbArc
 50
120.0
 51
126.0
  0
SPLINE
  5
1FE
330
1F
100
AcDbEntity
  8
0
  6
Continuous
 62
     7
370
    25
100
AcDbSpline
210
0.0
220
0.0
230
1.0
 70
    24
 71
     3
 72
     8
 73
     4
 74
     0
 42
0.00000001
 43
0.00000001
 40
0.0000003202490065
 40
0.0000003202490065
 40
0.0000003202490065
 40
0.0000003202490065
 40
0.0011889475494404
 40
0.0011889475494404
 40
0.0011889475494404
 40
0.0011889475494404
 10
527.8607092610927
 20
525.4991873885391
 30
0.0
 10
527.883840822327
 20
525.8077725911813
 30
0.0
 10
527.9068074174475
 20
526.1141570732935
 30
0.0
 10
527.9296392333537
 20
526.4187435413984
 30
0.0
  0
ARC
  5
1FF
330
1F
100
AcDbEntity
  8
0
  6
Continuous
 62
     7
370
    25
100
AcDbCircle
 10
533.9796392334
 20
515.9398361556
 30
0.0
 40
11.34999999999996
100
AcDbArc
 50
122.6232618566
 51
123.3767381434
  0
SPLINE
  5
200
330
1F
100
AcDbEntity
  8
0
  6
Continuous
 62
     7
370
    25
100
AcDbSpline
210
0.0
220
0.0
230
1.0
 70
    24
 71
     3
 72
     8
 73
     4
 74
     0
 42
0.00000001
 43
0.00000001
 40
0.0000002617953351
 40
0.0000002617953351
 40
0.0000002617953351
 40
0.0000002617953351
 40
0.0011888890957691
 40
0.0011888890957691
 40
0.0011888890957691
 40
0.0011888890957691
 10
524.9875868450773
 20
524.0363164925488
 30
0.0
 10
525.2902643695195
 20
523.9953222909141
 30
0.0
 10
525.5947286392234
 20
523.954086095112
 30
0.0
 10
525.9013798368175
 20
523.9125537049919
 30
0.0
  0
ARC
  5
201
330
1F
100
AcDbEntity
  8
0
  6
Continuous
 62
     7
370
    25
100
AcDbCircle
 10
533.9796392334
 20
515.9398361556
 30
0.0
 40
12.09999999999985
100
AcDbArc
 50
132.0
 51
138.0
  0
SPLINE
  5
202
330
1F
100
AcDbEntity
  8
0
  6
Continuous
 62
     7
370
    25
100
AcDbSpline
210
0.0
220
0.0
230
1.0
 70
    24
 71
     3
 72
     8
 73
     4
 74
     0
 42
0.00000001
 43
0.00000001
 40
0.0000003202490064
 40
0.0000003202490064
 40
0.0000003202490064
 40
0.0000003202490064
 40
0.0011889475494404
 40
0.0011889475494404
 40
0.0011889475494404
 40
0.0011889475494404
 10
526.0069216839686
 20
524.018095552143
 30
0.0
 10
525.9653892938485
 20
524.324746749737
 30
0.0
 10
525.9241530980463
 20
524.629211019441
 30
0.0
 10
525.8831588964116
 20
524.9318885438831
 30
0.0
  0
ARC
  5
203
330
1F
100
AcDbEntity
  8
0
  6
Continuous
 62
     7
370
    25
100
AcDbCircle
 10
533.9796392334
 20
515.9398361556
 30
0.0
 40
11.34999999999995
100
AcDbArc
 50
134.6232618566
 51
135.3767381434
  0
ARC
  5
204
330
1F
100
AcDbEntity
  8
0
  6
Continuous
 62
     7
370
    25
100
AcDbCircle
 10
533.9796392334
 20
515.9398361556
 30
0.0
 40
12.09999999999996
100
AcDbArc
 50
138.0
 51
144.0
  0
SPLINE
  5
205
330
1F
100
AcDbEntity
  8
0
  6
Continuous
 62
     7
370
    25
100
AcDbSpline
210
0.0
220
0.0
230
1.0
 70
    24
 71
     3
 72
     8
 73
     4
 74
     0
 42
0.00000001
 43
0.00000001
 40
0.0000003202490064
 40
0.0000003202490064
 40
0.0000003202490064
 40
0.0000003202490064
 40
0.0011889475494404
 40
0.0011889475494404
 40
0.0011889475494404
 40
0.0011889475494404
 10
525.2061890243058
 20
523.1404660884223
 30
0.0
 10
525.1328303745208
 20
523.4410961017553
 30
0.0
 10
525.0599948926817
 20
523.739582128155
 30
0.0
 10
524.9875868450773
 20
524.0363164925488
 30
0.0
  0
ARC
  5
206
330
1F
100
AcDbEntity
  8
0
  6
Continuous
 62
     7
370
    25
100
AcDbCircle
 10
533.9796392334
 20
515.9398361556
 30
0.0
 40
11.35000000000006
100
AcDbArc
 50
140.6232618566
 51
141.3767381434
  0
SPLINE
  5
207
330
1F
100
AcDbEntity
  8
0
  6
Continuous
 62
     7
370
    25
100
AcDbSpline
210
0.0
220
0.0
230
1.0
 70
    24
 71
     3
 72
     8
 73
     4
 74
     0
 42
0.00000001
 43
0.00000001
 40
0.0000002595427406
 40
0.0000002595427406
 40
0.0000002595427406
 40
0.0000002595427406
 40
0.0011888868431745
 40
0.0011888868431745
 40
0.0011888868431745
 40
0.0011888868431745
 10
524.1905336014169
 20
523.0520377083457
 30
0.0
 10
524.4958380876103
 20
523.0429064937323
 30
0.0
 10
524.8029448263663
 20
523.0337213763574
 30
0.0
 10
525.1122574735297
 20
523.0244702834598
 30
0.0
  0
SPLINE
  5
208
330
1F
100
AcDbEntity
  8
0
  6
Continuous
 62
     7
370
    25
100
AcDbSpline
210
0.0
220
0.0
230
1.0
 70
    24
 71
     3
 72
     8
 73
     4
 74
     0
 42
0.00000001
 43
0.00000001
 40
0.0000002636648993
 40
0.0000002636648993
 40
0.0000002636648993
 40
0.0000002636648993
 40
0.0011888909653333
 40
0.0011888909653333
 40
0.0011888909653333
 40
0.0011888909653333
 10
522.9257391958782
 20
520.8613495368239
 30
0.0
 10
523.2262705328111
 20
520.9158942330968
 30
0.0
 10
523.5285759457784
 20
520.9707609138903
 30
0.0
 10
523.833052779844
 20
521.0260216950314
 30
0.0
  0
ARC
  5
209
330
1F
100
AcDbEntity
  8
0
  6
Continuous
 62
     7
370
    25
100
AcDbCircle
 10
533.9796392334
 20
515.9398361556
 30
0.0
 40
12.09999999999995
100
AcDbArc
 50
150.0
 51
156.0
  0
SPLINE
  5
20A
330
1F
100
AcDbEntity
  8
0
  6
Continuous
 62
     7
370
    25
100
AcDbSpline
210
0.0
220
0.0
230
1.0
 70
    24
 71
     3
 72
     8
 73
     4
 74
     0
 42
0.00000001
 43
0.00000001
 40
0.000000320249006
 40
0.000000320249006
 40
0.000000320249006
 40
0.000000320249006
 40
0.0011889475494401
 40
0.0011889475494401
 40
0.0011889475494401
 40
0.0011889475494401
 10
523.9008148169314
 20
521.1590121808937
 30
0.0
 10
523.7665547352684
 20
521.4378205862312
 30
0.0
 10
523.633252149025
 20
521.7146406286258
 30
0.0
 10
523.5007318475621
 20
521.9898361556067
 30
0.0
  0
ARC
  5
20B
330
1F
100
AcDbEntity
  8
0
  6
Continuous
 62
     7
370
    25
100
AcDbCircle
 10
533.9796392334
 20
515.9398361556
 30
0.0
 40
11.34999999999999
100
AcDbArc
 50
152.6232618566
 51
153.3767381434
  0
SPLINE
  5
20C
330
1F
100
AcDbEntity
  8
0
  6
Continuous
 62
     7
370
    25
100
AcDbSpline
210
0.0
220
0.0
230
1.0
 70
    24
 71
     3
 72
     8
 73
     4
 74
     0
 42
0.00000001
 43
0.00000001
 40
0.0000003139884087
 40
0.0000003139884087
 40
0.0000003139884087
 40
0.0000003139884087
 40
0.0011889412888428
 40
0.0011889412888428
 40
0.0011889412888428
 40
0.0011889412888428
 10
522.1440532644748
 20
513.4241046967119
 30
0.0
 10
522.3551276553357
 20
513.6448801706505
 30
0.0
 10
522.567448046105
 20
513.8669589112677
 30
0.0
 10
522.7812935070727
 20
514.0906328150618
 30
0.0
  0
ARC
  5
20D
330
1F
100
AcDbEntity
  8
0
  6
Continuous
 62
     7
370
    25
100
AcDbCircle
 10
533.9796392334
 20
515.9398361556
 30
0.0
 40
12.09999999999995
100
AcDbArc
 50
186.0
 51
192.0
  0
SPLINE
  5
20E
330
1F
100
AcDbEntity
  8
0
  6
Continuous
 62
     7
370
    25
100
AcDbSpline
210
0.0
220
0.0
230
1.0
 70
    24
 71
     3
 72
     8
 73
     4
 74
     0
 42
0.00000001
 43
0.00000001
 40
0.0000003202490059
 40
0.0000003202490059
 40
0.0000003202490059
 40
0.0000003202490059
 40
0.0011889475494399
 40
0.0011889475494399
 40
0.0011889475494399
 40
0.0011889475494399
 10
522.7579443003648
 20
514.2380539042798
 30
0.0
 10
522.4854461437608
 20
514.3846985463992
 30
0.0
 10
522.2148913476373
 20
514.530297370794
 30
0.0
 10
521.9459242993977
 20
514.6750417500681
 30
0.0
  0
ARC
  5
20F
330
1F
100
AcDbEntity
  8
0
  6
Continuous
 62
     7
370
    25
100
AcDbCircle
 10
533.9796392334
 20
515.9398361556
 30
0.0
 40
11.35000000000007
100
AcDbArc
 50
188.6232618566
 51
189.3767381434
  0
SPLINE
  5
210
330
1F
100
AcDbEntity
  8
0
  6
Continuous
 62
     7
370
    25
100
AcDbSpline
210
0.0
220
0.0
230
1.0
 70
    24
 71
     3
 72
     8
 73
     4
 74
     0
 42
0.00000001
 43
0.00000001
 40
0.0000003279386314
 40
0.0000003279386314
 40
0.0000003279386314
 40
0.0000003279386314
 40
0.0011889552390655
 40
0.0011889552390655
 40
0.0011889552390655
 40
0.0011889552390655
 10
522.4718553861825
 20
512.2007305236699
 30
0.0
 10
522.6586961684271
 20
512.442359848174
 30
0.0
 10
522.8466398963992
 20
512.6854155423812
 30
0.0
 10
523.0359336001201
 20
512.9302170745385
 30
0.0
  0
ARC
  5
211
330
1F
100
AcDbEntity
  8
0
  6
Continuous
 62
     7
370
    25
100
AcDbCircle
 10
533.9796392334
 20
515.9398361556
 30
0.0
 40
12.09999999999992
100
AcDbArc
 50
192.0
 51
198.0
  0
SPLINE
  5
212
330
1F
100
AcDbEntity
  8
0
  6
Continuous
 62
     7
370
    25
100
AcDbSpline
210
0.0
220
0.0
230
1.0
 70
    24
 71
     3
 72
     8
 73
     4
 74
     0
 42
0.00000001
 43
0.00000001
 40
0.0000003202490061
 40
0.0000003202490061
 40
0.0000003202490061
 40
0.0000003202490061
 40
0.0011889475494402
 40
0.0011889475494402
 40
0.0011889475494402
 40
0.0011889475494402
 10
522.9973026029005
 20
513.0743899189093
 30
0.0
 10
522.7109686806231
 20
513.1917474127824
 30
0.0
 10
522.4266767906137
 20
513.3082679545142
 30
0.0
 10
522.1440532644748
 20
513.4241046967119
 30
0.0
  0
ARC
  5
213
330
1F
100
AcDbEntity
  8
0
  6
Continuous
 62
     7
370
    25
100
AcDbCircle
 10
533.9796392334
 20
515.9398361556
 30
0.0
 40
11.35000000000003
100
AcDbArc
 50
194.6232618566
 51
195.3767381434
  0
SPLINE
  5
214
330
1F
100
AcDbEntity
  8
0
  6
Continuous
 62
     7
370
    25
100
AcDbSpline
210
0.0
220
0.0
230
1.0
 70
    24
 71
     3
 72
     8
 73
     4
 74
     0
 42
0.00000001
 43
0.00000001
 40
0.0000003139884087
 40
0.0000003139884087
 40
0.0000003139884087
 40
0.0000003139884087
 40
0.0011889412888428
 40
0.0011889412888428
 40
0.0011889412888428
 40
0.0011889412888428
 10
522.9257391958784
 20
511.0183227743895
 30
0.0
 10
523.0862993027976
 20
511.2781586080158
 30
0.0
 10
523.247807217159
 20
511.5395282867645
 30
0.0
 10
523.4104752222029
 20
511.8027753504708
 30
0.0
  0
ARC
  5
215
330
1F
100
AcDbEntity
  8
0
  6
Continuous
 62
     7
370
    25
100
AcDbCircle
 10
533.9796392334
 20
515.9398361556
 30
0.0
 40
12.09999999999998
100
AcDbArc
 50
198.0
 51
204.0
  0
SPLINE
  5
216
330
1F
100
AcDbEntity
  8
0
  6
Continuous
 62
     7
370
    25
100
AcDbSpline
210
0.0
220
0.0
230
1.0
 70
    24
 71
     3
 72
     8
 73
     4
 74
     0
 42
0.00000001
 43
0.00000001
 40
0.0000003202490063
 40
0.0000003202490063
 40
0.0000003202490063
 40
0.0000003202490063
 40
0.0011889475494403
 40
0.0011889475494403
 40
0.0011889475494403
 40
0.0011889475494403
 10
523.356985683761
 20
511.9421203621412
 30
0.0
 10
523.059953130182
 20
512.0289049145065
 30
0.0
 10
522.7650389077256
 20
512.1150705501368
 30
0.0
 10
522.4718553861825
 20
512.2007305236699
 30
0.0
  0
ARC
  5
217
330
1F
100
AcDbEntity
  8
0
  6
Continuous
 62
     7
370
    25
100
AcDbCircle
 10
533.9796392334
 20
515.9398361556
 30
0.0
 40
11.35000000000003
100
AcDbArc
 50
200.6232618566
 51
201.3767381434
  0
SPLINE
  5
218
330
1F
100
AcDbEntity
  8
0
  6
Continuous
 62
     7
370
    25
100
AcDbSpline
210
0.0
220
0.0
230
1.0
 70
    24
 71
     3
 72
     8
 73
     4
 74
     0
 42
0.00000001
 43
0.00000001
 40
0.0000002755774367
 40
0.0000002755774367
 40
0.0000002755774367
 40
0.0000002755774367
 40
0.0011889028778707
 40
0.0011889028778707
 40
0.0011889028778707
 40
0.0011889028778707
 10
524.190533601417
 20
508.8276346028678
 30
0.0
 10
524.2935621772693
 20
509.1151747234214
 30
0.0
 10
524.3971989443643
 20
509.4044122311494
 30
0.0
 10
524.5015801210961
 20
509.6957272948845
 30
0.0
  0
ARC
  5
219
330
1F
100
AcDbEntity
  8
0
  6
Continuous
 62
     7
370
    25
100
AcDbCircle
 10
533.9796392334
 20
515.9398361556
 30
0.0
 40
12.09999999999997
100
AcDbArc
 50
210.0
 51
216.0
  0
SPLINE
  5
21A
330
1F
100
AcDbEntity
  8
0
  6
Continuous
 62
     7
370
    25
100
AcDbSpline
210
0.0
220
0.0
230
1.0
 70
    24
 71
     3
 72
     8
 73
     4
 74
     0
 42
0.00000001
 43
0.00000001
 40
0.0000003202490065
 40
0.0000003202490065
 40
0.0000003202490065
 40
0.0000003202490065
 40
0.0011889475494404
 40
0.0011889475494404
 40
0.0011889475494404
 40
0.0011889475494404
 10
524.4202880004215
 20
509.8209061833456
 30
0.0
 10
524.1117027977792
 20
509.84403774458
 30
0.0
 10
523.8053183156669
 20
509.8670043397004
 30
0.0
 10
523.5007318475622
 20
509.8898361556067
 30
0.0
  0
ARC
  5
21B
330
1F
100
AcDbEntity
  8
0
  6
Continuous
 62
     7
370
    25
100
AcDbCircle
 10
533.9796392334
 20
515.9398361556
 30
0.0
 40
11.35000000000009
100
AcDbArc
 50
212.6232618566
 51
213.3767381434
  0
SPLINE
  5
21C
330
1F
100
AcDbEntity
  8
0
  6
Continuous
 62
     7
370
    25
100
AcDbSpline
210
0.0
220
0.0
230
1.0
 70
    24
 71
     3
 72
     8
 73
     4
 74
     0
 42
0.00000001
 43
0.00000001
 40
0.0000002595427406
 40
0.0000002595427406
 40
0.0000002595427406
 40
0.0000002595427406
 40
0.0011888868431745
 40
0.0011888868431745
 40
0.0011888868431745
 40
0.0011888868431745
 10
526.8674376806149
 20
506.1507305236699
 30
0.0
 10
526.8765688952283
 20
506.4560350098633
 30
0.0
 10
526.8857540126032
 20
506.7631417486195
 30
0.0
 10
526.8950051055008
 20
507.0724543957826
 30
0.0
  0
ARC
  5
21D
330
1F
100
AcDbEntity
  8
0
  6
Continuous
 62
     7
370
    25
100
AcDbCircle
 10
533.9796392334
 20
515.9398361556
 30
0.0
 40
12.1
100
AcDbArc
 50
228.0
 51
234.0
  0
SPLINE
  5
21E
330
1F
100
AcDbEntity
  8
0
  6
Continuous
 62
     7
370
    25
100
AcDbSpline
210
0.0
220
0.0
230
1.0
 70
    24
 71
     3
 72
     8
 73
     4
 74
     0
 42
0.00000001
 43
0.00000001
 40
0.0000003202490064
 40
0.0000003202490064
 40
0.0000003202490064
 40
0.0000003202490064
 40
0.0011889475494404
 40
0.0011889475494404
 40
0.0011889475494404
 40
0.0011889475494404
 10
526.7790093005383
 20
507.1663859465589
 30
0.0
 10
526.4783792872051
 20
507.0930272967739
 30
0.0
 10
526.1798932608054
 20
507.0201918149347
 30
0.0
 10
525.8831588964117
 20
506.9477837673303
 30
0.0
  0
ARC
  5
21F
330
1F
100
AcDbEntity
  8
0
  6
Continuous
 62
     7
370
    25
100
AcDbCircle
 10
533.9796392334
 20
515.9398361556
 30
0.0
 40
11.35000000000006
100
AcDbArc
 50
230.6232618566
 51
231.3767381434
  0
SPLINE
  5
220
330
1F
100
AcDbEntity
  8
0
  6
Continuous
 62
     7
370
    25
100
AcDbSpline
210
0.0
220
0.0
230
1.0
 70
    24
 71
     3
 72
     8
 73
     4
 74
     0
 42
0.00000001
 43
0.00000001
 40
0.0000002702729228
 40
0.0000002702729228
 40
0.0000002702729228
 40
0.0000002702729228
 40
0.0011888975733568
 40
0.0011888975733568
 40
0.0011888975733568
 40
0.0011888975733568
 10
530.240533601417
 20
504.4320523084355
 30
0.0
 10
530.154873627884
 20
504.7252358299787
 30
0.0
 10
530.0687079922536
 20
505.0201500524349
 30
0.0
 10
529.9819234398883
 20
505.317182606014
 30
0.0
  0
ARC
  5
221
330
1F
100
AcDbEntity
  8
0
  6
Continuous
 62
     7
370
    25
100
AcDbCircle
 10
533.9796392334
 20
515.9398361556
 30
0.0
 40
12.09999999999996
100
AcDbArc
 50
246.0
 51
252.0
  0
SPLINE
  5
222
330
1F
100
AcDbEntity
  8
0
  6
Continuous
 62
     7
370
    25
100
AcDbSpline
210
0.0
220
0.0
230
1.0
 70
    24
 71
     3
 72
     8
 73
     4
 74
     0
 42
0.00000001
 43
0.00000001
 40
0.0000003202490057
 40
0.0000003202490057
 40
0.0000003202490057
 40
0.0000003202490057
 40
0.0011889475494398
 40
0.0011889475494398
 40
0.0011889475494398
 40
0.0011889475494398
 10
529.842578428218
 20
505.3706721444559
 30
0.0
 10
529.5793313645116
 20
505.208004139412
 30
0.0
 10
529.317961685763
 20
505.0464962250506
 30
0.0
 10
529.0581258521368
 20
504.8859361181314
 30
0.0
  0
ARC
  5
223
330
1F
100
AcDbEntity
  8
0
  6
Continuous
 62
     7
370
    25
100
AcDbCircle
 10
533.9796392334
 20
515.9398361556
 30
0.0
 40
11.35
100
AcDbArc
 50
248.6232618566
 51
249.3767381434
  0
SPLINE
  5
224
330
1F
100
AcDbEntity
  8
0
  6
Continuous
 62
     7
370
    25
100
AcDbSpline
210
0.0
220
0.0
230
1.0
 70
    24
 71
     3
 72
     8
 73
     4
 74
     0
 42
0.00000001
 43
0.00000001
 40
0.0000002803714621
 40
0.0000002803714621
 40
0.0000002803714621
 40
0.0000002803714621
 40
0.0011889076718962
 40
0.0011889076718962
 40
0.0011889076718962
 40
0.0011889076718962
 10
531.4639077744589
 20
504.1042501867278
 30
0.0
 10
531.3480710322615
 20
504.3868737128667
 30
0.0
 10
531.2315504905296
 20
504.671165602876
 30
0.0
 10
531.1141929966564
 20
504.9574995251535
 30
0.0
  0
ARC
  5
225
330
1F
100
AcDbEntity
  8
0
  6
Continuous
 62
     7
370
    25
100
AcDbCircle
 10
533.9796392334
 20
515.9398361556
 30
0.0
 40
12.09999999999998
100
AcDbArc
 50
252.0
 51
258.0
  0
SPLINE
  5
226
330
1F
100
AcDbEntity
  8
0
  6
Continuous
 62
     7
370
    25
100
AcDbSpline
210
0.0
220
0.0
230
1.0
 70
    24
 71
     3
 72
     8
 73
     4
 74
     0
 42
0.00000001
 43
0.00000001
 40
0.0
 40
0.0
 40
0.0
 40
0.0
 40
1.0
 40
1.0
 40
1.0
 40
1.0
 10
530.9700201522857
 20
504.9961305223731
 30
0.0
 10
530.7252101231679
 20
504.8068302483457
 30
0.0
 10
530.4821701159857
 20
504.6188986504244
 30
0.0
 10
530.240533601417
 20
504.4320523084355
 30
0.0
  0
ARC
  5
227
330
1F
100
AcDbEntity
  8
0
  6
Continuous
 62
     7
370
    25
100
AcDbCircle
 10
533.9796392334
 20
515.9398361556
 30
0.0
 40
11.35000000000002
100
AcDbArc
 50
254.6232618566
 51
255.3767381434
  0
SPLINE
  5
228
330
1F
100
AcDbEntity
  8
0
  6
Continuous
 62
     7
370
    25
100
AcDbSpline
210
0.0
220
0.0
230
1.0
 70
    24
 71
     3
 72
     8
 73
     4
 74
     0
 42
0.00000001
 43
0.00000001
 40
0.0000003139884087
 40
0.0000003139884087
 40
0.0000003139884087
 40
0.0000003139884087
 40
0.0011889412888428
 40
0.0011889412888428
 40
0.0011889412888428
 40
0.0011889412888428
 10
533.9796392333539
 20
503.8398361556068
 30
0.0
 10
533.8075730667122
 20
504.0921998666814
 30
0.0
 10
533.6344911708433
 20
504.3460533139558
 30
0.0
 10
533.4601660498639
 20
504.6017301580588
 30
0.0
  0
ARC
  5
229
330
1F
100
AcDbEntity
  8
0
  6
Continuous
 62
     7
370
    25
100
AcDbCircle
 10
533.9796392334
 20
515.9398361556
 30
0.0
 40
12.10000000000004
100
AcDbArc
 50
264.0
 51
270.0
  0
ARC
  5
22A
330
1F
100
AcDbEntity
  8
0
  6
Continuous
 62
     7
370
    25
100
AcDbCircle
 10
533.9796392334
 20
515.9398361556
 30
0.0
 40
11.35000000000007
100
AcDbArc
 50
266.6232618566
 51
267.3767381434
  0
SPLINE
  5
22B
330
1F
100
AcDbEntity
  8
0
  6
Continuous
 62
     7
370
    25
100
AcDbSpline
210
0.0
220
0.0
230
1.0
 70
    24
 71
     3
 72
     8
 73
     4
 74
     0
 42
0.00000001
 43
0.00000001
 40
0.0000003202490055
 40
0.0000003202490055
 40
0.0000003202490055
 40
0.0000003202490055
 40
0.0011889475494397
 40
0.0011889475494397
 40
0.0011889475494397
 40
0.0011889475494397
 10
533.3111118921017
 20
504.6095417554599
 30
0.0
 10
533.1110162347679
 20
504.3734874728658
 30
0.0
 10
532.9123475888957
 20
504.1391166459314
 30
0.0
 10
532.7148448278152
 20
503.9061212216507
 30
0.0
  0
SPLINE
  5
22C
330
1F
100
AcDbEntity
  8
0
  6
Continuous
 62
     7
370
    25
100
AcDbSpline
210
0.0
220
0.0
230
1.0
 70
    24
 71
     3
 72
     8
 73
     4
 74
     0
 42
0.00000001
 43
0.00000001
 40
0.0
 40
0.0
 40
0.0
 40
0.0
 40
1.0
 40
1.0
 40
1.0
 40
1.0
 10
537.7187448652907
 20
504.4320523084355
 30
0.0
 10
537.477108350722
 20
504.6188986504245
 30
0.0
 10
537.2340683435397
 20
504.8068302483457
 30
0.0
 10
536.989258314422
 20
504.9961305223731
 30
0.0
  0
ARC
  5
22D
330
1F
100
AcDbEntity
  8
0
  6
Continuous
 62
     7
370
    25
100
AcDbCircle
 10
533.9796392334
 20
515.9398361556
 30
0.0
 40
12.10000000000002
100
AcDbArc
 50
282.0
 51
288.0
  0
SPLINE
  5
22E
330
1F
100
AcDbEntity
  8
0
  6
Continuous
 62
     7
370
    25
100
AcDbSpline
210
0.0
220
0.0
230
1.0
 70
    24
 71
     3
 72
     8
 73
     4
 74
     0
 42
0.00000001
 43
0.00000001
 40
0.0000003202490061
 40
0.0000003202490061
 40
0.0000003202490061
 40
0.0000003202490061
 40
0.0011889475494402
 40
0.0011889475494402
 40
0.0011889475494402
 40
0.0011889475494402
 10
536.8450854700512
 20
504.9574995251535
 30
0.0
 10
536.7277279761781
 20
504.6711656028762
 30
0.0
 10
536.6112074344463
 20
504.3868737128667
 30
0.0
 10
536.4953706922487
 20
504.1042501867278
 30
0.0
  0
ARC
  5
22F
330
1F
100
AcDbEntity
  8
0
  6
Continuous
 62
     7
370
    25
100
AcDbCircle
 10
533.9796392334
 20
515.9398361556
 30
0.0
 40
11.35000000000008
100
AcDbArc
 50
284.6232618566
 51
285.3767381434
  0
SPLINE
  5
230
330
1F
100
AcDbEntity
  8
0
  6
Continuous
 62
     7
370
    25
100
AcDbSpline
210
0.0
220
0.0
230
1.0
 70
    24
 71
     3
 72
     8
 73
     4
 74
     0
 42
0.00000001
 43
0.00000001
 40
0.0000002755774367
 40
0.0000002755774367
 40
0.0000002755774367
 40
0.0000002755774367
 40
0.0011889028778707
 40
0.0011889028778707
 40
0.0011889028778707
 40
0.0011889028778707
 10
541.0918407860927
 20
506.15073052367
 30
0.0
 10
540.8043006655392
 20
506.2537590995224
 30
0.0
 10
540.5150631578111
 20
506.3573958666174
 30
0.0
 10
540.223748094076
 20
506.4617770433492
 30
0.0
  0
ARC
  5
231
330
1F
100
AcDbEntity
  8
0
  6
Continuous
 62
     7
370
    25
100
AcDbCircle
 10
533.9796392334
 20
515.9398361556
 30
0.0
 40
12.10000000000001
100
AcDbArc
 50
300.0
 51
306.0
  0
SPLINE
  5
232
330
1F
100
AcDbEntity
  8
0
  6
Continuous
 62
     7
370
    25
100
AcDbSpline
210
0.0
220
0.0
230
1.0
 70
    24
 71
     3
 72
     8
 73
     4
 74
     0
 42
0.00000001
 43
0.00000001
 40
0.0000003202490065
 40
0.0000003202490065
 40
0.0000003202490065
 40
0.0000003202490065
 40
0.0011889475494404
 40
0.0011889475494404
 40
0.0011889475494404
 40
0.0011889475494404
 10
540.0985692056149
 20
506.3804849226745
 30
0.0
 10
540.0754376443806
 20
506.0718997200322
 30
0.0
 10
540.0524710492601
 20
505.76551523792
 30
0.0
 10
540.0296392333539
 20
505.4609287698152
 30
0.0
  0
ARC
  5
233
330
1F
100
AcDbEntity
  8
0
  6
Continuous
 62
     7
370
    25
100
AcDbCircle
 10
533.9796392334
 20
515.9398361556
 30
0.0
 40
11.35000000000005
100
AcDbArc
 50
302.6232618566
 51
303.3767381434
  0
SPLINE
  5
234
330
1F
100
AcDbEntity
  8
0
  6
Continuous
 62
     7
370
    25
100
AcDbSpline
210
0.0
220
0.0
230
1.0
 70
    24
 71
     3
 72
     8
 73
     4
 74
     0
 42
0.00000001
 43
0.00000001
 40
0.0000002595427406
 40
0.0000002595427406
 40
0.0000002595427406
 40
0.0000002595427406
 40
0.0011888868431745
 40
0.0011888868431745
 40
0.0011888868431745
 40
0.0011888868431745
 10
543.7687448652906
 20
508.8276346028679
 30
0.0
 10
543.4634403790972
 20
508.8367658174813
 30
0.0
 10
543.1563336403411
 20
508.8459509348562
 30
0.0
 10
542.8470209931779
 20
508.8552020277539
 30
0.0
  0
ARC
  5
235
330
1F
100
AcDbEntity
  8
0
  6
Continuous
 62
     7
370
    25
100
AcDbCircle
 10
533.9796392334
 20
515.9398361556
 30
0.0
 40
12.10000000000002
100
AcDbArc
 50
318.0
 51
324.0
  0
ARC
  5
236
330
1F
100
AcDbEntity
  8
0
  6
Continuous
 62
     7
370
    25
100
AcDbCircle
 10
533.9796392334
 20
515.9398361556
 30
0.0
 40
11.35000000000002
100
AcDbArc
 50
320.6232618566
 51
321.3767381434
  0
SPLINE
  5
237
330
1F
100
AcDbEntity
  8
0
  6
Continuous
 62
     7
370
    25
100
AcDbSpline
210
0.0
220
0.0
230
1.0
 70
    24
 71
     3
 72
     8
 73
     4
 74
     0
 42
0.00000001
 43
0.00000001
 40
0.0000003202490064
 40
0.0000003202490064
 40
0.0000003202490064
 40
0.0000003202490064
 40
0.0011889475494404
 40
0.0011889475494404
 40
0.0011889475494404
 40
0.0011889475494404
 10
542.7530894424017
 20
508.7392062227914
 30
0.0
 10
542.8264480921868
 20
508.4385762094583
 30
0.0
 10
542.8992835740258
 20
508.1400901830586
 30
0.0
 10
542.9716916216303
 20
507.8433558186648
 30
0.0
  0
SPLINE
  5
238
330
1F
100
AcDbEntity
  8
0
  6
Continuous
 62
     7
370
    25
100
AcDbSpline
210
0.0
220
0.0
230
1.0
 70
    24
 71
     3
 72
     8
 73
     4
 74
     0
 42
0.00000001
 43
0.00000001
 40
0.0000002702729228
 40
0.0000002702729228
 40
0.0000002702729228
 40
0.0000002702729228
 40
0.0011888975733568
 40
0.0011888975733568
 40
0.0011888975733568
 40
0.0011888975733568
 10
545.4874230805251
 20
512.2007305236701
 30
0.0
 10
545.194239558982
 20
512.115070550137
 30
0.0
 10
544.8993253365256
 20
512.0289049145067
 30
0.0
 10
544.6022927829466
 20
511.9421203621414
 30
0.0
  0
ARC
  5
239
330
1F
100
AcDbEntity
  8
0
  6
Continuous
 62
     7
370
    25
100
AcDbCircle
 10
533.9796392334
 20
515.9398361556
 30
0.0
 40
12.09999999999999
100
AcDbArc
 50
336.0
 51
342.0
  0
SPLINE
  5
23A
330
1F
100
AcDbEntity
  8
0
  6
Continuous
 62
     7
370
    25
100
AcDbSpline
210
0.0
220
0.0
230
1.0
 70
    24
 71
     3
 72
     8
 73
     4
 74
     0
 42
0.00000001
 43
0.00000001
 40
0.0000003202490055
 40
0.0000003202490055
 40
0.0000003202490055
 40
0.0000003202490055
 40
0.0011889475494396
 40
0.0011889475494396
 40
0.0011889475494396
 40
0.0011889475494396
 10
544.5488032445047
 20
511.8027753504711
 30
0.0
 10
544.7114712495486
 20
511.5395282867647
 30
0.0
 10
544.87297916391
 20
511.2781586080159
 30
0.0
 10
545.0335392708292
 20
511.0183227743897
 30
0.0
  0
ARC
  5
23B
330
1F
100
AcDbEntity
  8
0
  6
Continuous
 62
     7
370
    25
100
AcDbCircle
 10
533.9796392334
 20
515.9398361556
 30
0.0
 40
11.35000000000005
100
AcDbArc
 50
338.6232618566
 51
339.3767381434
  0
ARC
  5
23C
330
1F
100
AcDbEntity
  8
0
  6
Continuous
 62
     7
370
    25
100
AcDbCircle
 10
533.9796392334
 20
515.9398361556
 30
0.0
 40
12.09999999999998
100
AcDbArc
 50
342.0
 51
348.0
  0
SPLINE
  5
23D
330
1F
100
AcDbEntity
  8
0
  6
Continuous
 62
     7
370
    25
100
AcDbSpline
210
0.0
220
0.0
230
1.0
 70
    24
 71
     3
 72
     8
 73
     4
 74
     0
 42
0.00000001
 43
0.00000001
 40
0.0
 40
0.0
 40
0.0
 40
0.0
 40
1.0
 40
1.0
 40
1.0
 40
1.0
 10
544.9233448665874
 20
512.9302170745387
 30
0.0
 10
545.1126451406149
 20
512.6854070454211
 30
0.0
 10
545.300576738536
 20
512.4423670382388
 30
0.0
 10
545.4874230805251
 20
512.2007305236701
 30
0.0
  0
ARC
  5
23E
330
1F
100
AcDbEntity
  8
0
  6
Continuous
 62
     7
370
    25
100
AcDbCircle
 10
533.9796392334
 20
515.9398361556
 30
0.0
 40
11.35
100
AcDbArc
 50
344.6232618566
 51
345.3767381434
  0
SPLINE
  5
23F
330
1F
100
AcDbEntity
  8
0
  6
Continuous
 62
     7
370
    25
100
AcDbSpline
210
0.0
220
0.0
230
1.0
 70
    24
 71
     3
 72
     8
 73
     4
 74
     0
 42
0.00000001
 43
0.00000001
 40
0.0000002803714621
 40
0.0000002803714621
 40
0.0000002803714621
 40
0.0000002803714621
 40
0.0011889076718962
 40
0.0011889076718962
 40
0.0011889076718962
 40
0.0011889076718962
 10
545.8152252022328
 20
513.4241046967121
 30
0.0
 10
545.5326016760938
 20
513.3082679545145
 30
0.0
 10
545.2483097860845
 20
513.1917474127827
 30
0.0
 10
544.9619758638071
 20
513.0743899189096
 30
0.0
  0
ARC
  5
240
330
1F
100
AcDbEntity
  8
0
  6
Continuous
 62
     7
370
    25
100
AcDbCircle
 10
635.5796392334
 20
515.9398361556
 30
0.0
 40
12.09999999999999
100
AcDbArc
 50
240.0
 51
246.0
  0
ARC
  5
241
330
1F
100
AcDbEntity
  8
0
  6
Continuous
 62
     7
370
    25
100
AcDbCircle
 10
635.5796392334
 20
515.9398361556
 30
0.0
 40
11.35000000000005
100
AcDbArc
 50
242.6232618566
 51
243.3767381434
  0
SPLINE
  5
242
330
1F
100
AcDbEntity
  8
0
  6
Continuous
 62
     7
370
    25
100
AcDbSpline
210
0.0
220
0.0
230
1.0
 70
    24
 71
     3
 72
     8
 73
     4
 74
     0
 42
0.00000001
 43
0.00000001
 40
0.0000003202490064
 40
0.0000003202490064
 40
0.0000003202490064
 40
0.0000003202490064
 40
0.0011889475494404
 40
0.0011889475494404
 40
0.0011889475494404
 40
0.0011889475494404
 10
630.4934536939289
 20
505.7932497020972
 30
0.0
 10
630.5487144750699
 20
505.4887728680315
 30
0.0
 10
630.6035811558635
 20
505.1864674550642
 30
0.0
 10
630.6581258521364
 20
504.8859361181314
 30
0.0
  0
SPLINE
  5
243
330
1F
100
AcDbEntity
  8
0
  6
Continuous
 62
     7
370
    25
100
AcDbSpline
210
0.0
220
0.0
230
1.0
 70
    24
 71
     3
 72
     8
 73
     4
 74
     0
 42
0.00000001
 43
0.00000001
 40
0.0000002879391795
 40
0.0000002879391795
 40
0.0000002879391795
 40
0.0000002879391795
 40
0.0011889152396136
 40
0.0011889152396136
 40
0.0011889152396136
 40
0.0011889152396136
 10
629.5296392333536
 20
505.4609287698152
 30
0.0
 10
629.8048347603345
 20
505.5934490712783
 30
0.0
 10
630.0816548027293
 20
505.7267516575216
 30
0.0
 10
630.3604632080667
 20
505.8610117391845
 30
0.0
  0
ARC
  5
244
330
1F
100
AcDbEntity
  8
0
  6
Continuous
 62
     7
370
    25
100
AcDbCircle
 10
635.5796392334
 20
515.9398361556
 30
0.0
 40
12.09999999999991
100
AcDbArc
 50
168.0
 51
174.0
  0
SPLINE
  5
245
330
1F
100
AcDbEntity
  8
0
  6
Continuous
 62
     7
370
    25
100
AcDbSpline
210
0.0
220
0.0
230
1.0
 70
    24
 71
     3
 72
     8
 73
     4
 74
     0
 42
0.00000001
 43
0.00000001
 40
0.0000003139884087
 40
0.0000003139884087
 40
0.0000003139884087
 40
0.0000003139884087
 40
0.0011889412888428
 40
0.0011889412888428
 40
0.0011889412888428
 40
0.0011889412888428
 10
623.7440532644747
 20
518.4555676145017
 30
0.0
 10
623.9551276553356
 20
518.2347921405631
 30
0.0
 10
624.1674480461049
 20
518.0127133999457
 30
0.0
 10
624.3812935070728
 20
517.7890394961518
 30
0.0
  0
ARC
  5
246
330
1F
100
AcDbEntity
  8
0
  6
Continuous
 62
     7
370
    25
100
AcDbCircle
 10
635.5796392334
 20
515.9398361556
 30
0.0
 40
11.34999999999994
100
AcDbArc
 50
170.6232618566
 51
171.3767381434
  0
SPLINE
  5
247
330
1F
100
AcDbEntity
  8
0
  6
Continuous
 62
     7
370
    25
100
AcDbSpline
210
0.0
220
0.0
230
1.0
 70
    24
 71
     3
 72
     8
 73
     4
 74
     0
 42
0.00000001
 43
0.00000001
 40
0.0000003202490059
 40
0.0000003202490059
 40
0.0000003202490059
 40
0.0000003202490059
 40
0.00118894754944
 40
0.00118894754944
 40
0.00118894754944
 40
0.00118894754944
 10
624.3579443003648
 20
517.6416184069337
 30
0.0
 10
624.0854461437608
 20
517.4949737648143
 30
0.0
 10
623.8148913476372
 20
517.3493749404196
 30
0.0
 10
623.5459242993977
 20
517.2046305611454
 30
0.0
  0
ARC
  5
248
330
1F
100
AcDbEntity
  8
0
  6
Continuous
 62
     7
370
    25
100
AcDbCircle
 10
635.5796392334
 20
515.9398361556
 30
0.0
 40
12.09999999999989
100
AcDbArc
 50
150.0
 51
156.0
  0
ARC
  5
249
330
1F
100
AcDbEntity
  8
0
  6
Continuous
 62
     7
370
    25
100
AcDbCircle
 10
635.5796392334
 20
515.9398361556
 30
0.0
 40
11.35
100
AcDbArc
 50
152.6232618566
 51
153.3767381434
  0
SPLINE
  5
24A
330
1F
100
AcDbEntity
  8
0
  6
Continuous
 62
     7
370
    25
100
AcDbSpline
210
0.0
220
0.0
230
1.0
 70
    24
 71
     3
 72
     8
 73
     4
 74
     0
 42
0.00000001
 43
0.00000001
 40
0.0000003202490064
 40
0.0000003202490064
 40
0.0000003202490064
 40
0.0000003202490064
 40
0.0011889475494404
 40
0.0011889475494404
 40
0.0011889475494404
 40
0.0011889475494404
 10
625.4330527798439
 20
521.0260216950315
 30
0.0
 10
625.1285759457784
 20
520.9707609138904
 30
0.0
 10
624.8262705328111
 20
520.9158942330969
 30
0.0
 10
624.5257391958783
 20
520.8613495368239
 30
0.0
  0
SPLINE
  5
24B
330
1F
100
AcDbEntity
  8
0
  6
Continuous
 62
     7
370
    25
100
AcDbSpline
210
0.0
220
0.0
230
1.0
 70
    24
 71
     3
 72
     8
 73
     4
 74
     0
 42
0.00000001
 43
0.00000001
 40
0.0000002879391795
 40
0.0000002879391795
 40
0.0000002879391795
 40
0.0000002879391795
 40
0.0011889152396135
 40
0.0011889152396135
 40
0.0011889152396135
 40
0.0011889152396135
 10
625.1007318475621
 20
521.9898361556068
 30
0.0
 10
625.2332521490251
 20
521.714640628626
 30
0.0
 10
625.3665547352684
 20
521.4378205862312
 30
0.0
 10
625.5008148169314
 20
521.1590121808938
 30
0.0
  0
ARC
  5
24C
330
1F
100
AcDbEntity
  8
0
  6
Continuous
 62
     7
370
    25
100
AcDbCircle
 10
635.5796392334
 20
515.9398361556
 30
0.0
 40
12.09999999999985
100
AcDbArc
 50
132.0
 51
138.0
  0
ARC
  5
24D
330
1F
100
AcDbEntity
  8
0
  6
Continuous
 62
     7
370
    25
100
AcDbCircle
 10
635.5796392334
 20
515.9398361556
 30
0.0
 40
11.34999999999995
100
AcDbArc
 50
134.6232618566
 51
135.3767381434
  0
SPLINE
  5
24E
330
1F
100
AcDbEntity
  8
0
  6
Continuous
 62
     7
370
    25
100
AcDbSpline
210
0.0
220
0.0
230
1.0
 70
    24
 71
     3
 72
     8
 73
     4
 74
     0
 42
0.00000001
 43
0.00000001
 40
0.0000003202490064
 40
0.0000003202490064
 40
0.0000003202490064
 40
0.0000003202490064
 40
0.0011889475494404
 40
0.0011889475494404
 40
0.0011889475494404
 40
0.0011889475494404
 10
627.5013798368175
 20
523.912553704992
 30
0.0
 10
627.1947286392234
 20
523.9540860951121
 30
0.0
 10
626.8902643695195
 20
523.9953222909141
 30
0.0
 10
626.5875868450773
 20
524.036316492549
 30
0.0
  0
SPLINE
  5
24F
330
1F
100
AcDbEntity
  8
0
  6
Continuous
 62
     7
370
    25
100
AcDbSpline
210
0.0
220
0.0
230
1.0
 70
    24
 71
     3
 72
     8
 73
     4
 74
     0
 42
0.00000001
 43
0.00000001
 40
0.0000002617953351
 40
0.0000002617953351
 40
0.0000002617953351
 40
0.0000002617953351
 40
0.0011888890957691
 40
0.0011888890957691
 40
0.0011888890957691
 40
0.0011888890957691
 10
627.4831588964116
 20
524.9318885438832
 30
0.0
 10
627.5241530980463
 20
524.6292110194411
 30
0.0
 10
627.5653892938485
 20
524.3247467497371
 30
0.0
 10
627.6069216839686
 20
524.0180955521431
 30
0.0
  0
ARC
  5
250
330
1F
100
AcDbEntity
  8
0
  6
Continuous
 62
     7
370
    25
100
AcDbCircle
 10
635.5796392334
 20
515.9398361556
 30
0.0
 40
12.09999999999989
100
AcDbArc
 50
114.0
 51
120.0
  0
ARC
  5
251
330
1F
100
AcDbEntity
  8
0
  6
Continuous
 62
     7
370
    25
100
AcDbCircle
 10
635.5796392334
 20
515.9398361556
 30
0.0
 40
11.34999999999995
100
AcDbArc
 50
116.6232618566
 51
117.3767381434
  0
SPLINE
  5
252
330
1F
100
AcDbEntity
  8
0
  6
Continuous
 62
     7
370
    25
100
AcDbSpline
210
0.0
220
0.0
230
1.0
 70
    24
 71
     3
 72
     8
 73
     4
 74
     0
 42
0.00000001
 43
0.00000001
 40
0.000000320249006
 40
0.000000320249006
 40
0.000000320249006
 40
0.000000320249006
 40
0.0011889475494401
 40
0.0011889475494401
 40
0.0011889475494401
 40
0.0011889475494401
 10
630.3604632080668
 20
526.018660572029
 30
0.0
 10
630.0816548027294
 20
526.1529206536921
 30
0.0
 10
629.8048347603346
 20
526.2862232399355
 30
0.0
 10
629.5296392333538
 20
526.4187435413985
 30
0.0
  0
SPLINE
  5
253
330
1F
100
AcDbEntity
  8
0
  6
Continuous
 62
     7
370
    25
100
AcDbSpline
210
0.0
220
0.0
230
1.0
 70
    24
 71
     3
 72
     8
 73
     4
 74
     0
 42
0.00000001
 43
0.00000001
 40
0.0000002636648993
 40
0.0000002636648993
 40
0.0000002636648993
 40
0.0000002636648993
 40
0.0011888909653332
 40
0.0011888909653332
 40
0.0011888909653332
 40
0.0011888909653332
 10
630.6581258521367
 20
526.9937361930822
 30
0.0
 10
630.6035811558637
 20
526.6932048561495
 30
0.0
 10
630.5487144750701
 20
526.3908994431822
 30
0.0
 10
630.493453693929
 20
526.0864226091165
 30
0.0
  0
ARC
  5
254
330
1F
100
AcDbEntity
  8
0
  6
Continuous
 62
     7
370
    25
100
AcDbCircle
 10
635.5796392334
 20
515.9398361556
 30
0.0
 40
12.09999999999992
100
AcDbArc
 50
96.0
 51
102.0
  0
ARC
  5
255
330
1F
100
AcDbEntity
  8
0
  6
Continuous
 62
     7
370
    25
100
AcDbCircle
 10
635.5796392334
 20
515.9398361556
 30
0.0
 40
11.35000000000002
100
AcDbArc
 50
98.6232618566
 51
99.3767381434
  0
SPLINE
  5
256
330
1F
100
AcDbEntity
  8
0
  6
Continuous
 62
     7
370
    25
100
AcDbSpline
210
0.0
220
0.0
230
1.0
 70
    24
 71
     3
 72
     8
 73
     4
 74
     0
 42
0.00000001
 43
0.00000001
 40
0.0000003202490055
 40
0.0000003202490055
 40
0.0000003202490055
 40
0.0000003202490055
 40
0.0011889475494397
 40
0.0011889475494397
 40
0.0011889475494397
 40
0.0011889475494397
 10
633.7304358928088
 20
527.1381818818879
 30
0.0
 10
633.5067619890149
 20
527.3520273428555
 30
0.0
 10
633.2846832483976
 20
527.5643477336249
 30
0.0
 10
633.0639077744588
 20
527.7754221244858
 30
0.0
  0
SPLINE
  5
257
330
1F
100
AcDbEntity
  8
0
  6
Continuous
 62
     7
370
    25
100
AcDbSpline
210
0.0
220
0.0
230
1.0
 70
    24
 71
     3
 72
     8
 73
     4
 74
     0
 42
0.00000001
 43
0.00000001
 40
0.0000002946070062
 40
0.0000002946070062
 40
0.0000002946070062
 40
0.0000002946070062
 40
0.0011889219074403
 40
0.0011889219074403
 40
0.0011889219074403
 40
0.0011889219074403
 10
634.3148448278153
 20
527.9735510895629
 30
0.0
 10
634.1701004485409
 20
527.7045840413234
 30
0.0
 10
634.0245016241464
 20
527.4340292451998
 30
0.0
 10
633.877856982027
 20
527.1615310885957
 30
0.0
  0
ARC
  5
258
330
1F
100
AcDbEntity
  8
0
  6
Continuous
 62
     7
370
    25
100
AcDbCircle
 10
635.5796392334
 20
515.9398361556
 30
0.0
 40
12.09999999999995
100
AcDbArc
 50
78.0
 51
84.0
  0
ARC
  5
259
330
1F
100
AcDbEntity
  8
0
  6
Continuous
 62
     7
370
    25
100
AcDbCircle
 10
635.5796392334
 20
515.9398361556
 30
0.0
 40
11.35000000000007
100
AcDbArc
 50
80.6232618566
 51
81.3767381434
  0
SPLINE
  5
25A
330
1F
100
AcDbEntity
  8
0
  6
Continuous
 62
     7
370
    25
100
AcDbSpline
210
0.0
220
0.0
230
1.0
 70
    24
 71
     3
 72
     8
 73
     4
 74
     0
 42
0.00000001
 43
0.00000001
 40
0.0000003202490059
 40
0.0000003202490059
 40
0.0000003202490059
 40
0.0000003202490059
 40
0.00118894754944
 40
0.00118894754944
 40
0.00118894754944
 40
0.00118894754944
 10
637.2814214846807
 20
527.1615310885957
 30
0.0
 10
637.1347768425612
 20
527.4340292451998
 30
0.0
 10
636.9891780181665
 20
527.7045840413234
 30
0.0
 10
636.8444336388924
 20
527.9735510895629
 30
0.0
  0
SPLINE
  5
25B
330
1F
100
AcDbEntity
  8
0
  6
Continuous
 62
     7
370
    25
100
AcDbSpline
210
0.0
220
0.0
230
1.0
 70
    24
 71
     3
 72
     8
 73
     4
 74
     0
 42
0.00000001
 43
0.00000001
 40
0.0000003139884087
 40
0.0000003139884087
 40
0.0000003139884087
 40
0.0000003139884087
 40
0.0011889412888428
 40
0.0011889412888428
 40
0.0011889412888428
 40
0.0011889412888428
 10
638.0953706922486
 20
527.7754221244858
 30
0.0
 10
637.87459521831
 20
527.5643477336249
 30
0.0
 10
637.6525164776928
 20
527.3520273428555
 30
0.0
 10
637.4288425738988
 20
527.1381818818879
 30
0.0
  0
ARC
  5
25C
330
1F
100
AcDbEntity
  8
0
  6
Continuous
 62
     7
370
    25
100
AcDbCircle
 10
635.5796392334
 20
515.9398361556
 30
0.0
 40
12.10000000000006
100
AcDbArc
 50
60.0
 51
66.0
  0
ARC
  5
25D
330
1F
100
AcDbEntity
  8
0
  6
Continuous
 62
     7
370
    25
100
AcDbCircle
 10
635.5796392334
 20
515.9398361556
 30
0.0
 40
11.35000000000005
100
AcDbArc
 50
62.6232618566
 51
63.3767381434
  0
SPLINE
  5
25E
330
1F
100
AcDbEntity
  8
0
  6
Continuous
 62
     7
370
    25
100
AcDbSpline
210
0.0
220
0.0
230
1.0
 70
    24
 71
     3
 72
     8
 73
     4
 74
     0
 42
0.00000001
 43
0.00000001
 40
0.0000003202490064
 40
0.0000003202490064
 40
0.0000003202490064
 40
0.0000003202490064
 40
0.0011889475494404
 40
0.0011889475494404
 40
0.0011889475494404
 40
0.0011889475494404
 10
640.6658247727785
 20
526.0864226091165
 30
0.0
 10
640.6105639916375
 20
526.3908994431822
 30
0.0
 10
640.5556973108439
 20
526.6932048561494
 30
0.0
 10
640.501152614571
 20
526.9937361930822
 30
0.0
  0
SPLINE
  5
25F
330
1F
100
AcDbEntity
  8
0
  6
Continuous
 62
     7
370
    25
100
AcDbSpline
210
0.0
220
0.0
230
1.0
 70
    24
 71
     3
 72
     8
 73
     4
 74
     0
 42
0.00000001
 43
0.00000001
 40
0.0000002879391795
 40
0.0000002879391795
 40
0.0000002879391795
 40
0.0000002879391795
 40
0.0011889152396136
 40
0.0011889152396136
 40
0.0011889152396136
 40
0.0011889152396136
 10
641.6296392333538
 20
526.4187435413984
 30
0.0
 10
641.3544437063729
 20
526.2862232399355
 30
0.0
 10
641.0776236639781
 20
526.152920653692
 30
0.0
 10
640.7988152586407
 20
526.018660572029
 30
0.0
  0
ARC
  5
260
330
1F
100
AcDbEntity
  8
0
  6
Continuous
 62
     7
370
    25
100
AcDbCircle
 10
635.5796392334
 20
515.9398361556
 30
0.0
 40
12.09999999999994
100
AcDbArc
 50
42.0
 51
48.0
  0
ARC
  5
261
330
1F
100
AcDbEntity
  8
0
  6
Continuous
 62
     7
370
    25
100
AcDbCircle
 10
635.5796392334
 20
515.9398361556
 30
0.0
 40
11.35000000000003
100
AcDbArc
 50
44.6232618566
 51
45.3767381434
  0
SPLINE
  5
262
330
1F
100
AcDbEntity
  8
0
  6
Continuous
 62
     7
370
    25
100
AcDbSpline
210
0.0
220
0.0
230
1.0
 70
    24
 71
     3
 72
     8
 73
     4
 74
     0
 42
0.00000001
 43
0.00000001
 40
0.0000003202490064
 40
0.0000003202490064
 40
0.0000003202490064
 40
0.0000003202490064
 40
0.0011889475494404
 40
0.0011889475494404
 40
0.0011889475494404
 40
0.0011889475494404
 10
643.5523567827389
 20
524.018095552143
 30
0.0
 10
643.593889172859
 20
524.3247467497371
 30
0.0
 10
643.6351253686612
 20
524.629211019441
 30
0.0
 10
643.6761195702959
 20
524.9318885438831
 30
0.0
  0
SPLINE
  5
263
330
1F
100
AcDbEntity
  8
0
  6
Continuous
 62
     7
370
    25
100
AcDbSpline
210
0.0
220
0.0
230
1.0
 70
    24
 71
     3
 72
     8
 73
     4
 74
     0
 42
0.00000001
 43
0.00000001
 40
0.0000002617953351
 40
0.0000002617953351
 40
0.0000002617953351
 40
0.0000002617953351
 40
0.0011888890957691
 40
0.0011888890957691
 40
0.0011888890957691
 40
0.0011888890957691
 10
644.5716916216302
 20
524.0363164925488
 30
0.0
 10
644.2690140971881
 20
523.9953222909141
 30
0.0
 10
643.9645498274841
 20
523.954086095112
 30
0.0
 10
643.6578986298899
 20
523.9125537049919
 30
0.0
  0
ARC
  5
264
330
1F
100
AcDbEntity
  8
0
  6
Continuous
 62
     7
370
    25
100
AcDbCircle
 10
635.5796392334
 20
515.9398361556
 30
0.0
 40
12.1000000000001
100
AcDbArc
 50
24.0
 51
30.0
  0
SPLINE
  5
265
330
1F
100
AcDbEntity
  8
0
  6
Continuous
 62
     7
370
    25
100
AcDbSpline
210
0.0
220
0.0
230
1.0
 70
    24
 71
     3
 72
     8
 73
     4
 74
     0
 42
0.00000001
 43
0.00000001
 40
0.0000002636648993
 40
0.0000002636648993
 40
0.0000002636648993
 40
0.0000002636648993
 40
0.0011888909653332
 40
0.0011888909653332
 40
0.0011888909653332
 40
0.0011888909653332
 10
646.6335392708293
 20
520.8613495368239
 30
0.0
 10
646.3330079338964
 20
520.9158942330968
 30
0.0
 10
646.0307025209291
 20
520.9707609138903
 30
0.0
 10
645.7262256868635
 20
521.0260216950314
 30
0.0
  0
ARC
  5
266
330
1F
100
AcDbEntity
  8
0
  6
Continuous
 62
     7
370
    25
100
AcDbCircle
 10
635.5796392334
 20
515.9398361556
 30
0.0
 40
11.3500000000001
100
AcDbArc
 50
26.6232618566
 51
27.3767381434
  0
SPLINE
  5
267
330
1F
100
AcDbEntity
  8
0
  6
Continuous
 62
     7
370
    25
100
AcDbSpline
210
0.0
220
0.0
230
1.0
 70
    24
 71
     3
 72
     8
 73
     4
 74
     0
 42
0.00000001
 43
0.00000001
 40
0.000000320249006
 40
0.000000320249006
 40
0.000000320249006
 40
0.000000320249006
 40
0.0011889475494401
 40
0.0011889475494401
 40
0.0011889475494401
 40
0.0011889475494401
 10
645.6584636497761
 20
521.1590121808937
 30
0.0
 10
645.7927237314391
 20
521.4378205862312
 30
0.0
 10
645.9260263176825
 20
521.7146406286258
 30
0.0
 10
646.0585466191455
 20
521.9898361556067
 30
0.0
  0
ARC
  5
268
330
1F
100
AcDbEntity
  8
0
  6
Continuous
 62
     7
370
    25
100
AcDbCircle
 10
635.5796392334
 20
515.9398361556
 30
0.0
 40
12.10000000000011
100
AcDbArc
 50
6.0
 51
12.0
  0
ARC
  5
269
330
1F
100
AcDbEntity
  8
0
  6
Continuous
 62
     7
370
    25
100
AcDbCircle
 10
635.5796392334
 20
515.9398361556
 30
0.0
 40
11.35000000000015
100
AcDbArc
 50
8.6232618566
 51
9.3767381434
  0
SPLINE
  5
26A
330
1F
100
AcDbEntity
  8
0
  6
Continuous
 62
     7
370
    25
100
AcDbSpline
210
0.0
220
0.0
230
1.0
 70
    24
 71
     3
 72
     8
 73
     4
 74
     0
 42
0.00000001
 43
0.00000001
 40
0.0000003202490055
 40
0.0000003202490055
 40
0.0000003202490055
 40
0.0000003202490055
 40
0.0011889475494397
 40
0.0011889475494397
 40
0.0011889475494397
 40
0.0011889475494397
 10
646.7779849596348
 20
517.7890394961516
 30
0.0
 10
646.9918304206026
 20
518.0127133999456
 30
0.0
 10
647.204150811372
 20
518.234792140563
 30
0.0
 10
647.4152252022328
 20
518.4555676145017
 30
0.0
  0
SPLINE
  5
26B
330
1F
100
AcDbEntity
  8
0
  6
Continuous
 62
     7
370
    25
100
AcDbSpline
210
0.0
220
0.0
230
1.0
 70
    24
 71
     3
 72
     8
 73
     4
 74
     0
 42
0.00000001
 43
0.00000001
 40
0.0000002946070062
 40
0.0000002946070062
 40
0.0000002946070062
 40
0.0000002946070062
 40
0.0011889219074404
 40
0.0011889219074404
 40
0.0011889219074404
 40
0.0011889219074404
 10
647.6133541673098
 20
517.2046305611453
 30
0.0
 10
647.3443871190702
 20
517.3493749404196
 30
0.0
 10
647.0738323229467
 20
517.4949737648142
 30
0.0
 10
646.8013341663427
 20
517.6416184069336
 30
0.0
  0
ARC
  5
26C
330
1F
100
AcDbEntity
  8
0
  6
Continuous
 62
     7
370
    25
100
AcDbCircle
 10
635.5796392334
 20
515.9398361556
 30
0.0
 40
12.10000000000007
100
AcDbArc
 50
348.0
 51
354.0
  0
ARC
  5
26D
330
1F
100
AcDbEntity
  8
0
  6
Continuous
 62
     7
370
    25
100
AcDbCircle
 10
635.5796392334
 20
515.9398361556
 30
0.0
 40
11.35000000000018
100
AcDbArc
 50
350.6232618566
 51
351.3767381434
  0
SPLINE
  5
26E
330
1F
100
AcDbEntity
  8
0
  6
Continuous
 62
     7
370
    25
100
AcDbSpline
210
0.0
220
0.0
230
1.0
 70
    24
 71
     3
 72
     8
 73
     4
 74
     0
 42
0.00000001
 43
0.00000001
 40
0.0000003202490059
 40
0.0000003202490059
 40
0.0000003202490059
 40
0.0000003202490059
 40
0.00118894754944
 40
0.00118894754944
 40
0.00118894754944
 40
0.00118894754944
 10
646.8013341663427
 20
514.2380539042798
 30
0.0
 10
647.0738323229467
 20
514.3846985463992
 30
0.0
 10
647.3443871190702
 20
514.530297370794
 30
0.0
 10
647.6133541673098
 20
514.6750417500681
 30
0.0
  0
SPLINE
  5
26F
330
1F
100
AcDbEntity
  8
0
  6
Continuous
 62
     7
370
    25
100
AcDbSpline
210
0.0
220
0.0
230
1.0
 70
    24
 71
     3
 72
     8
 73
     4
 74
     0
 42
0.00000001
 43
0.00000001
 40
0.0000003139884087
 40
0.0000003139884087
 40
0.0000003139884087
 40
0.0000003139884087
 40
0.0011889412888428
 40
0.0011889412888428
 40
0.0011889412888428
 40
0.0011889412888428
 10
647.4152252022327
 20
513.4241046967119
 30
0.0
 10
647.2041508113718
 20
513.6448801706505
 30
0.0
 10
646.9918304206025
 20
513.8669589112677
 30
0.0
 10
646.7779849596348
 20
514.0906328150618
 30
0.0
  0
ARC
  5
270
330
1F
100
AcDbEntity
  8
0
  6
Continuous
 62
     7
370
    25
100
AcDbCircle
 10
635.5796392334
 20
515.9398361556
 30
0.0
 40
12.10000000000003
100
AcDbArc
 50
342.0
 51
348.0
  0
ARC
  5
271
330
1F
100
AcDbEntity
  8
0
  6
Continuous
 62
     7
370
    25
100
AcDbCircle
 10
635.5796392334
 20
515.9398361556
 30
0.0
 40
11.35000000000005
100
AcDbArc
 50
344.6232618566
 51
345.3767381434
  0
SPLINE
  5
272
330
1F
100
AcDbEntity
  8
0
  6
Continuous
 62
     7
370
    25
100
AcDbSpline
210
0.0
220
0.0
230
1.0
 70
    24
 71
     3
 72
     8
 73
     4
 74
     0
 42
0.00000001
 43
0.00000001
 40
0.0000003202490061
 40
0.0000003202490061
 40
0.0000003202490061
 40
0.0000003202490061
 40
0.0011889475494402
 40
0.0011889475494402
 40
0.0011889475494402
 40
0.0011889475494402
 10
646.561975863807
 20
513.0743899189093
 30
0.0
 10
646.8483097860844
 20
513.1917474127824
 30
0.0
 10
647.1326016760938
 20
513.3082679545142
 30
0.0
 10
647.4152252022327
 20
513.4241046967119
 30
0.0
  0
SPLINE
  5
273
330
1F
100
AcDbEntity
  8
0
  6
Continuous
 62
     7
370
    25
100
AcDbSpline
210
0.0
220
0.0
230
1.0
 70
    24
 71
     3
 72
     8
 73
     4
 74
     0
 42
0.00000001
 43
0.00000001
 40
0.0000003279386314
 40
0.0000003279386314
 40
0.0000003279386314
 40
0.0000003279386314
 40
0.0011889552390655
 40
0.0011889552390655
 40
0.0011889552390655
 40
0.0011889552390655
 10
647.087423080525
 20
512.2007305236699
 30
0.0
 10
646.9005822982804
 20
512.442359848174
 30
0.0
 10
646.7126385703083
 20
512.6854155423812
 30
0.0
 10
646.5233448665873
 20
512.9302170745385
 30
0.0
  0
ARC
  5
274
330
1F
100
AcDbEntity
  8
0
  6
Continuous
 62
     7
370
    25
100
AcDbCircle
 10
635.5796392334
 20
515.9398361556
 30
0.0
 40
12.10000000000013
100
AcDbArc
 50
330.0
 51
336.0
  0
ARC
  5
275
330
1F
100
AcDbEntity
  8
0
  6
Continuous
 62
     7
370
    25
100
AcDbCircle
 10
635.5796392334
 20
515.9398361556
 30
0.0
 40
11.35000000000012
100
AcDbArc
 50
332.6232618566
 51
333.3767381434
  0
SPLINE
  5
276
330
1F
100
AcDbEntity
  8
0
  6
Continuous
 62
     7
370
    25
100
AcDbSpline
210
0.0
220
0.0
230
1.0
 70
    24
 71
     3
 72
     8
 73
     4
 74
     0
 42
0.00000001
 43
0.00000001
 40
0.0000003202490064
 40
0.0000003202490064
 40
0.0000003202490064
 40
0.0000003202490064
 40
0.0011889475494404
 40
0.0011889475494404
 40
0.0011889475494404
 40
0.0011889475494404
 10
645.7262256868635
 20
510.8536506161821
 30
0.0
 10
646.0307025209291
 20
510.908911397323
 30
0.0
 10
646.3330079338963
 20
510.9637780781165
 30
0.0
 10
646.6335392708291
 20
511.0183227743895
 30
0.0
  0
SPLINE
  5
277
330
1F
100
AcDbEntity
  8
0
  6
Continuous
 62
     7
370
    25
100
AcDbSpline
210
0.0
220
0.0
230
1.0
 70
    24
 71
     3
 72
     8
 73
     4
 74
     0
 42
0.00000001
 43
0.00000001
 40
0.0000002879391795
 40
0.0000002879391795
 40
0.0000002879391795
 40
0.0000002879391795
 40
0.0011889152396135
 40
0.0011889152396135
 40
0.0011889152396135
 40
0.0011889152396135
 10
646.0585466191454
 20
509.8898361556067
 30
0.0
 10
645.9260263176824
 20
510.1650316825877
 30
0.0
 10
645.792723731439
 20
510.4418517249824
 30
0.0
 10
645.658463649776
 20
510.7206601303198
 30
0.0
  0
ARC
  5
278
330
1F
100
AcDbEntity
  8
0
  6
Continuous
 62
     7
370
    25
100
AcDbCircle
 10
635.5796392334
 20
515.9398361556
 30
0.0
 40
12.10000000000002
100
AcDbArc
 50
312.0
 51
318.0
  0
ARC
  5
279
330
1F
100
AcDbEntity
  8
0
  6
Continuous
 62
     7
370
    25
100
AcDbCircle
 10
635.5796392334
 20
515.9398361556
 30
0.0
 40
11.35000000000007
100
AcDbArc
 50
314.6232618566
 51
315.3767381434
  0
SPLINE
  5
27A
330
1F
100
AcDbEntity
  8
0
  6
Continuous
 62
     7
370
    25
100
AcDbSpline
210
0.0
220
0.0
230
1.0
 70
    24
 71
     3
 72
     8
 73
     4
 74
     0
 42
0.00000001
 43
0.00000001
 40
0.0000003202490064
 40
0.0000003202490064
 40
0.0000003202490064
 40
0.0000003202490064
 40
0.0011889475494404
 40
0.0011889475494404
 40
0.0011889475494404
 40
0.0011889475494404
 10
643.6578986298898
 20
507.9671186062216
 30
0.0
 10
643.964549827484
 20
507.9255862161015
 30
0.0
 10
644.269014097188
 20
507.8843500202993
 30
0.0
 10
644.5716916216301
 20
507.8433558186646
 30
0.0
  0
SPLINE
  5
27B
330
1F
100
AcDbEntity
  8
0
  6
Continuous
 62
     7
370
    25
100
AcDbSpline
210
0.0
220
0.0
230
1.0
 70
    24
 71
     3
 72
     8
 73
     4
 74
     0
 42
0.00000001
 43
0.00000001
 40
0.0000002617953351
 40
0.0000002617953351
 40
0.0000002617953351
 40
0.0000002617953351
 40
0.0011888890957691
 40
0.0011888890957691
 40
0.0011888890957691
 40
0.0011888890957691
 10
643.6761195702958
 20
506.9477837673303
 30
0.0
 10
643.6351253686611
 20
507.2504612917725
 30
0.0
 10
643.5938891728589
 20
507.5549255614764
 30
0.0
 10
643.5523567827388
 20
507.8615767590705
 30
0.0
  0
ARC
  5
27C
330
1F
100
AcDbEntity
  8
0
  6
Continuous
 62
     7
370
    25
100
AcDbCircle
 10
635.5796392334
 20
515.9398361556
 30
0.0
 40
12.10000000000002
100
AcDbArc
 50
306.0
 51
312.0
  0
ARC
  5
27D
330
1F
100
AcDbEntity
  8
0
  6
Continuous
 62
     7
370
    25
100
AcDbCircle
 10
635.5796392334
 20
515.9398361556
 30
0.0
 40
11.35000000000013
100
AcDbArc
 50
308.6232618566
 51
309.3767381434
  0
SPLINE
  5
27E
330
1F
100
AcDbEntity
  8
0
  6
Continuous
 62
     7
370
    25
100
AcDbSpline
210
0.0
220
0.0
230
1.0
 70
    24
 71
     3
 72
     8
 73
     4
 74
     0
 42
0.00000001
 43
0.00000001
 40
0.0000003202490064
 40
0.0000003202490064
 40
0.0000003202490064
 40
0.0000003202490064
 40
0.0011889475494404
 40
0.0011889475494404
 40
0.0011889475494404
 40
0.0011889475494404
 10
642.7802691661692
 20
507.1663859465589
 30
0.0
 10
643.0808991795022
 20
507.0930272967739
 30
0.0
 10
643.3793852059019
 20
507.0201918149347
 30
0.0
 10
643.6761195702958
 20
506.9477837673303
 30
0.0
  0
SPLINE
  5
27F
330
1F
100
AcDbEntity
  8
0
  6
Continuous
 62
     7
370
    25
100
AcDbSpline
210
0.0
220
0.0
230
1.0
 70
    24
 71
     3
 72
     8
 73
     4
 74
     0
 42
0.00000001
 43
0.00000001
 40
0.0000002595427406
 40
0.0000002595427406
 40
0.0000002595427406
 40
0.0000002595427406
 40
0.0011888868431745
 40
0.0011888868431745
 40
0.0011888868431745
 40
0.0011888868431745
 10
642.6918407860925
 20
506.1507305236699
 30
0.0
 10
642.6827095714792
 20
506.4560350098632
 30
0.0
 10
642.6735244541043
 20
506.7631417486194
 30
0.0
 10
642.6642733612067
 20
507.0724543957826
 30
0.0
  0
ARC
  5
280
330
1F
100
AcDbEntity
  8
0
  6
Continuous
 62
     7
370
    25
100
AcDbCircle
 10
635.5796392334
 20
515.9398361556
 30
0.0
 40
12.10000000000009
100
AcDbArc
 50
294.0
 51
300.0
  0
ARC
  5
281
330
1F
100
AcDbEntity
  8
0
  6
Continuous
 62
     7
370
    25
100
AcDbCircle
 10
635.5796392334
 20
515.9398361556
 30
0.0
 40
11.35000000000015
100
AcDbArc
 50
296.6232618566
 51
297.3767381434
  0
SPLINE
  5
282
330
1F
100
AcDbEntity
  8
0
  6
Continuous
 62
     7
370
    25
100
AcDbSpline
210
0.0
220
0.0
230
1.0
 70
    24
 71
     3
 72
     8
 73
     4
 74
     0
 42
0.00000001
 43
0.00000001
 40
0.000000320249006
 40
0.000000320249006
 40
0.000000320249006
 40
0.000000320249006
 40
0.0011889475494401
 40
0.0011889475494401
 40
0.0011889475494401
 40
0.0011889475494401
 10
640.7988152586406
 20
505.8610117391844
 30
0.0
 10
641.077623663978
 20
505.7267516575214
 30
0.0
 10
641.3544437063728
 20
505.5934490712781
 30
0.0
 10
641.6296392333536
 20
505.4609287698151
 30
0.0
  0
SPLINE
  5
283
330
1F
100
AcDbEntity
  8
0
  6
Continuous
 62
     7
370
    25
100
AcDbSpline
210
0.0
220
0.0
230
1.0
 70
    24
 71
     3
 72
     8
 73
     4
 74
     0
 42
0.00000001
 43
0.00000001
 40
0.0000002636648993
 40
0.0000002636648993
 40
0.0000002636648993
 40
0.0000002636648993
 40
0.0011888909653333
 40
0.0011888909653333
 40
0.0011888909653333
 40
0.0011888909653333
 10
640.5011526145709
 20
504.8859361181313
 30
0.0
 10
640.5556973108437
 20
505.1864674550641
 30
0.0
 10
640.6105639916373
 20
505.4887728680314
 30
0.0
 10
640.6658247727784
 20
505.7932497020971
 30
0.0
  0
ARC
  5
284
330
1F
100
AcDbEntity
  8
0
  6
Continuous
 62
     7
370
    25
100
AcDbCircle
 10
635.5796392334
 20
515.9398361556
 30
0.0
 40
12.10000000000009
100
AcDbArc
 50
288.0
 51
294.0
  0
ARC
  5
285
330
1F
100
AcDbEntity
  8
0
  6
Continuous
 62
     7
370
    25
100
AcDbCircle
 10
635.5796392334
 20
515.9398361556
 30
0.0
 40
11.35000000000004
100
AcDbArc
 50
290.6232618566
 51
291.3767381434
  0
SPLINE
  5
286
330
1F
100
AcDbEntity
  8
0
  6
Continuous
 62
     7
370
    25
100
AcDbSpline
210
0.0
220
0.0
230
1.0
 70
    24
 71
     3
 72
     8
 73
     4
 74
     0
 42
0.00000001
 43
0.00000001
 40
0.0000003202490057
 40
0.0000003202490057
 40
0.0000003202490057
 40
0.0000003202490057
 40
0.0011889475494398
 40
0.0011889475494398
 40
0.0011889475494398
 40
0.0011889475494398
 10
639.7167000384895
 20
505.3706721444559
 30
0.0
 10
639.9799471021959
 20
505.208004139412
 30
0.0
 10
640.2413167809447
 20
505.0464962250505
 30
0.0
 10
640.5011526145709
 20
504.8859361181313
 30
0.0
  0
SPLINE
  5
287
330
1F
100
AcDbEntity
  8
0
  6
Continuous
 62
     7
370
    25
100
AcDbSpline
210
0.0
220
0.0
230
1.0
 70
    24
 71
     3
 72
     8
 73
     4
 74
     0
 42
0.00000001
 43
0.00000001
 40
0.0000002702729228
 40
0.0000002702729228
 40
0.0000002702729228
 40
0.0000002702729228
 40
0.0011888975733568
 40
0.0011888975733568
 40
0.0011888975733568
 40
0.0011888975733568
 10
639.3187448652905
 20
504.4320523084355
 30
0.0
 10
639.4044048388234
 20
504.7252358299787
 30
0.0
 10
639.4905704744539
 20
505.0201500524349
 30
0.0
 10
639.5773550268192
 20
505.317182606014
 30
0.0
  0
ARC
  5
288
330
1F
100
AcDbEntity
  8
0
  6
Continuous
 62
     7
370
    25
100
AcDbCircle
 10
635.5796392334
 20
515.9398361556
 30
0.0
 40
12.10000000000004
100
AcDbArc
 50
276.0
 51
282.0
  0
ARC
  5
289
330
1F
100
AcDbEntity
  8
0
  6
Continuous
 62
     7
370
    25
100
AcDbCircle
 10
635.5796392334
 20
515.9398361556
 30
0.0
 40
11.35000000000009
100
AcDbArc
 50
278.6232618566
 51
279.3767381434
  0
SPLINE
  5
28A
330
1F
100
AcDbEntity
  8
0
  6
Continuous
 62
     7
370
    25
100
AcDbSpline
210
0.0
220
0.0
230
1.0
 70
    24
 71
     3
 72
     8
 73
     4
 74
     0
 42
0.00000001
 43
0.00000001
 40
0.0000003202490055
 40
0.0000003202490055
 40
0.0000003202490055
 40
0.0000003202490055
 40
0.0011889475494397
 40
0.0011889475494397
 40
0.0011889475494397
 40
0.0011889475494397
 10
637.4288425738986
 20
504.7414904293257
 30
0.0
 10
637.6525164776925
 20
504.527644968358
 30
0.0
 10
637.8745952183098
 20
504.3153245775886
 30
0.0
 10
638.0953706922485
 20
504.1042501867278
 30
0.0
  0
SPLINE
  5
28B
330
1F
100
AcDbEntity
  8
0
  6
Continuous
 62
     7
370
    25
100
AcDbSpline
210
0.0
220
0.0
230
1.0
 70
    24
 71
     3
 72
     8
 73
     4
 74
     0
 42
0.00000001
 43
0.00000001
 40
0.0000002946070062
 40
0.0000002946070062
 40
0.0000002946070062
 40
0.0000002946070062
 40
0.0011889219074403
 40
0.0011889219074403
 40
0.0011889219074403
 40
0.0011889219074403
 10
636.8444336388922
 20
503.9061212216507
 30
0.0
 10
636.9891780181665
 20
504.1750882698902
 30
0.0
 10
637.134776842561
 20
504.4456430660138
 30
0.0
 10
637.2814214846804
 20
504.7181412226178
 30
0.0
  0
ARC
  5
28C
330
1F
100
AcDbEntity
  8
0
  6
Continuous
 62
     7
370
    25
100
AcDbCircle
 10
635.5796392334
 20
515.9398361556
 30
0.0
 40
12.10000000000004
100
AcDbArc
 50
270.0
 51
276.0
  0
ARC
  5
28D
330
1F
100
AcDbEntity
  8
0
  6
Continuous
 62
     7
370
    25
100
AcDbCircle
 10
635.5796392334
 20
515.9398361556
 30
0.0
 40
11.35000000000007
100
AcDbArc
 50
272.6232618566
 51
273.3767381434
  0
SPLINE
  5
28E
330
1F
100
AcDbEntity
  8
0
  6
Continuous
 62
     7
370
    25
100
AcDbSpline
210
0.0
220
0.0
230
1.0
 70
    24
 71
     3
 72
     8
 73
     4
 74
     0
 42
0.00000001
 43
0.00000001
 40
0.0000003202490055
 40
0.0000003202490055
 40
0.0000003202490055
 40
0.0000003202490055
 40
0.0011889475494397
 40
0.0011889475494397
 40
0.0011889475494397
 40
0.0011889475494397
 10
636.2481665746056
 20
504.6095417554599
 30
0.0
 10
636.4482622319396
 20
504.3734874728658
 30
0.0
 10
636.6469308778118
 20
504.1391166459314
 30
0.0
 10
636.8444336388922
 20
503.9061212216507
 30
0.0
  0
SPLINE
  5
28F
330
1F
100
AcDbEntity
  8
0
  6
Continuous
 62
     7
370
    25
100
AcDbSpline
210
0.0
220
0.0
230
1.0
 70
    24
 71
     3
 72
     8
 73
     4
 74
     0
 42
0.00000001
 43
0.00000001
 40
0.0000003139884087
 40
0.0000003139884087
 40
0.0000003139884087
 40
0.0000003139884087
 40
0.0011889412888428
 40
0.0011889412888428
 40
0.0011889412888428
 40
0.0011889412888428
 10
635.5796392333535
 20
503.8398361556068
 30
0.0
 10
635.7517053999953
 20
504.0921998666814
 30
0.0
 10
635.9247872958642
 20
504.3460533139558
 30
0.0
 10
636.0991124168436
 20
504.6017301580588
 30
0.0
  0
ARC
  5
290
330
1F
100
AcDbEntity
  8
0
  6
Continuous
 62
     7
370
    25
100
AcDbCircle
 10
635.5796392334
 20
515.9398361556
 30
0.0
 40
12.10000000000006
100
AcDbArc
 50
258.0
 51
264.0
  0
ARC
  5
291
330
1F
100
AcDbEntity
  8
0
  6
Continuous
 62
     7
370
    25
100
AcDbCircle
 10
635.5796392334
 20
515.9398361556
 30
0.0
 40
11.35000000000005
100
AcDbArc
 50
260.6232618566
 51
261.3767381434
  0
SPLINE
  5
292
330
1F
100
AcDbEntity
  8
0
  6
Continuous
 62
     7
370
    25
100
AcDbSpline
210
0.0
220
0.0
230
1.0
 70
    24
 71
     3
 72
     8
 73
     4
 74
     0
 42
0.00000001
 43
0.00000001
 40
0.0000003202490059
 40
0.0000003202490059
 40
0.0000003202490059
 40
0.0000003202490059
 40
0.00118894754944
 40
0.00118894754944
 40
0.00118894754944
 40
0.00118894754944
 10
633.8778569820267
 20
504.7181412226179
 30
0.0
 10
634.0245016241462
 20
504.4456430660139
 30
0.0
 10
634.1701004485408
 20
504.1750882698902
 30
0.0
 10
634.314844827815
 20
503.9061212216507
 30
0.0
  0
SPLINE
  5
293
330
1F
100
AcDbEntity
  8
0
  6
Continuous
 62
     7
370
    25
100
AcDbSpline
210
0.0
220
0.0
230
1.0
 70
    24
 71
     3
 72
     8
 73
     4
 74
     0
 42
0.00000001
 43
0.00000001
 40
0.0000003139884087
 40
0.0000003139884087
 40
0.0000003139884087
 40
0.0000003139884087
 40
0.0011889412888429
 40
0.0011889412888429
 40
0.0011889412888429
 40
0.0011889412888429
 10
633.0639077744588
 20
504.1042501867278
 30
0.0
 10
633.2846832483974
 20
504.3153245775886
 30
0.0
 10
633.5067619890146
 20
504.527644968358
 30
0.0
 10
633.7304358928086
 20
504.7414904293257
 30
0.0
  0
ARC
  5
294
330
1F
100
AcDbEntity
  8
0
  6
Continuous
 62
     7
370
    25
100
AcDbCircle
 10
635.5796392334
 20
515.9398361556
 30
0.0
 40
12.1
100
AcDbArc
 50
252.0
 51
258.0
  0
ARC
  5
295
330
1F
100
AcDbEntity
  8
0
  6
Continuous
 62
     7
370
    25
100
AcDbCircle
 10
635.5796392334
 20
515.9398361556
 30
0.0
 40
11.35000000000005
100
AcDbArc
 50
254.6232618566
 51
255.3767381434
  0
SPLINE
  5
296
330
1F
100
AcDbEntity
  8
0
  6
Continuous
 62
     7
370
    25
100
AcDbSpline
210
0.0
220
0.0
230
1.0
 70
    24
 71
     3
 72
     8
 73
     4
 74
     0
 42
0.00000001
 43
0.00000001
 40
0.0000003202490061
 40
0.0000003202490061
 40
0.0000003202490061
 40
0.0000003202490061
 40
0.0011889475494402
 40
0.0011889475494402
 40
0.0011889475494402
 40
0.0011889475494402
 10
632.7141929966563
 20
504.9574995251535
 30
0.0
 10
632.8315504905293
 20
504.6711656028762
 30
0.0
 10
632.9480710322612
 20
504.3868737128667
 30
0.0
 10
633.0639077744588
 20
504.1042501867278
 30
0.0
  0
SPLINE
  5
297
330
1F
100
AcDbEntity
  8
0
  6
Continuous
 62
     7
370
    25
100
AcDbSpline
210
0.0
220
0.0
230
1.0
 70
    24
 71
     3
 72
     8
 73
     4
 74
     0
 42
0.00000001
 43
0.00000001
 40
0.0
 40
0.0
 40
0.0
 40
0.0
 40
1.0
 40
1.0
 40
1.0
 40
1.0
 10
631.8405336014168
 20
504.4320523084355
 30
0.0
 10
632.0821701159855
 20
504.6188986504245
 30
0.0
 10
632.3252101231678
 20
504.8068302483457
 30
0.0
 10
632.5700201522855
 20
504.9961305223731
 30
0.0
  0
ARC
  5
298
330
1F
100
AcDbEntity
  8
0
  6
Continuous
 62
     7
370
    25
100
AcDbCircle
 10
635.5796392334
 20
515.9398361556
 30
0.0
 40
12.09999999999999
100
AcDbArc
 50
216.0
 51
222.0
  0
ARC
  5
299
330
1F
100
AcDbEntity
  8
0
  6
Continuous
 62
     7
370
    25
100
AcDbCircle
 10
635.5796392334
 20
515.9398361556
 30
0.0
 40
11.34999999999994
100
AcDbArc
 50
218.6232618566
 51
219.3767381434
  0
SPLINE
  5
29A
330
1F
100
AcDbEntity
  8
0
  6
Continuous
 62
     7
370
    25
100
AcDbSpline
210
0.0
220
0.0
230
1.0
 70
    24
 71
     3
 72
     8
 73
     4
 74
     0
 42
0.00000001
 43
0.00000001
 40
0.0000003202490064
 40
0.0000003202490064
 40
0.0000003202490064
 40
0.0000003202490064
 40
0.0011889475494404
 40
0.0011889475494404
 40
0.0011889475494404
 40
0.0011889475494404
 10
626.8061890243058
 20
508.7392062227914
 30
0.0
 10
626.7328303745207
 20
508.4385762094583
 30
0.0
 10
626.6599948926817
 20
508.1400901830586
 30
0.0
 10
626.5875868450772
 20
507.8433558186647
 30
0.0
  0
SPLINE
  5
29B
330
1F
100
AcDbEntity
  8
0
  6
Continuous
 62
     7
370
    25
100
AcDbSpline
210
0.0
220
0.0
230
1.0
 70
    24
 71
     3
 72
     8
 73
     4
 74
     0
 42
0.00000001
 43
0.00000001
 40
0.0000002595427406
 40
0.0000002595427406
 40
0.0000002595427406
 40
0.0000002595427406
 40
0.0011888868431745
 40
0.0011888868431745
 40
0.0011888868431745
 40
0.0011888868431745
 10
625.7905336014168
 20
508.8276346028679
 30
0.0
 10
626.0958380876102
 20
508.8367658174813
 30
0.0
 10
626.4029448263664
 20
508.8459509348562
 30
0.0
 10
626.7122574735296
 20
508.8552020277539
 30
0.0
  0
ARC
  5
29C
330
1F
100
AcDbEntity
  8
0
  6
Continuous
 62
     7
370
    25
100
AcDbCircle
 10
635.5796392334
 20
515.9398361556
 30
0.0
 40
12.09999999999989
100
AcDbArc
 50
198.0
 51
204.0
  0
ARC
  5
29D
330
1F
100
AcDbEntity
  8
0
  6
Continuous
 62
     7
370
    25
100
AcDbCircle
 10
635.5796392334
 20
515.9398361556
 30
0.0
 40
11.34999999999995
100
AcDbArc
 50
200.6232618566
 51
201.3767381434
  0
SPLINE
  5
29E
330
1F
100
AcDbEntity
  8
0
  6
Continuous
 62
     7
370
    25
100
AcDbSpline
210
0.0
220
0.0
230
1.0
 70
    24
 71
     3
 72
     8
 73
     4
 74
     0
 42
0.00000001
 43
0.00000001
 40
0.0000003202490055
 40
0.0000003202490055
 40
0.0000003202490055
 40
0.0000003202490055
 40
0.0011889475494397
 40
0.0011889475494397
 40
0.0011889475494397
 40
0.0011889475494397
 10
625.0104752222028
 20
511.8027753504711
 30
0.0
 10
624.8478072171589
 20
511.5395282867646
 30
0.0
 10
624.6862993027975
 20
511.2781586080159
 30
0.0
 10
624.5257391958783
 20
511.0183227743897
 30
0.0
  0
SPLINE
  5
29F
330
1F
100
AcDbEntity
  8
0
  6
Continuous
 62
     7
370
    25
100
AcDbSpline
210
0.0
220
0.0
230
1.0
 70
    24
 71
     3
 72
     8
 73
     4
 74
     0
 42
0.00000001
 43
0.00000001
 40
0.0000002702729228
 40
0.0000002702729228
 40
0.0000002702729228
 40
0.0000002702729228
 40
0.0011888975733568
 40
0.0011888975733568
 40
0.0011888975733568
 40
0.0011888975733568
 10
624.0718553861824
 20
512.2007305236701
 30
0.0
 10
624.3650389077255
 20
512.115070550137
 30
0.0
 10
624.6599531301819
 20
512.0289049145067
 30
0.0
 10
624.9569856837609
 20
511.9421203621414
 30
0.0
  0
ARC
  5
2A0
330
1F
100
AcDbEntity
  8
0
  6
Continuous
 62
     7
370
    25
100
AcDbCircle
 10
635.5796392334
 20
515.9398361556
 30
0.0
 40
12.09999999999992
100
AcDbArc
 50
186.0
 51
192.0
  0
ARC
  5
2A1
330
1F
100
AcDbEntity
  8
0
  6
Continuous
 62
     7
370
    25
100
AcDbCircle
 10
635.5796392334
 20
515.9398361556
 30
0.0
 40
11.34999999999993
100
AcDbArc
 50
188.6232618566
 51
189.3767381434
  0
SPLINE
  5
2A2
330
1F
100
AcDbEntity
  8
0
  6
Continuous
 62
     7
370
    25
100
AcDbSpline
210
0.0
220
0.0
230
1.0
 70
    24
 71
     3
 72
     8
 73
     4
 74
     0
 42
0.00000001
 43
0.00000001
 40
0.0000002946070062
 40
0.0000002946070062
 40
0.0000002946070062
 40
0.0000002946070062
 40
0.0011889219074403
 40
0.0011889219074403
 40
0.0011889219074403
 40
0.0011889219074403
 10
623.5459242993976
 20
514.6750417500684
 30
0.0
 10
623.8148913476372
 20
514.5302973707942
 30
0.0
 10
624.0854461437608
 20
514.3846985463996
 30
0.0
 10
624.3579443003648
 20
514.23805390428
 30
0.0
  0
SPLINE
  5
2A3
330
1F
100
AcDbEntity
  8
0
  6
Continuous
 62
     7
370
    25
100
AcDbSpline
210
0.0
220
0.0
230
1.0
 70
    24
 71
     3
 72
     8
 73
     4
 74
     0
 42
0.00000001
 43
0.00000001
 40
0.0000003202490055
 40
0.0000003202490055
 40
0.0000003202490055
 40
0.0000003202490055
 40
0.0011889475494396
 40
0.0011889475494396
 40
0.0011889475494396
 40
0.0011889475494396
 10
624.3812935070727
 20
514.090632815062
 30
0.0
 10
624.1674480461049
 20
513.866958911268
 30
0.0
 10
623.9551276553356
 20
513.6448801706507
 30
0.0
 10
623.7440532644747
 20
513.4241046967121
 30
0.0
  0
ARC
  5
2A4
330
1F
100
AcDbEntity
  8
0
  6
Continuous
 62
     7
370
    25
100
AcDbCircle
 10
533.9796392334
 20
515.9398361556
 30
0.0
 40
12.09999999999994
100
AcDbArc
 50
6.0
 51
12.0
  0
ARC
  5
2A5
330
1F
100
AcDbEntity
  8
0
  6
Continuous
 62
     7
370
    25
100
AcDbCircle
 10
533.9796392334
 20
515.9398361556
 30
0.0
 40
12.10000000000003
100
AcDbArc
 50
12.0
 51
18.0
  0
SPLINE
  5
2A6
330
1F
100
AcDbEntity
  8
0
  6
Continuous
 62
     7
370
    25
100
AcDbSpline
210
0.0
220
0.0
230
1.0
 70
    24
 71
     3
 72
     8
 73
     4
 74
     0
 42
0.00000001
 43
0.00000001
 40
0.0000003202490059
 40
0.0000003202490059
 40
0.0000003202490059
 40
0.0000003202490059
 40
0.0011889475494399
 40
0.0011889475494399
 40
0.0011889475494399
 40
0.0011889475494399
 10
545.2013341663427
 20
517.6416184069337
 30
0.0
 10
545.4738323229467
 20
517.4949737648143
 30
0.0
 10
545.7443871190702
 20
517.3493749404196
 30
0.0
 10
546.0133541673098
 20
517.2046305611454
 30
0.0
  0
ARC
  5
2A7
330
1F
100
AcDbEntity
  8
0
  6
Continuous
 62
     7
370
    25
100
AcDbCircle
 10
533.9796392334
 20
515.9398361556
 30
0.0
 40
11.35000000000005
100
AcDbArc
 50
8.6232618566
 51
9.3767381434
  0
SPLINE
  5
2A8
330
1F
100
AcDbEntity
  8
0
  6
Continuous
 62
     7
370
    25
100
AcDbSpline
210
0.0
220
0.0
230
1.0
 70
    24
 71
     3
 72
     8
 73
     4
 74
     0
 42
0.00000001
 43
0.00000001
 40
0.0000003139884087
 40
0.0000003139884087
 40
0.0000003139884087
 40
0.0000003139884087
 40
0.0011889412888428
 40
0.0011889412888428
 40
0.0011889412888428
 40
0.0011889412888428
 10
545.8152252022328
 20
518.4555676145017
 30
0.0
 10
545.6041508113719
 20
518.2347921405631
 30
0.0
 10
545.3918304206026
 20
518.0127133999457
 30
0.0
 10
545.1779849596347
 20
517.7890394961518
 30
0.0
  0
SPLINE
  5
2A9
330
1F
100
AcDbEntity
  8
0
  6
Continuous
 62
     7
370
    25
100
AcDbSpline
210
0.0
220
0.0
230
1.0
 70
    24
 71
     3
 72
     8
 73
     4
 74
     0
 42
0.00000001
 43
0.00000001
 40
0.0000003279386314
 40
0.0000003279386314
 40
0.0000003279386314
 40
0.0000003279386314
 40
0.0011889552390655
 40
0.0011889552390655
 40
0.0011889552390655
 40
0.0011889552390655
 10
545.4874230805251
 20
519.6789417875436
 30
0.0
 10
545.3005822982803
 20
519.4373124630395
 30
0.0
 10
545.1126385703084
 20
519.1942567688322
 30
0.0
 10
544.9233448665874
 20
518.9494552366749
 30
0.0
  0
ARC
  5
2AA
330
1F
100
AcDbEntity
  8
0
  6
Continuous
 62
     7
370
    25
100
AcDbCircle
 10
533.9796392334
 20
515.9398361556
 30
0.0
 40
11.34999999999997
100
AcDbArc
 50
14.6232618566
 51
15.3767381434
  0
SPLINE
  5
2AB
330
1F
100
AcDbEntity
  8
0
  6
Continuous
 62
     7
370
    25
100
AcDbSpline
210
0.0
220
0.0
230
1.0
 70
    24
 71
     3
 72
     8
 73
     4
 74
     0
 42
0.00000001
 43
0.00000001
 40
0.0000003202490061
 40
0.0000003202490061
 40
0.0000003202490061
 40
0.0000003202490061
 40
0.0011889475494401
 40
0.0011889475494401
 40
0.0011889475494401
 40
0.0011889475494401
 10
544.961975863807
 20
518.8052823923043
 30
0.0
 10
545.2483097860844
 20
518.6879248984311
 30
0.0
 10
545.5326016760938
 20
518.5714043566992
 30
0.0
 10
545.8152252022327
 20
518.4555676145018
 30
0.0
  0
LINE
  5
2AC
330
1F
100
AcDbEntity
  8
0
  6
Continuous
 62
     7
370
    25
100
AcDbLine
 10
623.5327789927
 20
523.9047363356
 30
0.0
 11
623.1050626548
 21
523.2269117094
 31
0.0
  0
ARC
  5
2AD
330
1F
100
AcDbEntity
  8
0
  6
Continuous
 62
     7
370
    25
100
AcDbCircle
 10
635.5873530668
 20
515.9657805187
 30
0.0
 40
14.49213856564361
100
AcDbArc
 50
224.3041451232
 51
146.6081928738
  0
SPLINE
  5
2AE
330
1F
100
AcDbEntity
  8
0
  6
Continuous
 62
     7
370
    25
100
AcDbSpline
210
0.0
220
0.0
230
1.0
 70
     8
 71
     3
 72
    37
 73
    33
 74
     0
 42
0.00000001
 43
0.00000001
 40
0.0
 40
0.0
 40
0.0
 40
0.0
 40
0.0270468399119289
 40
0.0536755323973439
 40
0.0806995567228296
 40
0.1160924415191126
 40
0.1515617858409365
 40
0.186579596244747
 40
0.2210262050495006
 40
0.256138936303801
 40
0.2916298780958707
 40
0.3269691301622666
 40
0.3616401137680545
 40
0.3963096041591572
 40
0.4316481733277366
 40
0.4671393029010837
 40
0.5022530760219823
 40
0.5366998993492728
 40
0.5717165514480839
 40
0.6071855829458326
 40
0.6425790279932027
 40
0.6773755675765027
 40
0.7119334473313468
 40
0.7472070505060135
 40
0.7827090356470535
 40
0.8179085261849678
 40
0.8523929965486329
 40
0.8873034968130726
 40
0.9227397290133192
 40
0.9581766166175645
 40
0.9930890254347592
 40
1.0
 40
1.0
 40
1.0
 40
1.0
 10
546.071796935973
 20
523.941693570919
 30
0.0
 10
545.6981364032533
 20
524.4619932887911
 30
0.0
 10
544.9565921749847
 20
525.4945488277713
 30
0.0
 10
543.5956887808322
 20
526.8444047098068
 30
0.0
 10
541.9273409099645
 20
528.1368245257817
 30
0.0
 10
539.8889508287575
 20
529.2606984222739
 30
0.0
 10
537.5092122234273
 20
530.0782008682909
 30
0.0
 10
535.0463797836276
 20
530.4708552873943
 30
0.0
 10
532.5616732302591
 20
530.4410009459352
 30
0.0
 10
530.1064136926146
 20
529.9881424545914
 30
0.0
 10
527.7456089825896
 20
529.1120516480034
 30
0.0
 10
525.5806370037587
 20
527.8468928167017
 30
0.0
 10
523.6786192422534
 20
526.2437341829814
 30
0.0
 10
522.0749427319624
 20
524.3421755336248
 30
0.0
 10
520.8091943853557
 20
522.1776041113509
 30
0.0
 10
519.9324261594313
 20
519.8170343815792
 30
0.0
 10
519.478872191756
 20
517.3618764287257
 30
0.0
 10
519.448316193558
 20
514.8771449251191
 30
0.0
 10
519.8403094089557
 20
512.4143497116484
 30
0.0
 10
520.656992858888
 20
510.0339554645794
 30
0.0
 10
521.8699846076833
 20
507.835007732005
 30
0.0
 10
523.4274897703267
 20
505.8932295688763
 30
0.0
 10
525.2885755482905
 20
504.2447092392004
 30
0.0
 10
527.4178050328904
 20
502.9279425543891
 30
0.0
 10
529.7565895017735
 20
501.9924728284502
 30
0.0
 10
532.2029126556569
 20
501.4780604251662
 30
0.0
 10
534.6870006134701
 20
501.3867120890429
 30
0.0
 10
537.1546920016663
 20
501.719418999809
 30
0.0
 10
539.558123357915
 20
502.4705823301193
 30
0.0
 10
541.7679936539896
 20
503.6505504449793
 30
0.0
 10
543.2850239403398
 20
504.7088157386541
 30
0.0
 10
543.9500563720013
 20
505.4418908654866
 30
0.0
 10
544.059947582338
 20
505.5630255788029
 30
0.0
  0
CIRCLE
  5
2AF
330
1F
100
AcDbEntity
  8
0
  6
Continuous
 62
     7
370
    25
100
AcDbCircle
 10
584.7796392334
 20
515.9398361556
 30
0.0
 40
13.0
  0
SPLINE
  5
2B0
330
1F
100
AcDbEntity
  8
0
  6
Continuous
 62
     7
370
    25
100
AcDbSpline
210
0.0
220
0.0
230
1.0
 70
     8
 71
     3
 72
   123
 73
   119
 74
     0
 42
0.00000001
 43
0.00000001
 40
0.0
 40
0.0
 40
0.0
 40
0.0
 40
0.03125
 40
0.03125
 40
0.0625000000000001
 40
0.0625000000000001
 40
0.0703125000000001
 40
0.0703125000000001
 40
0.0781250000000001
 40
0.0781250000000001
 40
0.0937500000000001
 40
0.0937500000000001
 40
0.1093750000000001
 40
0.1093750000000001
 40
0.1250000000000001
 40
0.1250000000000001
 40
0.1562500000000001
 40
0.1562500000000001
 40
0.1640625000000001
 40
0.1640625000000001
 40
0.171875
 40
0.171875
 40
0.1875
 40
0.1875
 40
0.2031249999999999
 40
0.2031249999999999
 40
0.2187499999999999
 40
0.2187499999999999
 40
0.2343749999999999
 40
0.2343749999999999
 40
0.2421874999999999
 40
0.2421874999999999
 40
0.2499999999999998
 40
0.2499999999999998
 40
0.2812499999999998
 40
0.2812499999999998
 40
0.2968749999999997
 40
0.2968749999999997
 40
0.3124999999999996
 40
0.3281249999999996
 40
0.3281249999999996
 40
0.3437499999999995
 40
0.3437499999999995
 40
0.3749999999999994
 40
0.3749999999999994
 40
0.3828124999999995
 40
0.3828124999999995
 40
0.3906249999999995
 40
0.3906249999999995
 40
0.4062499999999995
 40
0.4062499999999995
 40
0.4218749999999995
 40
0.4218749999999995
 40
0.4374999999999996
 40
0.4374999999999996
 40
0.4531249999999996
 40
0.4531249999999996
 40
0.4687499999999996
 40
0.4687499999999996
 40
0.4999999999999996
 40
0.4999999999999996
 40
0.5156249999999997
 40
0.5156249999999997
 40
0.5312499999999997
 40
0.5312499999999997
 40
0.5468749999999997
 40
0.5468749999999997
 40
0.5624999999999998
 40
0.5624999999999998
 40
0.5937499999999997
 40
0.5937499999999997
 40
0.6093749999999997
 40
0.6093749999999997
 40
0.6249999999999997
 40
0.6249999999999997
 40
0.6406249999999997
 40
0.6406249999999997
 40
0.6484374999999997
 40
0.6484374999999997
 40
0.6562499999999998
 40
0.6562499999999998
 40
0.6874999999999997
 40
0.6874999999999997
 40
0.7031249999999997
 40
0.7031249999999997
 40
0.7187499999999997
 40
0.7187499999999997
 40
0.7343749999999997
 40
0.7343749999999997
 40
0.7499999999999997
 40
0.7499999999999997
 40
0.7656249999999998
 40
0.7656249999999998
 40
0.7812499999999998
 40
0.7812499999999998
 40
0.8124999999999998
 40
0.8124999999999998
 40
0.8281249999999998
 40
0.8281249999999998
 40
0.8437499999999998
 40
0.8437499999999998
 40
0.8593749999999999
 40
0.8593749999999999
 40
0.8749999999999999
 40
0.8749999999999999
 40
0.8906249999999999
 40
0.8906249999999999
 40
0.9062499999999999
 40
0.9062499999999999
 40
0.9374999999999999
 40
0.9374999999999999
 40
0.953125
 40
0.953125
 40
0.96875
 40
0.96875
 40
0.984375
 40
0.984375
 40
1.0
 40
1.0
 40
1.0
 40
1.0
 10
588.5365591486361
 20
503.173886698326
 30
0.0
 10
587.4739690245405
 20
502.8472254601916
 30
0.0
 10
586.3878122800405
 20
502.6569910509222
 30
0.0
 10
584.1684523025029
 20
502.5488746485319
 30
0.0
 10
583.0729157164243
 20
502.6326486488134
 30
0.0
 10
581.7261973160606
 20
502.9024319342017
 30
0.0
 10
581.4579076671661
 20
502.9647752821414
 30
0.0
 10
580.9234773189532
 20
503.1065607021569
 30
0.0
 10
580.6565282148866
 20
503.18630984293
 30
0.0
 10
579.8689125541629
 20
503.4484823388522
 30
0.0
 10
579.3591951346295
 20
503.6541085029366
 30
0.0
 10
578.3695919430172
 20
504.1252671414228
 30
0.0
 10
577.8897076722935
 20
504.3908026307737
 30
0.0
 10
576.9602585637093
 20
504.9827594382582
 30
0.0
 10
576.5084988394361
 20
505.3114212628053
 30
0.0
 10
575.2341133912354
 20
506.3650389591115
 30
0.0
 10
574.4810115920736
 20
507.1614094556854
 30
0.0
 10
573.6600465446091
 20
508.2740945787889
 30
0.0
 10
573.5016109587697
 20
508.5032385338689
 30
0.0
 10
573.2011515373589
 20
508.9676636822588
 30
0.0
 10
573.0586687143394
 20
509.2034915843278
 30
0.0
 10
572.6540076920747
 20
509.9216097687466
 30
0.0
 10
572.4145346598987
 20
510.4144961312234
 30
0.0
 10
571.9958432776708
 20
511.428388601186
 30
0.0
 10
571.8166173676224
 20
511.9493911805823
 30
0.0
 10
571.5208069771052
 20
513.0206299273203
 30
0.0
 10
571.4072442211353
 20
513.5599899643082
 30
0.0
 10
571.2463459775438
 20
514.6450690687897
 30
0.0
 10
571.1989800547253
 20
515.190930530533
 30
0.0
 10
571.1778025005548
 20
516.0147303239946
 30
0.0
 10
571.1790626450129
 20
516.290165425841
 30
0.0
 10
571.1983740543881
 20
516.8427193527807
 30
0.0
 10
571.2165634136737
 20
517.1206621104266
 30
0.0
 10
571.3488903962991
 20
518.4975799035649
 30
0.0
 10
571.5848875785185
 20
519.5678857556585
 30
0.0
 10
572.1314026453712
 20
521.1271461310791
 30
0.0
 10
572.3477496615941
 20
521.6419976718821
 30
0.0
 10
572.8358209647583
 20
522.6305671701168
 30
0.0
 10
573.3801027434379
 20
523.5827868803688
 30
0.0
 10
574.0345788188173
 20
524.4637469050933
 30
0.0
 10
574.7454720372659
 20
525.3082234586037
 30
0.0
 10
575.130249421944
 20
525.7123945287824
 30
0.0
 10
576.3378128488566
 20
526.8374210680149
 30
0.0
 10
577.2224105089829
 20
527.4840528242861
 30
0.0
 10
578.4294396445479
 20
528.1607218658615
 30
0.0
 10
578.6763460643413
 20
528.2894969627326
 30
0.0
 10
579.1738335995877
 20
528.5301947160739
 30
0.0
 10
579.4251950204081
 20
528.6425869736851
 30
0.0
 10
580.1869878278004
 20
528.9563328523715
 30
0.0
 10
580.705100891952
 20
529.1343372461631
 30
0.0
 10
581.7617326538187
 20
529.4283210490984
 30
0.0
 10
582.3002488515427
 20
529.5443080573395
 30
0.0
 10
583.3984828224516
 20
529.7118376950589
 30
0.0
 10
583.9477377974841
 20
529.7617371517302
 30
0.0
 10
585.0442502041464
 20
529.7961076149033
 30
0.0
 10
585.5918921590215
 20
529.7807427398632
 30
0.0
 10
586.6859474933761
 20
529.6852010821832
 30
0.0
 10
587.2351151502926
 20
529.6043465507214
 30
0.0
 10
588.8613954601174
 20
529.2640558091211
 30
0.0
 10
589.8998034731237
 20
528.9134595042682
 30
0.0
 10
591.3901833646828
 20
528.2058430832456
 30
0.0
 10
591.8787771063855
 20
527.9372253470943
 30
0.0
 10
592.8130961719364
 20
527.3481108454392
 30
0.0
 10
593.2591913611714
 20
527.0280809967823
 30
0.0
 10
594.1102792364544
 20
526.3383170684665
 30
0.0
 10
594.5152186659947
 20
525.9685171624163
 30
0.0
 10
595.2835220711796
 20
525.1786482177771
 30
0.0
 10
595.6484503415573
 20
524.7561632938695
 30
0.0
 10
596.6532187579268
 20
523.4434280899728
 30
0.0
 10
597.2128318128551
 20
522.5015607782998
 30
0.0
 10
597.8859215009926
 20
520.9881002718072
 30
0.0
 10
598.0819029256543
 20
520.4660403708858
 30
0.0
 10
598.4072124961209
 20
519.415249845405
 30
0.0
 10
598.5381963106561
 20
518.8831691626648
 30
0.0
 10
598.7375671315793
 20
517.8057942587373
 30
0.0
 10
598.8059580230664
 20
517.2605008576147
 30
0.0
 10
598.8601888061926
 20
516.4323534130303
 30
0.0
 10
598.870127159906
 20
516.1540949670473
 30
0.0
 10
598.8735394988704
 20
515.6013463877133
 30
0.0
 10
598.8671505303589
 20
515.3260150299383
 30
0.0
 10
598.795471023328
 20
513.954477424409
 30
0.0
 10
598.6125948389491
 20
512.8734202243405
 30
0.0
 10
598.1445358265521
 20
511.27679528659
 30
0.0
 10
597.9578081773451
 20
510.7560263202188
 30
0.0
 10
597.528293241095
 20
509.7461823970849
 30
0.0
 10
597.2850394004676
 20
509.2555152418625
 30
0.0
 10
596.7416108773414
 20
508.302654582337
 30
0.0
 10
596.4411409615192
 20
507.8400477604201
 30
0.0
 10
595.7822176749313
 20
506.9461248049826
 30
0.0
 10
595.4297702046025
 20
506.52285603154
 30
0.0
 10
594.6806035820574
 20
505.7219516686882
 30
0.0
 10
594.283941531525
 20
505.3442586155626
 30
0.0
 10
593.446688039105
 20
504.6341637607157
 30
0.0
 10
593.0042631027782
 20
504.3006441116838
 30
0.0
 10
591.6200312200879
 20
503.3790690168042
 30
0.0
 10
590.6399982718644
 20
502.8796671911077
 30
0.0
 10
589.0847185002702
 20
502.3018566509178
 30
0.0
 10
588.5523746089668
 20
502.138723951474
 30
0.0
 10
587.4819516880622
 20
501.8774048348624
 30
0.0
 10
586.9410490593418
 20
501.7780749466226
 30
0.0
 10
585.8478692261659
 20
501.6420318640816
 30
0.0
 10
585.2923665582273
 20
501.6053826580095
 30
0.0
 10
584.186739613101
 20
501.5969833191155
 30
0.0
 10
583.6380402670486
 20
501.6245450303551
 30
0.0
 10
582.5486484628746
 20
501.7414823958872
 30
0.0
 10
582.0079564054474
 20
501.8308611432673
 30
0.0
 10
580.9346774850399
 20
502.0721916089842
 30
0.0
 10
580.3987079236151
 20
502.2254762271085
 30
0.0
 10
578.8352396471157
 20
502.7721527410843
 30
0.0
 10
577.8495549262516
 20
503.2496034739359
 30
0.0
 10
576.4551623191242
 20
504.1336692884573
 30
0.0
 10
576.0019495080232
 20
504.458954332916
 30
0.0
 10
575.1442528037712
 20
505.1529179953432
 30
0.0
 10
574.7383120282453
 20
505.5220925825348
 30
0.0
 10
573.9709313434739
 20
506.303547359711
 30
0.0
 10
573.6094181504199
 20
506.7157549958276
 30
0.0
 10
572.931505185759
 20
507.5838660536239
 30
0.0
 10
572.6142887562405
 20
508.0413794533421
 30
0.0
 10
572.3246884995764
 20
508.5152686786976
 30
0.0
  0
ARC
  5
2B1
330
1F
100
AcDbEntity
  8
0
  6
Continuous
 62
     7
370
    25
100
AcDbCircle
 10
584.7796392334
 20
515.9398361556
 30
0.0
 40
14.49999999999999
100
AcDbArc
 50
149.2002487064
 51
210.7997512935
  0
SPLINE
  5
2B2
330
1F
100
AcDbEntity
  8
0
  6
Continuous
 62
     7
370
    25
100
AcDbSpline
210
0.0
220
0.0
230
1.0
 70
     8
 71
     3
 72
    42
 73
    38
 74
     0
 42
0.00000001
 43
0.00000001
 40
0.0
 40
0.0
 40
0.0
 40
0.0
 40
0.0625
 40
0.0625
 40
0.1249999999999999
 40
0.1249999999999999
 40
0.1874999999999999
 40
0.1874999999999999
 40
0.2499999999999998
 40
0.2499999999999998
 40
0.3749999999999996
 40
0.3749999999999996
 40
0.4062499999999996
 40
0.4062499999999996
 40
0.4374999999999996
 40
0.4374999999999996
 40
0.4999999999999996
 40
0.4999999999999996
 40
0.5624999999999996
 40
0.5624999999999996
 40
0.6249999999999996
 40
0.6249999999999996
 40
0.6562499999999994
 40
0.6562499999999994
 40
0.6874999999999994
 40
0.6874999999999994
 40
0.7499999999999996
 40
0.7499999999999996
 40
0.8124999999999997
 40
0.8124999999999997
 40
0.8749999999999997
 40
0.8749999999999997
 40
0.9374999999999998
 40
0.9374999999999998
 40
0.9687499999999999
 40
0.9687499999999999
 40
1.0
 40
1.0
 40
1.0
 40
1.0
 10
572.3246884995776
 20
523.3644036325182
 30
0.0
 10
571.987436483002
 20
522.7510105606481
 30
0.0
 10
571.6974920980118
 20
522.1184137185788
 30
0.0
 10
571.210401534276
 20
520.8155505371153
 30
0.0
 10
571.0125469416532
 20
520.1405545106004
 30
0.0
 10
570.7193434384892
 20
518.7829429110063
 30
0.0
 10
570.6227228225371
 20
518.0991171148353
 30
0.0
 10
570.5276905826152
 20
516.7216009468685
 30
0.0
 10
570.528916267412
 20
516.0263973665268
 30
0.0
 10
570.6897873016732
 20
513.9346720872273
 30
0.0
 10
570.9983790602038
 20
512.5901679287233
 30
0.0
 10
571.6317267408461
 20
510.9710058671818
 30
0.0
 10
571.7716965554202
 20
510.6490633197132
 30
0.0
 10
572.0731637269236
 20
510.0209737797259
 30
0.0
 10
572.2348047471376
 20
509.7141511864671
 30
0.0
 10
572.7517250144665
 20
508.8148698074305
 30
0.0
 10
573.1388305687037
 20
508.2434842891401
 30
0.0
 10
573.9984248279742
 20
507.1572476025926
 30
0.0
 10
574.4752647411419
 20
506.6389630584568
 30
0.0
 10
575.4882235715821
 20
505.6906418608887
 30
0.0
 10
576.0264844665758
 20
505.2587618755754
 30
0.0
 10
576.8809236249444
 20
504.6735398867782
 30
0.0
 10
577.1736085129522
 20
504.4889391740257
 30
0.0
 10
577.7750217917783
 20
504.141083462904
 30
0.0
 10
578.0851615367083
 20
503.9771865804124
 30
0.0
 10
579.0284536275076
 20
503.5242912242499
 30
0.0
 10
579.6732936494533
 20
503.2737226570229
 30
0.0
 10
580.9939242247351
 20
502.8720737347963
 30
0.0
 10
581.6697137010633
 20
502.7209899252243
 30
0.0
 10
583.0534371867425
 20
502.5221468181641
 30
0.0
 10
583.7481444299516
 20
502.4766576031788
 30
0.0
 10
585.128977616797
 20
502.4905656593684
 30
0.0
 10
585.8173750139183
 20
502.5502575304379
 30
0.0
 10
586.8467251793614
 20
502.7227002310262
 30
0.0
 10
587.1902536833425
 20
502.7942501347072
 30
0.0
 10
587.8689092313389
 20
502.9640242898148
 30
0.0
 10
588.2045734535724
 20
503.0622560171693
 30
0.0
 10
588.5365591486387
 20
503.1738866983268
 30
0.0
  0
SPLINE
  5
2B3
330
1F
100
AcDbEntity
  8
0
  6
Continuous
 62
     7
370
    25
100
AcDbSpline
210
0.0
220
0.0
230
1.0
 70
     8
 71
     3
 72
    20
 73
    16
 74
     0
 42
0.00000001
 43
0.00000001
 40
0.0
 40
0.0
 40
0.0
 40
0.0
 40
0.0045422926277624
 40
0.0966389773834578
 40
0.1893562320173109
 40
0.2815861213482576
 40
0.3722549950775624
 40
0.3830765863787217
 40
0.4756958238846149
 40
0.5700558983385257
 40
0.6650108476795653
 40
0.7593709221334758
 40
0.8519901596393631
 40
0.9446093971452556
 40
1.0
 40
1.0
 40
1.0
 40
1.0
 10
593.4523364177198
 20
527.5503801407993
 30
0.0
 10
593.424544353352
 20
527.5744099008965
 30
0.0
 10
592.8332577718859
 20
528.0856520494891
 30
0.0
 10
591.478957884452
 20
528.8382174913545
 30
0.0
 10
589.4281238468002
 20
529.7421915942627
 30
0.0
 10
587.2534608950393
 20
530.283378866267
 30
0.0
 10
585.6878834051737
 20
530.432439247798
 30
0.0
 10
584.1181856826461
 20
530.4465964716996
 30
0.0
 10
582.5159139120402
 20
530.3222136699408
 30
0.0
 10
580.2891489166569
 20
529.7910113198263
 30
0.0
 10
578.1608590862514
 20
528.9092454705795
 30
0.0
 10
576.2094964607702
 20
527.7105994255983
 30
0.0
 10
574.4881838698086
 20
526.232581943101
 30
0.0
 10
573.2063483561512
 20
524.754293698655
 30
0.0
 10
572.5647846871593
 20
523.7429025553727
 30
0.0
 10
572.3246884995776
 20
523.3644036325182
 30
0.0
  0
ARC
  5
2B4
330
1F
100
AcDbEntity
  8
0
  6
Continuous
 62
     7
370
    25
100
AcDbCircle
 10
533.9796392334
 20
515.9398361556
 30
0.0
 40
11.35000000000008
100
AcDbArc
 50
159.3767381434
 51
164.6232618566
  0
ARC
  5
2B5
330
1F
100
AcDbEntity
  8
0
  6
Continuous
 62
     7
370
    25
100
AcDbCircle
 10
533.9796392334
 20
515.9398361556
 30
0.0
 40
11.35000000000003
100
AcDbArc
 50
195.3767381434
 51
200.6232618566
  0
ARC
  5
2B6
330
1F
100
AcDbEntity
  8
0
  6
Continuous
 62
     7
370
    25
100
AcDbCircle
 10
533.9796392334
 20
515.9398361556
 30
0.0
 40
11.35000000000002
100
AcDbArc
 50
153.3767381434
 51
158.6232618566
  0
ARC
  5
2B7
330
1F
100
AcDbEntity
  8
0
  6
Continuous
 62
     7
370
    25
100
AcDbCircle
 10
533.9796392334
 20
515.9398361556
 30
0.0
 40
11.35000000000006
100
AcDbArc
 50
135.3767381434
 51
140.6232618566
  0
ARC
  5
2B8
330
1F
100
AcDbEntity
  8
0
  6
Continuous
 62
     7
370
    25
100
AcDbCircle
 10
533.9796392334
 20
515.9398361556
 30
0.0
 40
11.35000000000007
100
AcDbArc
 50
309.3767381434
 51
314.6232618566
  0
ARC
  5
2B9
330
1F
100
AcDbEntity
  8
0
  6
Continuous
 62
     7
370
    25
100
AcDbCircle
 10
635.5796392334
 20
515.9398361556
 30
0.0
 40
11.35
100
AcDbArc
 50
123.3767381434
 51
128.6232618566
  0
ARC
  5
2BA
330
1F
100
AcDbEntity
  8
0
  6
Continuous
 62
     7
370
    25
100
AcDbCircle
 10
533.9796392334
 20
515.9398361556
 30
0.0
 40
11.35000000000003
100
AcDbArc
 50
303.3767381434
 51
308.6232618566
  0
ARC
  5
2BB
330
1F
100
AcDbEntity
  8
0
  6
Continuous
 62
     7
370
    25
100
AcDbCircle
 10
533.9796392334
 20
515.9398361556
 30
0.0
 40
11.35
100
AcDbArc
 50
111.3767381434
 51
116.6232618566
  0
ARC
  5
2BC
330
1F
100
AcDbEntity
  8
0
  6
Continuous
 62
     7
370
    25
100
AcDbCircle
 10
635.5796392334
 20
515.9398361556
 30
0.0
 40
11.35000000000013
100
AcDbArc
 50
303.3767381434
 51
308.6232618566
  0
ARC
  5
2BD
330
1F
100
AcDbEntity
  8
0
  6
Continuous
 62
     7
370
    25
100
AcDbCircle
 10
533.9796392334
 20
515.9398361556
 30
0.0
 40
11.35000000000002
100
AcDbArc
 50
93.3767381434
 51
98.6232618566
  0
ARC
  5
2BE
330
1F
100
AcDbEntity
  8
0
  6
Continuous
 62
     7
370
    25
100
AcDbCircle
 10
635.5796392334
 20
515.9398361556
 30
0.0
 40
11.34999999999997
100
AcDbArc
 50
105.3767381434
 51
110.6232618566
  0
ARC
  5
2BF
330
1F
100
AcDbEntity
  8
0
  6
Continuous
 62
     7
370
    25
100
AcDbCircle
 10
533.9796392334
 20
515.9398361556
 30
0.0
 40
11.35
100
AcDbArc
 50
87.3767381434
 51
92.6232618566
  0
ARC
  5
2C0
330
1F
100
AcDbEntity
  8
0
  6
Continuous
 62
     7
370
    25
100
AcDbCircle
 10
635.5796392334
 20
515.9398361556
 30
0.0
 40
11.34999999999995
100
AcDbArc
 50
111.3767381434
 51
116.6232618566
  0
ARC
  5
2C1
330
1F
100
AcDbEntity
  8
0
  6
Continuous
 62
     7
370
    25
100
AcDbCircle
 10
635.5796392334
 20
515.9398361556
 30
0.0
 40
11.34999999999995
100
AcDbArc
 50
135.3767381434
 51
140.6232618566
  0
ARC
  5
2C2
330
1F
100
AcDbEntity
  8
0
  6
Continuous
 62
     7
370
    25
100
AcDbCircle
 10
635.5796392334
 20
515.9398361556
 30
0.0
 40
11.35000000000009
100
AcDbArc
 50
15.3767381434
 51
20.6232618566
  0
ARC
  5
2C3
330
1F
100
AcDbEntity
  8
0
  6
Continuous
 62
     7
370
    25
100
AcDbCircle
 10
635.5796392334
 20
515.9398361556
 30
0.0
 40
11.34999999999989
100
AcDbArc
 50
117.3767381434
 51
122.6232618566
  0
ARC
  5
2C4
330
1F
100
AcDbEntity
  8
0
  6
Continuous
 62
     7
370
    25
100
AcDbCircle
 10
635.5796392334
 20
515.9398361556
 30
0.0
 40
11.35000000000015
100
AcDbArc
 50
39.3767381434
 51
44.6232618566
  0
ARC
  5
2C5
330
1F
100
AcDbEntity
  8
0
  6
Continuous
 62
     7
370
    25
100
AcDbCircle
 10
635.5796392334
 20
515.9398361556
 30
0.0
 40
11.35000000000003
100
AcDbArc
 50
51.3767381434
 51
56.6232618566
  0
ARC
  5
2C6
330
1F
100
AcDbEntity
  8
0
  6
Continuous
 62
     7
370
    25
100
AcDbCircle
 10
635.5796392334
 20
515.9398361556
 30
0.0
 40
11.34999999999994
100
AcDbArc
 50
171.3767381434
 51
176.6232618566
  0
ARC
  5
2C7
330
1F
100
AcDbEntity
  8
0
  6
Continuous
 62
     7
370
    25
100
AcDbCircle
 10
635.5796392334
 20
515.9398361556
 30
0.0
 40
11.35000000000003
100
AcDbArc
 50
69.3767381434
 51
74.6232618566
  0
ARC
  5
2C8
330
1F
100
AcDbEntity
  8
0
  6
Continuous
 62
     7
370
    25
100
AcDbCircle
 10
635.5796392334
 20
515.9398361556
 30
0.0
 40
11.35000000000005
100
AcDbArc
 50
63.3767381434
 51
68.6232618566
  0
ARC
  5
2C9
330
1F
100
AcDbEntity
  8
0
  6
Continuous
 62
     7
370
    25
100
AcDbCircle
 10
635.5796392334
 20
515.9398361556
 30
0.0
 40
11.35000000000009
100
AcDbArc
 50
309.3767381434
 51
314.6232618566
  0
ARC
  5
2CA
330
1F
100
AcDbEntity
  8
0
  6
Continuous
 62
     7
370
    25
100
AcDbCircle
 10
533.9796392334
 20
515.9398361556
 30
0.0
 40
11.34999999999991
100
AcDbArc
 50
165.3767381434
 51
170.6232618566
  0
ARC
  5
2CB
330
1F
100
AcDbEntity
  8
0
  6
Continuous
 62
     7
370
    25
100
AcDbCircle
 10
635.5796392334
 20
515.9398361556
 30
0.0
 40
11.35000000000007
100
AcDbArc
 50
75.3767381434
 51
80.6232618566
  0
ARC
  5
2CC
330
1F
100
AcDbEntity
  8
0
  6
Continuous
 62
     7
370
    25
100
AcDbCircle
 10
635.5796392334
 20
515.9398361556
 30
0.0
 40
11.35000000000013
100
AcDbArc
 50
339.3767381434
 51
344.6232618566
  0
ARC
  5
2CD
330
1F
100
AcDbEntity
  8
0
  6
Continuous
 62
     7
370
    25
100
AcDbCircle
 10
533.9796392334
 20
515.9398361556
 30
0.0
 40
11.34999999999994
100
AcDbArc
 50
57.3767381434
 51
62.6232618566
  0
ARC
  5
2CE
330
1F
100
AcDbEntity
  8
0
  6
Continuous
 62
     7
370
    25
100
AcDbCircle
 10
533.9796392334
 20
515.9398361556
 30
0.0
 40
11.35
100
AcDbArc
 50
357.3767381434
 51
2.6232618566
  0
ARC
  5
2CF
330
1F
100
AcDbEntity
  8
0
  6
Continuous
 62
     7
370
    25
100
AcDbCircle
 10
533.9796392334
 20
515.9398361556
 30
0.0
 40
11.35000000000004
100
AcDbArc
 50
351.3767381434
 51
356.6232618566
  0
ARC
  5
2D0
330
1F
100
AcDbEntity
  8
0
  6
Continuous
 62
     7
370
    25
100
AcDbCircle
 10
533.9796392334
 20
515.9398361556
 30
0.0
 40
11.35000000000006
100
AcDbArc
 50
51.3767381434
 51
56.6232618566
  0
ARC
  5
2D1
330
1F
100
AcDbEntity
  8
0
  6
Continuous
 62
     7
370
    25
100
AcDbCircle
 10
635.5796392334
 20
515.9398361556
 30
0.0
 40
11.35000000000002
100
AcDbArc
 50
81.3767381434
 51
86.6232618566
  0
ARC
  5
2D2
330
1F
100
AcDbEntity
  8
0
  6
Continuous
 62
     7
370
    25
100
AcDbCircle
 10
635.5796392334
 20
515.9398361556
 30
0.0
 40
11.35000000000001
100
AcDbArc
 50
93.3767381434
 51
98.6232618566
  0
ARC
  5
2D3
330
1F
100
AcDbEntity
  8
0
  6
Continuous
 62
     7
370
    25
100
AcDbCircle
 10
533.9796392334
 20
515.9398361556
 30
0.0
 40
11.35000000000003
100
AcDbArc
 50
45.3767381434
 51
50.6232618566
  0
ARC
  5
2D4
330
1F
100
AcDbEntity
  8
0
  6
Continuous
 62
     7
370
    25
100
AcDbCircle
 10
635.5796392334
 20
515.9398361556
 30
0.0
 40
11.35000000000002
100
AcDbArc
 50
99.3767381434
 51
104.6232618566
  0
ARC
  5
2D5
330
1F
100
AcDbEntity
  8
0
  6
Continuous
 62
     7
370
    25
100
AcDbCircle
 10
533.9796392334
 20
515.9398361556
 30
0.0
 40
11.35
100
AcDbArc
 50
243.3767381434
 51
248.6232618566
  0
ARC
  5
2D6
330
1F
100
AcDbEntity
  8
0
  6
Continuous
 62
     7
370
    25
100
AcDbCircle
 10
533.9796392334
 20
515.9398361556
 30
0.0
 40
11.34999999999997
100
AcDbArc
 50
39.3767381434
 51
44.6232618566
  0
ARC
  5
2D7
330
1F
100
AcDbEntity
  8
0
  6
Continuous
 62
     7
370
    25
100
AcDbCircle
 10
635.5796392334
 20
515.9398361556
 30
0.0
 40
11.35
100
AcDbArc
 50
261.3767381434
 51
266.6232618566
  0
ARC
  5
2D8
330
1F
100
AcDbEntity
  8
0
  6
Continuous
 62
     7
370
    25
100
AcDbCircle
 10
533.9796392334
 20
515.9398361556
 30
0.0
 40
11.3500000000001
100
AcDbArc
 50
237.3767381434
 51
242.6232618566
  0
ARC
  5
2D9
330
1F
100
AcDbEntity
  8
0
  6
Continuous
 62
     7
370
    25
100
AcDbCircle
 10
533.9796392334
 20
515.9398361556
 30
0.0
 40
11.35000000000004
100
AcDbArc
 50
129.3767381434
 51
134.6232618566
  0
ARC
  5
2DA
330
1F
100
AcDbEntity
  8
0
  6
Continuous
 62
     7
370
    25
100
AcDbCircle
 10
635.5796392334
 20
515.9398361556
 30
0.0
 40
11.35
100
AcDbArc
 50
267.3767381434
 51
272.6232618566
  0
ARC
  5
2DB
330
1F
100
AcDbEntity
  8
0
  6
Continuous
 62
     7
370
    25
100
AcDbCircle
 10
533.9796392334
 20
515.9398361556
 30
0.0
 40
11.35000000000006
100
AcDbArc
 50
231.3767381434
 51
236.6232618566
  0
ARC
  5
2DC
330
1F
100
AcDbEntity
  8
0
  6
Continuous
 62
     7
370
    25
100
AcDbCircle
 10
533.9796392334
 20
515.9398361556
 30
0.0
 40
11.34999999999996
100
AcDbArc
 50
123.3767381434
 51
128.6232618566
  0
ARC
  5
2DD
330
1F
100
AcDbEntity
  8
0
  6
Continuous
 62
     7
370
    25
100
AcDbCircle
 10
635.5796392334
 20
515.9398361556
 30
0.0
 40
11.34999999999994
100
AcDbArc
 50
147.3767381434
 51
152.6232618566
  0
ARC
  5
2DE
330
1F
100
AcDbEntity
  8
0
  6
Continuous
 62
     7
370
    25
100
AcDbCircle
 10
533.9796392334
 20
515.9398361556
 30
0.0
 40
11.35000000000001
100
AcDbArc
 50
225.3767381434
 51
230.6232618566
  0
ARC
  5
2DF
330
1F
100
AcDbEntity
  8
0
  6
Continuous
 62
     7
370
    25
100
AcDbCircle
 10
533.9796392334
 20
515.9398361556
 30
0.0
 40
11.3500000000001
100
AcDbArc
 50
21.3767381434
 51
26.6232618566
  0
ARC
  5
2E0
330
1F
100
AcDbEntity
  8
0
  6
Continuous
 62
     7
370
    25
100
AcDbCircle
 10
635.5796392334
 20
515.9398361556
 30
0.0
 40
11.35000000000004
100
AcDbArc
 50
279.3767381434
 51
284.6232618566
  0
ARC
  5
2E1
330
1F
100
AcDbEntity
  8
0
  6
Continuous
 62
     7
370
    25
100
AcDbCircle
 10
635.5796392334
 20
515.9398361556
 30
0.0
 40
11.34999999999997
100
AcDbArc
 50
129.3767381434
 51
134.6232618566
  0
ARC
  5
2E2
330
1F
100
AcDbEntity
  8
0
  6
Continuous
 62
     7
370
    25
100
AcDbCircle
 10
635.5796392334
 20
515.9398361556
 30
0.0
 40
11.3500000000001
100
AcDbArc
 50
27.3767381434
 51
32.6232618566
  0
ARC
  5
2E3
330
1F
100
AcDbEntity
  8
0
  6
Continuous
 62
     7
370
    25
100
AcDbCircle
 10
635.5796392334
 20
515.9398361556
 30
0.0
 40
11.35000000000005
100
AcDbArc
 50
285.3767381434
 51
290.6232618566
  0
ARC
  5
2E4
330
1F
100
AcDbEntity
  8
0
  6
Continuous
 62
     7
370
    25
100
AcDbCircle
 10
533.9796392334
 20
515.9398361556
 30
0.0
 40
11.35
100
AcDbArc
 50
213.3767381434
 51
218.6232618566
  0
ARC
  5
2E5
330
1F
100
AcDbEntity
  8
0
  6
Continuous
 62
     7
370
    25
100
AcDbCircle
 10
533.9796392334
 20
515.9398361556
 30
0.0
 40
11.34999999999994
100
AcDbArc
 50
9.3767381434
 51
14.6232618566
  0
ARC
  5
2E6
330
1F
100
AcDbEntity
  8
0
  6
Continuous
 62
     7
370
    25
100
AcDbCircle
 10
635.5796392334
 20
515.9398361556
 30
0.0
 40
11.35000000000005
100
AcDbArc
 50
291.3767381434
 51
296.6232618566
  0
ARC
  5
2E7
330
1F
100
AcDbEntity
  8
0
  6
Continuous
 62
     7
370
    25
100
AcDbCircle
 10
533.9796392334
 20
515.9398361556
 30
0.0
 40
11.35
100
AcDbArc
 50
207.3767381434
 51
212.6232618566
  0
ARC
  5
2E8
330
1F
100
AcDbEntity
  8
0
  6
Continuous
 62
     7
370
    25
100
AcDbCircle
 10
533.9796392334
 20
515.9398361556
 30
0.0
 40
11.35000000000005
100
AcDbArc
 50
3.3767381434
 51
8.6232618566
  0
ARC
  5
2E9
330
1F
100
AcDbEntity
  8
0
  6
Continuous
 62
     7
370
    25
100
AcDbCircle
 10
635.5796392334
 20
515.9398361556
 30
0.0
 40
11.35000000000015
100
AcDbArc
 50
297.3767381434
 51
302.6232618566
  0
ARC
  5
2EA
330
1F
100
AcDbEntity
  8
0
  6
Continuous
 62
     7
370
    25
100
AcDbCircle
 10
533.9796392334
 20
515.9398361556
 30
0.0
 40
11.35000000000002
100
AcDbArc
 50
201.3767381434
 51
206.6232618566
  0
ARC
  5
2EB
330
1F
100
AcDbEntity
  8
0
  6
Continuous
 62
     7
370
    25
100
AcDbCircle
 10
635.5796392334
 20
515.9398361556
 30
0.0
 40
11.35000000000004
100
AcDbArc
 50
45.3767381434
 51
50.6232618566
  0
ARC
  5
2EC
330
1F
100
AcDbEntity
  8
0
  6
Continuous
 62
     7
370
    25
100
AcDbCircle
 10
635.5796392334
 20
515.9398361556
 30
0.0
 40
11.34999999999992
100
AcDbArc
 50
201.3767381434
 51
206.6232618566
  0
ARC
  5
2ED
330
1F
100
AcDbEntity
  8
0
  6
Continuous
 62
     7
370
    25
100
AcDbCircle
 10
533.9796392334
 20
515.9398361556
 30
0.0
 40
11.3500000000001
100
AcDbArc
 50
297.3767381434
 51
302.6232618566
  0
ARC
  5
2EE
330
1F
100
AcDbEntity
  8
0
  6
Continuous
 62
     7
370
    25
100
AcDbCircle
 10
635.5796392334
 20
515.9398361556
 30
0.0
 40
11.34999999999997
100
AcDbArc
 50
207.3767381434
 51
212.6232618566
  0
ARC
  5
2EF
330
1F
100
AcDbEntity
  8
0
  6
Continuous
 62
     7
370
    25
100
AcDbCircle
 10
533.9796392334
 20
515.9398361556
 30
0.0
 40
11.35000000000002
100
AcDbArc
 50
345.3767381434
 51
350.6232618566
  0
ARC
  5
2F0
330
1F
100
AcDbEntity
  8
0
  6
Continuous
 62
     7
370
    25
100
AcDbCircle
 10
533.9796392334
 20
515.9398361556
 30
0.0
 40
11.34999999999994
100
AcDbArc
 50
189.3767381434
 51
194.6232618566
  0
ARC
  5
2F1
330
1F
100
AcDbEntity
  8
0
  6
Continuous
 62
     7
370
    25
100
AcDbCircle
 10
635.5796392334
 20
515.9398361556
 30
0.0
 40
11.35000000000002
100
AcDbArc
 50
9.3767381434
 51
14.6232618566
  0
ARC
  5
2F2
330
1F
100
AcDbEntity
  8
0
  6
Continuous
 62
     7
370
    25
100
AcDbCircle
 10
533.9796392334
 20
515.9398361556
 30
0.0
 40
11.35000000000001
100
AcDbArc
 50
81.3767381434
 51
86.6232618566
  0
ARC
  5
2F3
330
1F
100
AcDbEntity
  8
0
  6
Continuous
 62
     7
370
    25
100
AcDbCircle
 10
533.9796392334
 20
515.9398361556
 30
0.0
 40
11.35000000000007
100
AcDbArc
 50
183.3767381434
 51
188.6232618566
  0
ARC
  5
2F4
330
1F
100
AcDbEntity
  8
0
  6
Continuous
 62
     7
370
    25
100
AcDbCircle
 10
533.9796392334
 20
515.9398361556
 30
0.0
 40
11.34999999999997
100
AcDbArc
 50
327.3767381434
 51
332.6232618566
  0
ARC
  5
2F5
330
1F
100
AcDbEntity
  8
0
  6
Continuous
 62
     7
370
    25
100
AcDbCircle
 10
635.5796392334
 20
515.9398361556
 30
0.0
 40
11.35000000000009
100
AcDbArc
 50
273.3767381434
 51
278.6232618566
  0
ARC
  5
2F6
330
1F
100
AcDbEntity
  8
0
  6
Continuous
 62
     7
370
    25
100
AcDbCircle
 10
533.9796392334
 20
515.9398361556
 30
0.0
 40
11.34999999999989
100
AcDbArc
 50
177.3767381434
 51
182.6232618566
  0
ARC
  5
2F7
330
1F
100
AcDbEntity
  8
0
  6
Continuous
 62
     7
370
    25
100
AcDbCircle
 10
635.5796392334
 20
515.9398361556
 30
0.0
 40
11.34999999999983
100
AcDbArc
 50
165.3767381434
 51
170.6232618566
  0
ARC
  5
2F8
330
1F
100
AcDbEntity
  8
0
  6
Continuous
 62
     7
370
    25
100
AcDbCircle
 10
635.5796392334
 20
515.9398361556
 30
0.0
 40
11.3500000000001
100
AcDbArc
 50
327.3767381434
 51
332.6232618566
  0
ARC
  5
2F9
330
1F
100
AcDbEntity
  8
0
  6
Continuous
 62
     7
370
    25
100
AcDbCircle
 10
533.9796392334
 20
515.9398361556
 30
0.0
 40
11.35000000000004
100
AcDbArc
 50
171.3767381434
 51
176.6232618566
  0
ARC
  5
2FA
330
1F
100
AcDbEntity
  8
0
  6
Continuous
 62
     7
370
    25
100
AcDbCircle
 10
533.9796392334
 20
515.9398361556
 30
0.0
 40
11.35000000000001
100
AcDbArc
 50
267.3767381434
 51
272.6232618566
  0
ARC
  5
2FB
330
1F
100
AcDbEntity
  8
0
  6
Continuous
 62
     7
370
    25
100
AcDbCircle
 10
635.5796392334
 20
515.9398361556
 30
0.0
 40
11.35000000000012
100
AcDbArc
 50
333.3767381434
 51
338.6232618566
  0
ARC
  5
2FC
330
1F
100
AcDbEntity
  8
0
  6
Continuous
 62
     7
370
    25
100
AcDbCircle
 10
533.9796392334
 20
515.9398361556
 30
0.0
 40
11.35
100
AcDbArc
 50
63.3767381434
 51
68.6232618566
  0
ARC
  5
2FD
330
1F
100
AcDbEntity
  8
0
  6
Continuous
 62
     7
370
    25
100
AcDbCircle
 10
635.5796392334
 20
515.9398361556
 30
0.0
 40
11.35000000000005
100
AcDbArc
 50
237.3767381434
 51
242.6232618566
  0
ARC
  5
2FE
330
1F
100
AcDbEntity
  8
0
  6
Continuous
 62
     7
370
    25
100
AcDbCircle
 10
533.9796392334
 20
515.9398361556
 30
0.0
 40
11.34999999999994
100
AcDbArc
 50
117.3767381434
 51
122.6232618566
  0
ARC
  5
2FF
330
1F
100
AcDbEntity
  8
0
  6
Continuous
 62
     7
370
    25
100
AcDbCircle
 10
533.9796392334
 20
515.9398361556
 30
0.0
 40
11.35000000000008
100
AcDbArc
 50
261.3767381434
 51
266.6232618566
  0
ARC
  5
300
330
1F
100
AcDbEntity
  8
0
  6
Continuous
 62
     7
370
    25
100
AcDbCircle
 10
635.5796392334
 20
515.9398361556
 30
0.0
 40
11.35000000000001
100
AcDbArc
 50
87.3767381434
 51
92.6232618566
  0
ARC
  5
301
330
1F
100
AcDbEntity
  8
0
  6
Continuous
 62
     7
370
    25
100
AcDbCircle
 10
635.5796392334
 20
515.9398361556
 30
0.0
 40
11.35000000000005
100
AcDbArc
 50
345.3767381434
 51
350.6232618566
  0
ARC
  5
302
330
1F
100
AcDbEntity
  8
0
  6
Continuous
 62
     7
370
    25
100
AcDbCircle
 10
533.9796392334
 20
515.9398361556
 30
0.0
 40
11.35000000000002
100
AcDbArc
 50
255.3767381434
 51
260.6232618566
  0
ARC
  5
303
330
1F
100
AcDbEntity
  8
0
  6
Continuous
 62
     7
370
    25
100
AcDbCircle
 10
635.5796392334
 20
515.9398361556
 30
0.0
 40
11.34999999999995
100
AcDbArc
 50
195.3767381434
 51
200.6232618566
  0
ARC
  5
304
330
1F
100
AcDbEntity
  8
0
  6
Continuous
 62
     7
370
    25
100
AcDbCircle
 10
635.5796392334
 20
515.9398361556
 30
0.0
 40
11.35000000000018
100
AcDbArc
 50
351.3767381434
 51
356.6232618566
  0
ARC
  5
305
330
1F
100
AcDbEntity
  8
0
  6
Continuous
 62
     7
370
    25
100
AcDbCircle
 10
533.9796392334
 20
515.9398361556
 30
0.0
 40
11.34999999999999
100
AcDbArc
 50
147.3767381434
 51
152.6232618566
  0
ARC
  5
306
330
1F
100
AcDbEntity
  8
0
  6
Continuous
 62
     7
370
    25
100
AcDbCircle
 10
635.5796392334
 20
515.9398361556
 30
0.0
 40
11.35000000000012
100
AcDbArc
 50
357.3767381434
 51
2.6232618566
  0
ARC
  5
307
330
1F
100
AcDbEntity
  8
0
  6
Continuous
 62
     7
370
    25
100
AcDbCircle
 10
635.5796392334
 20
515.9398361556
 30
0.0
 40
11.35000000000005
100
AcDbArc
 50
255.3767381434
 51
260.6232618566
  0
ARC
  5
308
330
1F
100
AcDbEntity
  8
0
  6
Continuous
 62
     7
370
    25
100
AcDbCircle
 10
635.5796392334
 20
515.9398361556
 30
0.0
 40
11.35000000000015
100
AcDbArc
 50
3.3767381434
 51
8.6232618566
  0
ARC
  5
309
330
1F
100
AcDbEntity
  8
0
  6
Continuous
 62
     7
370
    25
100
AcDbCircle
 10
533.9796392334
 20
515.9398361556
 30
0.0
 40
11.35000000000005
100
AcDbArc
 50
339.3767381434
 51
344.6232618566
  0
ARC
  5
30A
330
1F
100
AcDbEntity
  8
0
  6
Continuous
 62
     7
370
    25
100
AcDbCircle
 10
533.9796392334
 20
515.9398361556
 30
0.0
 40
11.35
100
AcDbArc
 50
33.3767381434
 51
38.6232618566
  0
ARC
  5
30B
330
1F
100
AcDbEntity
  8
0
  6
Continuous
 62
     7
370
    25
100
AcDbCircle
 10
533.9796392334
 20
515.9398361556
 30
0.0
 40
11.35000000000002
100
AcDbArc
 50
333.3767381434
 51
338.6232618566
  0
ARC
  5
30C
330
1F
100
AcDbEntity
  8
0
  6
Continuous
 62
     7
370
    25
100
AcDbCircle
 10
533.9796392334
 20
515.9398361556
 30
0.0
 40
11.35000000000008
100
AcDbArc
 50
285.3767381434
 51
290.6232618566
  0
ARC
  5
30D
330
1F
100
AcDbEntity
  8
0
  6
Continuous
 62
     7
370
    25
100
AcDbCircle
 10
533.9796392334
 20
515.9398361556
 30
0.0
 40
11.35000000000005
100
AcDbArc
 50
27.3767381434
 51
32.6232618566
  0
ARC
  5
30E
330
1F
100
AcDbEntity
  8
0
  6
Continuous
 62
     7
370
    25
100
AcDbCircle
 10
533.9796392334
 20
515.9398361556
 30
0.0
 40
11.35000000000004
100
AcDbArc
 50
75.3767381434
 51
80.6232618566
  0
ARC
  5
30F
330
1F
100
AcDbEntity
  8
0
  6
Continuous
 62
     7
370
    25
100
AcDbCircle
 10
533.9796392334
 20
515.9398361556
 30
0.0
 40
11.35000000000007
100
AcDbArc
 50
279.3767381434
 51
284.6232618566
  0
ARC
  5
310
330
1F
100
AcDbEntity
  8
0
  6
Continuous
 62
     7
370
    25
100
AcDbCircle
 10
635.5796392334
 20
515.9398361556
 30
0.0
 40
11.34999999999989
100
AcDbArc
 50
177.3767381434
 51
182.6232618566
  0
ARC
  5
311
330
1F
100
AcDbEntity
  8
0
  6
Continuous
 62
     7
370
    25
100
AcDbCircle
 10
533.9796392334
 20
515.9398361556
 30
0.0
 40
11.35000000000006
100
AcDbArc
 50
321.3767381434
 51
326.6232618566
  0
ARC
  5
312
330
1F
100
AcDbEntity
  8
0
  6
Continuous
 62
     7
370
    25
100
AcDbCircle
 10
533.9796392334
 20
515.9398361556
 30
0.0
 40
11.35000000000008
100
AcDbArc
 50
219.3767381434
 51
224.6232618566
  0
ARC
  5
313
330
1F
100
AcDbEntity
  8
0
  6
Continuous
 62
     7
370
    25
100
AcDbCircle
 10
533.9796392334
 20
515.9398361556
 30
0.0
 40
11.35000000000003
100
AcDbArc
 50
15.3767381434
 51
20.6232618566
  0
ARC
  5
314
330
1F
100
AcDbEntity
  8
0
  6
Continuous
 62
     7
370
    25
100
AcDbCircle
 10
635.5796392334
 20
515.9398361556
 30
0.0
 40
11.34999999999993
100
AcDbArc
 50
183.3767381434
 51
188.6232618566
  0
ARC
  5
315
330
1F
100
AcDbEntity
  8
0
  6
Continuous
 62
     7
370
    25
100
AcDbCircle
 10
533.9796392334
 20
515.9398361556
 30
0.0
 40
11.35000000000003
100
AcDbArc
 50
315.3767381434
 51
320.6232618566
  0
ARC
  5
316
330
1F
100
AcDbEntity
  8
0
  6
Continuous
 62
     7
370
    25
100
AcDbCircle
 10
635.5796392334
 20
515.9398361556
 30
0.0
 40
11.35
100
AcDbArc
 50
57.3767381434
 51
62.6232618566
  0
ARC
  5
317
330
1F
100
AcDbEntity
  8
0
  6
Continuous
 62
     7
370
    25
100
AcDbCircle
 10
635.5796392334
 20
515.9398361556
 30
0.0
 40
11.3499999999999
100
AcDbArc
 50
189.3767381434
 51
194.6232618566
  0
ARC
  5
318
330
1F
100
AcDbEntity
  8
0
  6
Continuous
 62
     7
370
    25
100
AcDbCircle
 10
533.9796392334
 20
515.9398361556
 30
0.0
 40
11.35000000000002
100
AcDbArc
 50
249.3767381434
 51
254.6232618566
  0
ARC
  5
319
330
1F
100
AcDbEntity
  8
0
  6
Continuous
 62
     7
370
    25
100
AcDbCircle
 10
635.5796392334
 20
515.9398361556
 30
0.0
 40
11.35000000000009
100
AcDbArc
 50
33.3767381434
 51
38.6232618566
  0
ARC
  5
31A
330
1F
100
AcDbEntity
  8
0
  6
Continuous
 62
     7
370
    25
100
AcDbCircle
 10
533.9796392334
 20
515.9398361556
 30
0.0
 40
11.35
100
AcDbArc
 50
105.3767381434
 51
110.6232618566
  0
ARC
  5
31B
330
1F
100
AcDbEntity
  8
0
  6
Continuous
 62
     7
370
    25
100
AcDbCircle
 10
533.9796392334
 20
515.9398361556
 30
0.0
 40
11.35000000000007
100
AcDbArc
 50
291.3767381434
 51
296.6232618566
  0
ARC
  5
31C
330
1F
100
AcDbEntity
  8
0
  6
Continuous
 62
     7
370
    25
100
AcDbCircle
 10
635.5796392334
 20
515.9398361556
 30
0.0
 40
11.3499999999999
100
AcDbArc
 50
141.3767381434
 51
146.6232618566
  0
ARC
  5
31D
330
1F
100
AcDbEntity
  8
0
  6
Continuous
 62
     7
370
    25
100
AcDbCircle
 10
533.9796392334
 20
515.9398361556
 30
0.0
 40
11.35000000000005
100
AcDbArc
 50
99.3767381434
 51
104.6232618566
  0
ARC
  5
31E
330
1F
100
AcDbEntity
  8
0
  6
Continuous
 62
     7
370
    25
100
AcDbCircle
 10
635.5796392334
 20
515.9398361556
 30
0.0
 40
11.35000000000013
100
AcDbArc
 50
21.3767381434
 51
26.6232618566
  0
ARC
  5
31F
330
1F
100
AcDbEntity
  8
0
  6
Continuous
 62
     7
370
    25
100
AcDbCircle
 10
635.5796392334
 20
515.9398361556
 30
0.0
 40
11.35000000000001
100
AcDbArc
 50
231.3767381434
 51
236.6232618566
  0
ARC
  5
320
330
1F
100
AcDbEntity
  8
0
  6
Continuous
 62
     7
370
    25
100
AcDbCircle
 10
533.9796392334
 20
515.9398361556
 30
0.0
 40
11.35
100
AcDbArc
 50
69.3767381434
 51
74.6232618566
  0
ARC
  5
321
330
1F
100
AcDbEntity
  8
0
  6
Continuous
 62
     7
370
    25
100
AcDbCircle
 10
533.9796392334
 20
515.9398361556
 30
0.0
 40
11.35
100
AcDbArc
 50
141.3767381434
 51
146.6232618566
  0
ARC
  5
322
330
1F
100
AcDbEntity
  8
0
  6
Continuous
 62
     7
370
    25
100
AcDbCircle
 10
635.5796392334
 20
515.9398361556
 30
0.0
 40
11.34999999999997
100
AcDbArc
 50
213.3767381434
 51
218.6232618566
  0
ARC
  5
323
330
1F
100
AcDbEntity
  8
0
  6
Continuous
 62
     7
370
    25
100
AcDbCircle
 10
635.5796392334
 20
515.9398361556
 30
0.0
 40
11.35000000000003
100
AcDbArc
 50
219.3767381434
 51
224.6232618566
  0
ARC
  5
324
330
1F
100
AcDbEntity
  8
0
  6
Continuous
 62
     7
370
    25
100
AcDbCircle
 10
635.5796392334
 20
515.9398361556
 30
0.0
 40
11.35
100
AcDbArc
 50
153.3767381434
 51
158.6232618566
  0
ARC
  5
325
330
1F
100
AcDbEntity
  8
0
  6
Continuous
 62
     7
370
    25
100
AcDbCircle
 10
533.9796392334
 20
515.9398361556
 30
0.0
 40
11.35000000000001
100
AcDbArc
 50
273.3767381434
 51
278.6232618566
  0
ARC
  5
326
330
1F
100
AcDbEntity
  8
0
  6
Continuous
 62
     7
370
    25
100
AcDbCircle
 10
635.5796392334
 20
515.9398361556
 30
0.0
 40
11.35
100
AcDbArc
 50
225.3767381434
 51
230.6232618566
  0
ARC
  5
327
330
1F
100
AcDbEntity
  8
0
  6
Continuous
 62
     7
370
    25
100
AcDbCircle
 10
635.5796392334
 20
515.9398361556
 30
0.0
 40
11.35000000000016
100
AcDbArc
 50
315.3767381434
 51
320.6232618566
  0
ARC
  5
328
330
1F
100
AcDbEntity
  8
0
  6
Continuous
 62
     7
370
    25
100
AcDbCircle
 10
635.5796392334
 20
515.9398361556
 30
0.0
 40
11.35000000000002
100
AcDbArc
 50
243.3767381434
 51
248.6232618566
  0
ARC
  5
329
330
1F
100
AcDbEntity
  8
0
  6
Continuous
 62
     7
370
    25
100
AcDbCircle
 10
635.5796392334
 20
515.9398361556
 30
0.0
 40
11.35000000000009
100
AcDbArc
 50
321.3767381434
 51
326.6232618566
  0
ARC
  5
32A
330
1F
100
AcDbEntity
  8
0
  6
Continuous
 62
     7
370
    25
100
AcDbCircle
 10
635.5796392334
 20
515.9398361556
 30
0.0
 40
11.35000000000005
100
AcDbArc
 50
249.3767381434
 51
254.6232618566
  0
ARC
  5
32B
330
1F
100
AcDbEntity
  8
0
  6
Continuous
 62
     7
370
    25
100
AcDbCircle
 10
635.5796392334
 20
515.9398361556
 30
0.0
 40
11.34999999999992
100
AcDbArc
 50
159.3767381434
 51
164.6232618566
  0
CIRCLE
  5
32C
330
1F
100
AcDbEntity
  8
0
  6
Continuous
 62
     7
370
    25
100
AcDbCircle
 10
584.7796392334
 20
515.9398361556
 30
0.0
 40
5.0
  0
CIRCLE
  5
32D
330
1F
100
AcDbEntity
  8
0
  6
Continuous
 62
     7
370
    25
100
AcDbCircle
 10
635.5796392334
 20
515.9398361556
 30
0.0
 40
7.499999999999886
  0
CIRCLE
  5
32E
330
1F
100
AcDbEntity
  8
0
  6
Continuous
 62
     7
370
    25
100
AcDbCircle
 10
533.9796392334
 20
515.9398361556
 30
0.0
 40
7.499999999999886
  0
CIRCLE
  5
32F
330
1F
100
AcDbEntity
  8
0
  6
Continuous
 62
     7
370
    25
100
AcDbCircle
 10
635.5796392334
 20
515.9398361556
 30
0.0
 40
6.499999999999886
  0
CIRCLE
  5
330
330
1F
100
AcDbEntity
  8
0
  6
Continuous
 62
     7
370
    25
100
AcDbCircle
 10
533.9796392334
 20
515.9398361556
 30
0.0
 40
6.499999999999886
  0
ENDSEC
  0
SECTION
  2
OBJECTS
  0
DICTIONARY
  5
C
330
0
100
AcDbDictionary
281
     1
  3
ACAD_GROUP
350
D
  3
ACAD_LAYOUT
350
1A
  3
ACAD_MLINESTYLE
350
17
  3
ACAD_PLOTSETTINGS
350
19
  3
ACAD_PLOTSTYLENAME
350
E
  3
ACAD_SCALELIST
350
47
  3
DWGPROPS
350
331
  0
DICTIONARY
  5
D
102
{ACAD_REACTORS
330
C
102
}
330
C
100
AcDbDictionary
281
     1
  0
DICTIONARY
  5
1A
102
{ACAD_REACTORS
330
C
102
}
330
C
100
AcDbDictionary
281
     1
  3
Layout1
350
1E
  3
Layout2
350
26
  3
Model
350
22
  0
DICTIONARY
  5
17
102
{ACAD_REACTORS
330
C
102
}
330
C
100
AcDbDictionary
281
     1
  3
Standard
350
18
  0
DICTIONARY
  5
19
102
{ACAD_REACTORS
330
C
102
}
330
C
100
AcDbDictionary
281
     1
  0
ACDBDICTIONARYWDFLT
  5
E
102
{ACAD_REACTORS
330
C
102
}
330
C
100
AcDbDictionary
281
     1
  3
Normal
350
F
100
AcDbDictionaryWithDefault
340
F
  0
DICTIONARY
  5
47
102
{ACAD_REACTORS
330
C
102
}
330
C
100
AcDbDictionary
281
     1
  3
A0
350
48
  3
A1
350
49
  3
A2
350
4A
  3
A3
350
4B
  3
A4
350
4C
  3
A5
350
4D
  3
A6
350
4E
  3
A7
350
4F
  3
A8
350
50
  3
A9
350
51
  3
B0
350
52
  3
B1
350
53
  3
B2
350
54
  3
B3
350
55
  3
B4
350
56
  3
B5
350
57
  3
B6
350
58
  3
B7
350
59
  3
B8
350
5A
  3
B9
350
5B
  3
C0
350
5C
  3
C1
350
5D
  3
C2
350
5E
  3
C3
350
5F
  3
C4
350
60
  3
C5
350
61
  3
C6
350
62
  3
C7
350
63
  3
C8
350
64
  3
C9
350
65
  3
D0
350
66
  3
D1
350
67
  3
D2
350
68
  0
XRECORD
  5
331
102
{ACAD_REACTORS
330
C
102
}
330
C
100
AcDbXrecord
280
     1
  1
DWGPROPS COOKIE
  2

  3

  4

  6

  7

  8
designer5
  9

300
=
301
=
302
=
303
=
304
=
305
=
306
=
307
=
308
=
309
=
 40
0.0
 41
2460383.311284919
 42
2460383.311285764
  1

 90
        0
  0
LAYOUT
  5
1E
102
{ACAD_REACTORS
330
1A
102
}
330
1A
100
AcDbPlotSettings
  1

  2
none_device
  4

  6

 40
0.0
 41
0.0
 42
0.0
 43
0.0
 44
0.0
 45
0.0
 46
0.0
 47
0.0
 48
0.0
 49
0.0
140
0.0
141
0.0
142
1.0
143
1.0
 70
   688
 72
     1
 73
     0
 74
     5
  7

 75
    16
147
1.0
148
0.0
149
0.0
100
AcDbLayout
  1
Layout1
 70
     1
 71
     1
 10
0.0
 20
0.0
 11
420.0
 21
297.0
 12
0.0
 22
0.0
 32
0.0
 14
1.0000000000E+20
 24
1.0000000000E+20
 34
1.0000000000E+20
 15
-1.0000000000E+20
 25
-1.0000000000E+20
 35
-1.0000000000E+20
146
0.0
 13
0.0
 23
0.0
 33
0.0
 16
1.0
 26
0.0
 36
0.0
 17
0.0
 27
1.0
 37
0.0
 76
     0
330
1B
  0
LAYOUT
  5
26
102
{ACAD_REACTORS
330
1A
102
}
330
1A
100
AcDbPlotSettings
  1

  2
none_device
  4

  6

 40
0.0
 41
0.0
 42
0.0
 43
0.0
 44
0.0
 45
0.0
 46
0.0
 47
0.0
 48
0.0
 49
0.0
140
0.0
141
0.0
142
1.0
143
1.0
 70
   688
 72
     1
 73
     0
 74
     5
  7

 75
    16
147
1.0
148
0.0
149
0.0
100
AcDbLayout
  1
Layout2
 70
     1
 71
     2
 10
0.0
 20
0.0
 11
0.0
 21
0.0
 12
0.0
 22
0.0
 32
0.0
 14
0.0
 24
0.0
 34
0.0
 15
0.0
 25
0.0
 35
0.0
146
0.0
 13
0.0
 23
0.0
 33
0.0
 16
1.0
 26
0.0
 36
0.0
 17
0.0
 27
1.0
 37
0.0
 76
     0
330
23
  0
LAYOUT
  5
22
102
{ACAD_REACTORS
330
1A
102
}
330
1A
100
AcDbPlotSettings
  1

  2
none_device
  4
Letter_(8.50_x_11.00_Inches)
  6

 40
6.35
 41
6.35
 42
6.35000508
 43
6.35000508
 44
215.9
 45
279.4
 46
0.0
 47
0.0
 48
0.0
 49
0.0
140
0.0
141
0.0
142
1.0
143
1.0
 70
  1712
 72
     1
 73
     0
 74
     0
  7

 75
     0
147
1.0
148
0.0
149
0.0
100
AcDbLayout
  1
Model
 70
     1
 71
     0
 10
0.0
 20
0.0
 11
1189.0
 21
841.0
 12
0.0
 22
0.0
 32
0.0
 14
0.0
 24
0.0
 34
0.0
 15
1189.0
 25
841.0
 35
0.0
146
0.0
 13
0.0
 23
0.0
 33
0.0
 16
1.0
 26
0.0
 36
0.0
 17
0.0
 27
1.0
 37
0.0
 76
     0
330
1F
331
29
  0
MLINESTYLE
  5
18
102
{ACAD_REACTORS
330
17
102
}
330
17
100
AcDbMlineStyle
  2
Standard
 70
     0
  3

 62
   256
 51
90.0
 52
90.0
 71
     2
 49
0.5
 62
   256
  6
BYLAYER
 49
-0.5
 62
   256
  6
BYLAYER
  0
ACDBPLACEHOLDER
  5
F
102
{ACAD_REACTORS
330
E
102
}
330
E
  0
SCALE
  5
48
102
{ACAD_REACTORS
330
47
102
}
330
47
100
AcDbScale
 70
     0
300
1:1
140
1.0
141
1.0
290
     1
  0
SCALE
  5
49
102
{ACAD_REACTORS
330
47
102
}
330
47
100
AcDbScale
 70
     0
300
1:2
140
1.0
141
2.0
290
     0
  0
SCALE
  5
4A
102
{ACAD_REACTORS
330
47
102
}
330
47
100
AcDbScale
 70
     0
300
1:4
140
1.0
141
4.0
290
     0
  0
SCALE
  5
4B
102
{ACAD_REACTORS
330
47
102
}
330
47
100
AcDbScale
 70
     0
300
1:5
140
1.0
141
5.0
290
     0
  0
SCALE
  5
4C
102
{ACAD_REACTORS
330
47
102
}
330
47
100
AcDbScale
 70
     0
300
1:8
140
1.0
141
8.0
290
     0
  0
SCALE
  5
4D
102
{ACAD_REACTORS
330
47
102
}
330
47
100
AcDbScale
 70
     0
300
1:10
140
1.0
141
10.0
290
     0
  0
SCALE
  5
4E
102
{ACAD_REACTORS
330
47
102
}
330
47
100
AcDbScale
 70
     0
300
1:16
140
1.0
141
16.0
290
     0
  0
SCALE
  5
4F
102
{ACAD_REACTORS
330
47
102
}
330
47
100
AcDbScale
 70
     0
300
1:20
140
1.0
141
20.0
290
     0
  0
SCALE
  5
50
102
{ACAD_REACTORS
330
47
102
}
330
47
100
AcDbScale
 70
     0
300
1:30
140
1.0
141
30.0
290
     0
  0
SCALE
  5
51
102
{ACAD_REACTORS
330
47
102
}
330
47
100
AcDbScale
 70
     0
300
1:40
140
1.0
141
40.0
290
     0
  0
SCALE
  5
52
102
{ACAD_REACTORS
330
47
102
}
330
47
100
AcDbScale
 70
     0
300
1:50
140
1.0
141
50.0
290
     0
  0
SCALE
  5
53
102
{ACAD_REACTORS
330
47
102
}
330
47
100
AcDbScale
 70
     0
300
1:100
140
1.0
141
100.0
290
     0
  0
SCALE
  5
54
102
{ACAD_REACTORS
330
47
102
}
330
47
100
AcDbScale
 70
     0
300
2:1
140
2.0
141
1.0
290
     0
  0
SCALE
  5
55
102
{ACAD_REACTORS
330
47
102
}
330
47
100
AcDbScale
 70
     0
300
4:1
140
4.0
141
1.0
290
     0
  0
SCALE
  5
56
102
{ACAD_REACTORS
330
47
102
}
330
47
100
AcDbScale
 70
     0
300
8:1
140
8.0
141
1.0
290
     0
  0
SCALE
  5
57
102
{ACAD_REACTORS
330
47
102
}
330
47
100
AcDbScale
 70
     0
300
10:1
140
10.0
141
1.0
290
     0
  0
SCALE
  5
58
102
{ACAD_REACTORS
330
47
102
}
330
47
100
AcDbScale
 70
     0
300
100:1
140
100.0
141
1.0
290
     0
  0
SCALE
  5
59
102
{ACAD_REACTORS
330
47
102
}
330
47
100
AcDbScale
 70
     0
300
1/128" = 1'-0"
140
0.0078125
141
12.0
290
     0
  0
SCALE
  5
5A
102
{ACAD_REACTORS
330
47
102
}
330
47
100
AcDbScale
 70
     0
300
1/64" = 1'-0"
140
0.015625
141
12.0
290
     0
  0
SCALE
  5
5B
102
{ACAD_REACTORS
330
47
102
}
330
47
100
AcDbScale
 70
     0
300
1/32" = 1'-0"
140
0.03125
141
12.0
290
     0
  0
SCALE
  5
5C
102
{ACAD_REACTORS
330
47
102
}
330
47
100
AcDbScale
 70
     0
300
1/16" = 1'-0"
140
0.0625
141
12.0
290
     0
  0
SCALE
  5
5D
102
{ACAD_REACTORS
330
47
102
}
330
47
100
AcDbScale
 70
     0
300
3/32" = 1'-0"
140
0.09375
141
12.0
290
     0
  0
SCALE
  5
5E
102
{ACAD_REACTORS
330
47
102
}
330
47
100
AcDbScale
 70
     0
300
1/8" = 1'-0"
140
0.125
141
12.0
290
     0
  0
SCALE
  5
5F
102
{ACAD_REACTORS
330
47
102
}
330
47
100
AcDbScale
 70
     0
300
3/16" = 1'-0"
140
0.1875
141
12.0
290
     0
  0
SCALE
  5
60
102
{ACAD_REACTORS
330
47
102
}
330
47
100
AcDbScale
 70
     0
300
1/4" = 1'-0"
140
0.25
141
12.0
290
     0
  0
SCALE
  5
61
102
{ACAD_REACTORS
330
47
102
}
330
47
100
AcDbScale
 70
     0
300
3/8" = 1'-0"
140
0.375
141
12.0
290
     0
  0
SCALE
  5
62
102
{ACAD_REACTORS
330
47
102
}
330
47
100
AcDbScale
 70
     0
300
1/2" = 1'-0"
140
0.5
141
12.0
290
     0
  0
SCALE
  5
63
102
{ACAD_REACTORS
330
47
102
}
330
47
100
AcDbScale
 70
     0
300
3/4" = 1'-0"
140
0.75
141
12.0
290
     0
  0
SCALE
  5
64
102
{ACAD_REACTORS
330
47
102
}
330
47
100
AcDbScale
 70
     0
300
1" = 1'-0"
140
1.0
141
12.0
290
     0
  0
SCALE
  5
65
102
{ACAD_REACTORS
330
47
102
}
330
47
100
AcDbScale
 70
     0
300
1-1/2" = 1'-0"
140
1.5
141
12.0
290
     0
  0
SCALE
  5
66
102
{ACAD_REACTORS
330
47
102
}
330
47
100
AcDbScale
 70
     0
300
3" = 1'-0"
140
3.0
141
12.0
290
     0
  0
SCALE
  5
67
102
{ACAD_REACTORS
330
47
102
}
330
47
100
AcDbScale
 70
     0
300
6" = 1'-0"
140
6.0
141
12.0
290
     0
  0
SCALE
  5
68
102
{ACAD_REACTORS
330
47
102
}
330
47
100
AcDbScale
 70
     0
300
1'-0" = 1'-0"
140
12.0
141
12.0
290
     0
  0
ENDSEC
  0
EOF
