  0
SECTION
  2
HEADER
  9
$ACADVER
  1
AC1015
  9
$ACADMAINTVER
 70
     6
  9
$DWGCODEPAGE
  3
ANSI_1252
  9
$INSBASE
 10
0.0
 20
0.0
 30
0.0
  9
$EXTMIN
 10
0.0
 20
0.0
 30
0.0
  9
$EXTMAX
 10
1189.0
 20
841.0
 30
0.0
  9
$LIMMIN
 10
0.0
 20
0.0
  9
$LIMMAX
 10
1189.0
 20
841.0
  9
$ORTHOMODE
 70
     0
  9
$REGENMODE
 70
     1
  9
$FILLMODE
 70
     1
  9
$QTEXTMODE
 70
     0
  9
$MIRRTEXT
 70
     1
  9
$LTSCALE
 40
1.0
  9
$ATTMODE
 70
     1
  9
$TEXTSIZE
 40
3.5
  9
$TRACEWID
 40
1.0
  9
$TEXTSTYLE
  7
Standard
  9
$CLAYER
  8
0
  9
$CELTYPE
  6
ByLayer
  9
$CECOLOR
 62
   256
  9
$CELTSCALE
 40
1.0
  9
$DISPSILH
 70
     0
  9
$DIMSCALE
 40
1.0
  9
$DIMASZ
 40
3.302
  9
$DIMEXO
 40
1.0
  9
$DIMDLI
 40
3.75
  9
$DIMRND
 40
0.0
  9
$DIMDLE
 40
0.0
  9
$DIMEXE
 40
1.0
  9
$DIMTP
 40
0.0
  9
$DIMTM
 40
0.0
  9
$DIMTXT
 40
3.5
  9
$DIMCEN
 40
2.5
  9
$DIMTSZ
 40
0.0
  9
$DIMTOL
 70
     0
  9
$DIMLIM
 70
     0
  9
$DIMTIH
 70
     1
  9
$DIMTOH
 70
     1
  9
$DIMSE1
 70
     0
  9
$DIMSE2
 70
     0
  9
$DIMTAD
 70
     1
  9
$DIMZIN
 70
     1
  9
$DIMBLK
  1

  9
$DIMASO
 70
     1
  9
$DIMSHO
 70
     1
  9
$DIMPOST
  1

  9
$DIMAPOST
  1

  9
$DIMALT
 70
     0
  9
$DIMALTD
 70
     3
  9
$DIMALTF
 40
0.0393700787
  9
$DIMLFAC
 40
1.0
  9
$DIMTOFL
 70
     1
  9
$DIMTVP
 40
0.0
  9
$DIMTIX
 70
     0
  9
$DIMSOXD
 70
     0
  9
$DIMSAH
 70
     0
  9
$DIMBLK1
  1

  9
$DIMBLK2
  1

  9
$DIMSTYLE
  2
ISO-25
  9
$DIMCLRD
 70
     0
  9
$DIMCLRE
 70
     0
  9
$DIMCLRT
 70
     0
  9
$DIMTFAC
 40
1.0
  9
$DIMGAP
 40
1.524
  9
$DIMJUST
 70
     0
  9
$DIMSD1
 70
     0
  9
$DIMSD2
 70
     0
  9
$DIMTOLJ
 70
     0
  9
$DIMTZIN
 70
     1
  9
$DIMALTZ
 70
     0
  9
$DIMALTTZ
 70
     0
  9
$DIMUPT
 70
     0
  9
$DIMDEC
 70
     2
  9
$DIMTDEC
 70
     2
  9
$DIMALTU
 70
     2
  9
$DIMALTTD
 70
     3
  9
$DIMTXSTY
  7
Standard
  9
$DIMAUNIT
 70
     0
  9
$DIMADEC
 70
     2
  9
$DIMALTRND
 40
0.0
  9
$DIMAZIN
 70
     0
  9
$DIMDSEP
 70
    44
  9
$DIMATFIT
 70
     3
  9
$DIMFRAC
 70
     0
  9
$DIMLDRBLK
  1

  9
$DIMLUNIT
 70
     2
  9
$DIMLWD
 70
    -2
  9
$DIMLWE
 70
    -2
  9
$DIMTMOVE
 70
     0
  9
$LUNITS
 70
     2
  9
$LUPREC
 70
     2
  9
$SKETCHINC
 40
1.0
  9
$FILLETRAD
 40
10.0
  9
$AUNITS
 70
     0
  9
$AUPREC
 70
     2
  9
$MENU
  1
.
  9
$ELEVATION
 40
0.0
  9
$PELEVATION
 40
0.0
  9
$THICKNESS
 40
0.0
  9
$LIMCHECK
 70
     0
  9
$CHAMFERA
 40
0.0
  9
$CHAMFERB
 40
0.0
  9
$CHAMFERC
 40
0.0
  9
$CHAMFERD
 40
0.0
  9
$SKPOLY
 70
     0
  9
$TDCREATE
 40
2460383.495421366
  9
$TDUCREATE
 40
2460383.266254699
  9
$TDUPDATE
 40
2460383.495422095
  9
$TDUUPDATE
 40
2460383.266255428
  9
$TDINDWG
 40
0.0000000116
  9
$TDUSRTIMER
 40
0.0000000116
  9
$USRTIMER
 70
     1
  9
$ANGBASE
 50
0.0
  9
$ANGDIR
 70
     0
  9
$PDMODE
 70
     0
  9
$PDSIZE
 40
-1.0
  9
$PLINEWID
 40
0.0
  9
$SPLFRAME
 70
     0
  9
$SPLINETYPE
 70
     6
  9
$SPLINESEGS
 70
     8
  9
$HANDSEED
  5
2CF
  9
$SURFTAB1
 70
     6
  9
$SURFTAB2
 70
     6
  9
$SURFTYPE
 70
     6
  9
$SURFU
 70
     6
  9
$SURFV
 70
     6
  9
$UCSBASE
  2

  9
$UCSNAME
  2

  9
$UCSORG
 10
0.0
 20
0.0
 30
0.0
  9
$UCSXDIR
 10
1.0
 20
0.0
 30
0.0
  9
$UCSYDIR
 10
0.0
 20
1.0
 30
0.0
  9
$UCSORTHOREF
  2

  9
$UCSORTHOVIEW
 70
     0
  9
$UCSORGTOP
 10
0.0
 20
0.0
 30
0.0
  9
$UCSORGBOTTOM
 10
0.0
 20
0.0
 30
0.0
  9
$UCSORGLEFT
 10
0.0
 20
0.0
 30
0.0
  9
$UCSORGRIGHT
 10
0.0
 20
0.0
 30
0.0
  9
$UCSORGFRONT
 10
0.0
 20
0.0
 30
0.0
  9
$UCSORGBACK
 10
0.0
 20
0.0
 30
0.0
  9
$PUCSBASE
  2

  9
$PUCSNAME
  2

  9
$PUCSORG
 10
0.0
 20
0.0
 30
0.0
  9
$PUCSXDIR
 10
1.0
 20
0.0
 30
0.0
  9
$PUCSYDIR
 10
0.0
 20
1.0
 30
0.0
  9
$PUCSORTHOREF
  2

  9
$PUCSORTHOVIEW
 70
     0
  9
$PUCSORGTOP
 10
0.0
 20
0.0
 30
0.0
  9
$PUCSORGBOTTOM
 10
0.0
 20
0.0
 30
0.0
  9
$PUCSORGLEFT
 10
0.0
 20
0.0
 30
0.0
  9
$PUCSORGRIGHT
 10
0.0
 20
0.0
 30
0.0
  9
$PUCSORGFRONT
 10
0.0
 20
0.0
 30
0.0
  9
$PUCSORGBACK
 10
0.0
 20
0.0
 30
0.0
  9
$USERI1
 70
     0
  9
$USERI2
 70
     0
  9
$USERI3
 70
     0
  9
$USERI4
 70
     0
  9
$USERI5
 70
     0
  9
$USERR1
 40
0.0
  9
$USERR2
 40
0.0
  9
$USERR3
 40
0.0
  9
$USERR4
 40
0.0
  9
$USERR5
 40
0.0
  9
$WORLDVIEW
 70
     1
  9
$SHADEDGE
 70
     3
  9
$SHADEDIF
 70
    70
  9
$TILEMODE
 70
     1
  9
$MAXACTVP
 70
    64
  9
$PINSBASE
 10
0.0
 20
0.0
 30
0.0
  9
$PLIMCHECK
 70
     0
  9
$PEXTMIN
 10
1.0000000000E+20
 20
1.0000000000E+20
 30
1.0000000000E+20
  9
$PEXTMAX
 10
-1.0000000000E+20
 20
-1.0000000000E+20
 30
-1.0000000000E+20
  9
$PLIMMIN
 10
0.0
 20
0.0
  9
$PLIMMAX
 10
420.0
 20
297.0
  9
$UNITMODE
 70
     0
  9
$VISRETAIN
 70
     1
  9
$PLINEGEN
 70
     0
  9
$PSLTSCALE
 70
     1
  9
$TREEDEPTH
 70
  3020
  9
$CMLSTYLE
  2
Standard
  9
$CMLJUST
 70
     0
  9
$CMLSCALE
 40
20.0
  9
$PROXYGRAPHICS
 70
     1
  9
$MEASUREMENT
 70
     1
  9
$CELWEIGHT
370
    -1
  9
$ENDCAPS
280
     0
  9
$JOINSTYLE
280
     0
  9
$LWDISPLAY
290
     1
  9
$INSUNITS
 70
     4
  9
$HYPERLINKBASE
  1

  9
$STYLESHEET
  1

  9
$XEDIT
290
     1
  9
$CEPSNTYPE
380
     0
  9
$PSTYLEMODE
290
     1
  9
$FINGERPRINTGUID
  2
{e80422bf-5c01-4e7c-81ec-15aed7fda810}
  9
$VERSIONGUID
  2
{FAEB1C32-E019-11D5-929B-00C0DF256EC4}
  9
$EXTNAMES
290
     1
  9
$PSVPSCALE
 40
0.0
  9
$OLESTARTUP
290
     0
  0
ENDSEC
  0
SECTION
  2
CLASSES
  0
CLASS
  1
ACDBDICTIONARYWDFLT
  2
AcDbDictionaryWithDefault
  3
ObjectDBX Classes
 90
        0
280
     0
281
     0
  0
CLASS
  1
VISUALSTYLE
  2
AcDbVisualStyle
  3
ObjectDBX Classes
 90
     4095
280
     0
281
     0
  0
CLASS
  1
MATERIAL
  2
AcDbMaterial
  3
ObjectDBX Classes
 90
     1153
280
     0
281
     0
  0
CLASS
  1
SCALE
  2
AcDbScale
  3
ObjectDBX Classes
 90
     1153
280
     0
281
     0
  0
CLASS
  1
TABLESTYLE
  2
AcDbTableStyle
  3
ObjectDBX Classes
 90
     4095
280
     0
281
     0
  0
CLASS
  1
MLEADERSTYLE
  2
AcDbMLeaderStyle
  3
ACDB_MLEADERSTYLE_CLASS
 90
     4095
280
     0
281
     0
  0
CLASS
  1
SUN
  2
AcDbSun
  3
SCENEOE
 90
     1153
280
     0
281
     0
  0
CLASS
  1
ACDBPLACEHOLDER
  2
AcDbPlaceHolder
  3
ObjectDBX Classes
 90
        0
280
     0
281
     0
  0
CLASS
  1
LAYOUT
  2
AcDbLayout
  3
ObjectDBX Classes
 90
        0
280
     0
281
     0
  0
ENDSEC
  0
SECTION
  2
TABLES
  0
TABLE
  2
VPORT
  5
8
330
0
100
AcDbSymbolTable
 70
     1
  0
VPORT
  5
29
330
8
100
AcDbSymbolTableRecord
100
AcDbViewportTableRecord
  2
*Active
 70
     0
 10
0.0
 20
0.0
 11
1.0
 21
1.0
 12
594.5
 22
420.5
 13
0.0
 23
0.0
 14
10.0
 24
10.0
 15
10.0
 25
10.0
 16
0.0
 26
0.0
 36
1.0
 17
0.0
 27
0.0
 37
0.0
 40
841.0
 41
1.4137931034
 42
50.0
 43
0.0
 44
0.0
 50
0.0
 51
0.0
 71
     0
 72
  2000
 73
     1
 74
     3
 75
     0
 76
     0
 77
     0
 78
     0
281
     0
 65
     1
110
0.0
120
0.0
130
0.0
111
1.0
121
0.0
131
0.0
112
0.0
122
1.0
132
0.0
 79
     0
146
0.0
  0
ENDTAB
  0
TABLE
  2
LTYPE
  5
5
330
0
100
AcDbSymbolTable
 70
     6
  0
LTYPE
  5
14
330
5
100
AcDbSymbolTableRecord
100
AcDbLinetypeTableRecord
  2
ByBlock
 70
     0
  3

 72
    65
 73
     0
 40
0.0
  0
LTYPE
  5
15
330
5
100
AcDbSymbolTableRecord
100
AcDbLinetypeTableRecord
  2
ByLayer
 70
     0
  3

 72
    65
 73
     0
 40
0.0
  0
LTYPE
  5
16
330
5
100
AcDbSymbolTableRecord
100
AcDbLinetypeTableRecord
  2
Continuous
 70
     0
  3
Solid line
 72
    65
 73
     0
 40
0.0
  0
LTYPE
  5
6E
330
5
100
AcDbSymbolTableRecord
100
AcDbLinetypeTableRecord
  2
HIDDEN
 70
     0
  3
Hidden __ __ __ __ __ __ __ __ __ __ __ __ __ __
 72
    65
 73
     2
 40
1.905
 49
1.27
 74
     0
 49
-0.635
 74
     0
  0
LTYPE
  5
6F
330
5
100
AcDbSymbolTableRecord
100
AcDbLinetypeTableRecord
  2
PHANTOM
 70
     0
  3
Phantom ______  __  __  ______  __  __  ______
 72
    65
 73
     6
 40
12.7
 49
6.35
 74
     0
 49
-1.27
 74
     0
 49
1.27
 74
     0
 49
-1.27
 74
     0
 49
1.27
 74
     0
 49
-1.27
 74
     0
  0
LTYPE
  5
70
330
5
100
AcDbSymbolTableRecord
100
AcDbLinetypeTableRecord
  2
CENTER
 70
     0
  3
Center ____ _ ____ _ ____ _ ____ _ ____ _ ____
 72
    65
 73
     4
 40
10.16
 49
6.35
 74
     0
 49
-1.27
 74
     0
 49
1.27
 74
     0
 49
-1.27
 74
     0
  0
LTYPE
  5
71
330
5
100
AcDbSymbolTableRecord
100
AcDbLinetypeTableRecord
  2
CENTERX2
 70
     0
  3
Center (2x) ________  __  ________  __  _____
 72
    65
 73
     4
 40
20.32
 49
12.7
 74
     0
 49
-2.54
 74
     0
 49
2.54
 74
     0
 49
-2.54
 74
     0
  0
LTYPE
  5
72
330
5
100
AcDbSymbolTableRecord
100
AcDbLinetypeTableRecord
  2
DOT2
 70
     0
  3
Dot (.5x) ........................................
 72
    65
 73
     2
 40
0.635
 49
0.0
 74
     0
 49
-0.635
 74
     0
  0
ENDTAB
  0
TABLE
  2
LAYER
  5
2
330
0
100
AcDbSymbolTable
 70
     1
  0
LAYER
  5
10
330
2
100
AcDbSymbolTableRecord
100
AcDbLayerTableRecord
  2
0
 70
     0
 62
     7
  6
Continuous
370
    -3
390
F
  0
ENDTAB
  0
TABLE
  2
STYLE
  5
3
330
0
100
AcDbSymbolTable
 70
     1
  0
STYLE
  5
11
330
3
100
AcDbSymbolTableRecord
100
AcDbTextStyleTableRecord
  2
Standard
 70
     0
 40
0.0
 41
1.0
 50
0.0
 71
     0
 42
3.5
  3
txt
  4

  0
ENDTAB
  0
TABLE
  2
VIEW
  5
6
330
0
100
AcDbSymbolTable
 70
     0
  0
ENDTAB
  0
TABLE
  2
UCS
  5
7
330
0
100
AcDbSymbolTable
 70
     0
  0
ENDTAB
  0
TABLE
  2
APPID
  5
9
330
0
100
AcDbSymbolTable
 70
     1
  0
APPID
  5
12
330
9
100
AcDbSymbolTableRecord
100
AcDbRegAppTableRecord
  2
ACAD
 70
     0
  0
ENDTAB
  0
TABLE
  2
DIMSTYLE
  5
A
330
0
100
AcDbSymbolTable
 70
     1
100
AcDbDimStyleTable
  0
DIMSTYLE
105
27
330
A
100
AcDbSymbolTableRecord
100
AcDbDimStyleTableRecord
  2
ISO-25
 70
     0
 41
2.5
 42
0.625
 43
3.75
 44
1.25
 73
     0
 74
     0
 77
     1
 78
     8
140
2.5
141
2.5
143
0.0393700787
147
0.625
171
     3
172
     1
178
     0
271
     2
272
     2
274
     3
278
    44
283
     0
284
     8
340
11
  0
ENDTAB
  0
TABLE
  2
BLOCK_RECORD
  5
1
330
0
100
AcDbSymbolTable
 70
     1
  0
BLOCK_RECORD
  5
1F
330
1
100
AcDbSymbolTableRecord
100
AcDbBlockTableRecord
  2
*Model_Space
340
22
  0
BLOCK_RECORD
  5
1B
330
1
100
AcDbSymbolTableRecord
100
AcDbBlockTableRecord
  2
*Paper_Space
340
1E
  0
BLOCK_RECORD
  5
23
330
1
100
AcDbSymbolTableRecord
100
AcDbBlockTableRecord
  2
*Paper_Space0
340
26
  0
ENDTAB
  0
ENDSEC
  0
SECTION
  2
BLOCKS
  0
BLOCK
  5
20
330
1F
100
AcDbEntity
  8
0
100
AcDbBlockBegin
  2
*Model_Space
 70
     0
 10
0.0
 20
0.0
 30
0.0
  3
*Model_Space
  1

  0
ENDBLK
  5
21
330
1F
100
AcDbEntity
  8
0
100
AcDbBlockEnd
  0
BLOCK
  5
1C
330
1B
100
AcDbEntity
 67
     1
  8
0
100
AcDbBlockBegin
  2
*Paper_Space
 70
     0
 10
0.0
 20
0.0
 30
0.0
  3
*Paper_Space
  1

  0
ENDBLK
  5
1D
330
1B
100
AcDbEntity
 67
     1
  8
0
100
AcDbBlockEnd
  0
BLOCK
  5
24
330
23
100
AcDbEntity
  8
0
100
AcDbBlockBegin
  2
*Paper_Space0
 70
     0
 10
0.0
 20
0.0
 30
0.0
  3
*Paper_Space0
  1

  0
ENDBLK
  5
25
330
23
100
AcDbEntity
  8
0
100
AcDbBlockEnd
  0
ENDSEC
  0
SECTION
  2
ENTITIES
  0
SPLINE
  5
73
330
1F
100
AcDbEntity
  8
0
  6
Continuous
 62
     7
370
    25
100
AcDbSpline
210
0.0
220
0.0
230
1.0
 70
     8
 71
     3
 72
    14
 73
    10
 74
     0
 42
0.00000001
 43
0.00000001
 40
0.0
 40
0.0
 40
0.0
 40
0.0
 40
0.0832959258183388
 40
0.4445609866602028
 40
0.6637172573232482
 40
0.8060541688991899
 40
0.8902935811731582
 40
0.9539878524097611
 40
1.0
 40
1.0
 40
1.0
 40
1.0
 10
674.0238449834925
 20
549.7067618601329
 30
0.0
 10
674.0327611125473
 20
549.8003775644554
 30
0.0
 10
674.0803476312253
 20
550.3000165260447
 30
0.0
 10
674.1235963996056
 20
550.8681322020025
 30
0.0
 10
674.1640859124498
 20
551.5102442219626
 30
0.0
 10
674.1849444721532
 20
551.9810858370928
 30
0.0
 10
674.192500388267
 20
552.424406239115
 30
0.0
 10
674.1934155422324
 20
552.817427395261
 30
0.0
 10
674.179587158636
 20
553.1598406921861
 30
0.0
 10
674.1737873737759
 20
553.3034528100864
 30
0.0
  0
SPLINE
  5
74
330
1F
100
AcDbEntity
  8
0
  6
Continuous
 62
     7
370
    25
100
AcDbSpline
210
0.0
220
0.0
230
1.0
 70
     8
 71
     3
 72
     9
 73
     5
 74
     0
 42
0.00000001
 43
0.00000001
 40
0.0
 40
0.0
 40
0.0
 40
0.0
 40
0.3926439429147089
 40
1.0
 40
1.0
 40
1.0
 40
1.0
 10
645.3384749984551
 20
551.9561068897915
 30
0.0
 10
645.3417279884478
 20
551.8837714883805
 30
0.0
 10
645.350012822714
 20
551.6995450340668
 30
0.0
 10
645.3571103717362
 20
551.5987976204268
 30
0.0
 10
645.3614211111254
 20
551.5376080685168
 30
0.0
  0
LINE
  5
75
330
1F
100
AcDbEntity
  8
0
  6
Continuous
 62
     7
370
    25
100
AcDbLine
 10
648.2966573283
 20
402.2384811618
 30
0.0
 11
648.2939247131
 21
402.2003782658
 31
0.0
  0
LINE
  5
76
330
1F
100
AcDbEntity
  8
0
  6
Continuous
 62
     7
370
    25
100
AcDbLine
 10
671.243829209
 20
402.2003747949
 30
0.0
 11
671.2410991445
 21
402.2384777825
 31
0.0
  0
SPLINE
  5
77
330
1F
100
AcDbEntity
  8
0
  6
Continuous
 62
     7
370
    25
100
AcDbSpline
210
0.0
220
0.0
230
1.0
 70
     8
 71
     3
 72
    16
 73
    12
 74
     0
 42
0.00000001
 43
0.00000001
 40
0.0
 40
0.0
 40
0.0
 40
0.0
 40
0.1522507424564828
 40
0.3338178224155264
 40
0.5005992257102779
 40
0.6501316915695605
 40
0.778364691447158
 40
0.8767077581694025
 40
0.9414883477825566
 40
0.9863566383600494
 40
1.0
 40
1.0
 40
1.0
 40
1.0
 10
745.3816288546523
 20
541.8084598735642
 30
0.0
 10
745.6491473799722
 20
541.8051100397106
 30
0.0
 10
746.235695925728
 20
541.7977653514391
 30
0.0
 10
747.1049187433398
 20
541.6466687139301
 30
0.0
 10
747.9473067095201
 20
541.4112664899956
 30
0.0
 10
748.6730011740468
 20
541.1211253061241
 30
0.0
 10
749.2596900605247
 20
540.8226625503423
 30
0.0
 10
749.6943477501861
 20
540.5587313327075
 30
0.0
 10
749.9726064587378
 20
540.3688762292053
 30
0.0
 10
750.104173443761
 20
540.2732173063041
 30
0.0
 10
750.1397422478169
 20
540.2464136781391
 30
0.0
 10
750.1480359472502
 20
540.2401637846826
 30
0.0
  0
SPLINE
  5
78
330
1F
100
AcDbEntity
  8
0
  6
Continuous
 62
     7
370
    25
100
AcDbSpline
210
0.0
220
0.0
230
1.0
 70
     8
 71
     3
 72
    15
 73
    11
 74
     0
 42
0.00000001
 43
0.00000001
 40
0.0
 40
0.0
 40
0.0
 40
0.0
 40
0.036845652135493
 40
0.074438180597171
 40
0.1144849858513242
 40
0.2157967965691225
 40
0.4223090015026124
 40
0.582111499100071
 40
0.8361514696461769
 40
1.0
 40
1.0
 40
1.0
 40
1.0
 10
750.1324484040231
 20
567.3752461899206
 30
0.0
 10
750.1230469330517
 20
567.3681447523934
 30
0.0
 10
750.1040534194756
 20
567.3537979283174
 30
0.0
 10
750.0116822701034
 20
567.2869006301329
 30
0.0
 10
749.7933839972839
 20
567.1348632793563
 30
0.0
 10
749.2522695195158
 20
566.7928250240219
 30
0.0
 10
748.5001606543301
 20
566.4230569883522
 30
0.0
 10
747.439117248344
 20
566.0581863496486
 30
0.0
 10
746.4116125817756
 20
565.8384510545267
 30
0.0
 10
745.6564552817589
 20
565.8357882706214
 30
0.0
 10
745.3603681352421
 20
565.8347442284222
 30
0.0
  0
SPLINE
  5
79
330
1F
100
AcDbEntity
  8
0
  6
Continuous
 62
     7
370
    25
100
AcDbSpline
210
0.0
220
0.0
230
1.0
 70
     8
 71
     3
 72
    17
 73
    13
 74
     0
 42
0.00000001
 43
0.00000001
 40
0.0
 40
0.0
 40
0.0
 40
0.0
 40
0.1367869352934132
 40
0.3120522145975618
 40
0.4726772437517411
 40
0.6162850233119179
 40
0.7394801463663473
 40
0.8361318686749523
 40
0.8976929715085684
 40
0.9362047950402659
 40
0.9663367341587283
 40
1.0
 40
1.0
 40
1.0
 40
1.0
 10
574.2021238317111
 20
565.8286874571377
 30
0.0
 10
573.955607334641
 20
565.8284736299655
 30
0.0
 10
573.3932289270791
 20
565.8279858257577
 30
0.0
 10
572.5493723962937
 20
565.9621639642617
 30
0.0
 10
571.7132310209912
 20
566.1804504395304
 30
0.0
 10
570.9926104503917
 20
566.453315888347
 30
0.0
 10
570.403225198498
 20
566.738963990951
 30
0.0
 10
569.9674725542917
 20
566.991504046621
 30
0.0
 10
569.6765368159764
 20
567.1818593499524
 30
0.0
 10
569.5233733171607
 20
567.2890259719914
 30
0.0
 10
569.4436037620892
 20
567.3466676404745
 30
0.0
 10
569.4168860682416
 20
567.3664707312277
 30
0.0
 10
569.4027877542503
 20
567.3769203678254
 30
0.0
  0
SPLINE
  5
7A
330
1F
100
AcDbEntity
  8
0
  6
Continuous
 62
     7
370
    25
100
AcDbSpline
210
0.0
220
0.0
230
1.0
 70
     8
 71
     3
 72
    14
 73
    10
 74
     0
 42
0.00000001
 43
0.00000001
 40
0.0
 40
0.0
 40
0.0
 40
0.0
 40
0.0382219439929176
 40
0.0959869339543019
 40
0.1993615309569623
 40
0.3655341080568337
 40
0.5812868773842143
 40
0.8575299416893815
 40
1.0
 40
1.0
 40
1.0
 40
1.0
 10
569.3899727947697
 20
540.2401524307284
 30
0.0
 10
569.4176976485455
 20
540.2608737170611
 30
0.0
 10
569.4873231942468
 20
540.3129111734249
 30
0.0
 10
569.7433306763164
 20
540.4932358355671
 30
0.0
 10
570.2219494658299
 20
540.7946934522114
 30
0.0
 10
570.980458714402
 20
541.1841905932154
 30
0.0
 10
572.0693602799543
 20
541.5732682266655
 30
0.0
 10
573.1700067431648
 20
541.8024587345717
 30
0.0
 10
573.9057143675583
 20
541.8002429366176
 30
0.0
 10
574.1560440144825
 20
541.79948899592
 30
0.0
  0
LINE
  5
7B
330
1F
100
AcDbEntity
  8
0
  6
Continuous
 62
     7
370
    25
100
AcDbLine
 10
651.8944914601
 20
565.8158302358
 30
0.0
 11
574.2005008391
 21
565.8158302358
 31
0.0
  0
LINE
  5
7C
330
1F
100
AcDbEntity
  8
0
  6
Continuous
 62
     7
370
    25
100
AcDbLine
 10
745.3600630936
 20
565.8158302358
 30
0.0
 11
667.5534525878
 21
565.8158302358
 31
0.0
  0
LINE
  5
7D
330
1F
100
AcDbEntity
  8
0
  6
Continuous
 62
     7
370
    25
100
AcDbLine
 10
673.0969204756
 20
541.8158302358
 30
0.0
 11
745.3889255591
 21
541.8158302358
 31
0.0
  0
LINE
  5
7E
330
1F
100
AcDbEntity
  8
0
  6
Continuous
 62
     7
370
    25
100
AcDbLine
 10
574.1489005278
 20
541.8158302358
 30
0.0
 11
646.4409056113
 21
541.8158302358
 31
0.0
  0
SPLINE
  5
7F
330
1F
100
AcDbEntity
  8
0
  6
Continuous
 62
     7
370
    25
100
AcDbSpline
210
0.0
220
0.0
230
1.0
 70
     8
 71
     3
 72
    17
 73
    13
 74
     0
 42
0.00000001
 43
0.00000001
 40
0.0
 40
0.0
 40
0.0
 40
0.0
 40
0.075787141968886
 40
0.1939432937017098
 40
0.2924675632532572
 40
0.3760258810391567
 40
0.4440638402987762
 40
0.4938831639827598
 40
0.5384853251647893
 40
0.6031372733569235
 40
0.7568216945197358
 40
1.0
 40
1.0
 40
1.0
 40
1.0
 10
500.747798774261
 20
551.0020804629455
 30
0.0
 10
500.749614601741
 20
550.9701284638256
 30
0.0
 10
500.7542614000384
 20
550.888361612765
 30
0.0
 10
500.8156378070912
 20
550.777696481274
 30
0.0
 10
500.8982633482091
 20
550.6829609074961
 30
0.0
 10
500.9836858241193
 20
550.6227957644119
 30
0.0
 10
501.0575797372983
 20
550.5890751699401
 30
0.0
 10
501.110089465217
 20
550.5729687785214
 30
0.0
 10
501.147095029149
 20
550.5644877924583
 30
0.0
 10
501.1898791226052
 20
550.5570677031353
 30
0.0
 10
501.2425980819118
 20
550.5499536670721
 30
0.0
 10
501.3330662368879
 20
550.5424317767873
 30
0.0
 10
501.38850075152
 20
550.5378227258218
 30
0.0
  0
SPLINE
  5
80
330
1F
100
AcDbEntity
  8
0
  6
Continuous
 62
     7
370
    25
100
AcDbSpline
210
0.0
220
0.0
230
1.0
 70
     8
 71
     3
 72
    17
 73
    13
 74
     0
 42
0.00000001
 43
0.00000001
 40
0.0
 40
0.0
 40
0.0
 40
0.0
 40
0.1606997580549378
 40
0.4577703539728011
 40
0.5828983411976298
 40
0.627686769352307
 40
0.6629538925727552
 40
0.71440176091894
 40
0.7798248814559855
 40
0.8629833632515891
 40
0.9534858834414518
 40
1.0
 40
1.0
 40
1.0
 40
1.0
 10
501.7513713248052
 20
557.1225672861354
 30
0.0
 10
501.6741199751478
 20
557.1170649484625
 30
0.0
 10
501.4540612886533
 20
557.101390954334
 30
0.0
 10
501.2709106104813
 20
557.084629926165
 30
0.0
 10
501.18593807474
 20
557.0744732588743
 30
0.0
 10
501.1262212956518
 20
557.0629962788116
 30
0.0
 10
501.0631544184236
 20
557.0450642511622
 30
0.0
 10
500.9755209226599
 20
557.0056136733907
 30
0.0
 10
500.8717358824507
 20
556.9268920183089
 30
0.0
 10
500.7806736630853
 20
556.7998192826747
 30
0.0
 10
500.7305111881015
 20
556.6595851183882
 30
0.0
 10
500.741136465794
 20
556.5706498821897
 30
0.0
 10
500.7447435124766
 20
556.5404583372733
 30
0.0
  0
LINE
  5
81
330
1F
100
AcDbEntity
  8
0
  6
Continuous
 62
     7
370
    25
100
AcDbLine
 10
505.2346920157
 20
557.3647348145
 30
0.0
 11
501.7513713248
 21
557.1225672861
 31
0.0
  0
LINE
  5
82
330
1F
100
AcDbEntity
  8
0
  6
Continuous
 62
     7
370
    25
100
AcDbLine
 10
501.7513713248
 20
550.5090931854
 30
0.0
 11
505.2346920157
 21
550.2669256571
 31
0.0
  0
ARC
  5
83
330
1F
100
AcDbEntity
  8
0
  6
Continuous
 62
     7
370
    25
100
AcDbCircle
 10
558.1689130435
 20
553.8158302358
 30
0.0
 40
9.141196303513993
100
AcDbArc
 50
295.4997205711
 51
0.0
  0
ARC
  5
84
330
1F
100
AcDbEntity
  8
0
  6
Continuous
 62
     7
370
    25
100
AcDbCircle
 10
558.1689130435
 20
553.8158302358
 30
0.0
 40
9.141196303514011
100
AcDbArc
 50
0.0
 51
64.4851564436
  0
SPLINE
  5
85
330
1F
100
AcDbEntity
  8
0
  6
Continuous
 62
     7
370
    25
100
AcDbSpline
210
0.0
220
0.0
230
1.0
 70
     8
 71
     3
 72
    17
 73
    13
 74
     0
 42
0.00000001
 43
0.00000001
 40
0.0
 40
0.0
 40
0.0
 40
0.0
 40
0.075787141968886
 40
0.1939432937017092
 40
0.2924675632532564
 40
0.3760258810391553
 40
0.4440638402987707
 40
0.4938831639827608
 40
0.5384853251647901
 40
0.603137273356924
 40
0.7568216945197356
 40
1.0
 40
1.0
 40
1.0
 40
1.0
 10
818.7900273126958
 20
556.8750012974623
 30
0.0
 10
818.7882114852157
 20
556.9069532965823
 30
0.0
 10
818.7835646869183
 20
556.9887201476428
 30
0.0
 10
818.7221882798657
 20
557.0993852791338
 30
0.0
 10
818.6395627387477
 20
557.1941208529119
 30
0.0
 10
818.5541402628374
 20
557.2542859959959
 30
0.0
 10
818.4802463496584
 20
557.2880065904677
 30
0.0
 10
818.4277366217399
 20
557.3041129818864
 30
0.0
 10
818.3907310578078
 20
557.3125939679495
 30
0.0
 10
818.3479469643515
 20
557.3200140572726
 30
0.0
 10
818.295228005045
 20
557.3271280933358
 30
0.0
 10
818.2047598500689
 20
557.3346499836205
 30
0.0
 10
818.1493253354369
 20
557.339259034586
 30
0.0
  0
SPLINE
  5
86
330
1F
100
AcDbEntity
  8
0
  6
Continuous
 62
     7
370
    25
100
AcDbSpline
210
0.0
220
0.0
230
1.0
 70
     8
 71
     3
 72
    17
 73
    13
 74
     0
 42
0.00000001
 43
0.00000001
 40
0.0
 40
0.0
 40
0.0
 40
0.0
 40
0.1606997580549429
 40
0.4577703539728003
 40
0.5828983411976291
 40
0.6276867693523064
 40
0.6629538925727545
 40
0.7144017609189394
 40
0.7798248814559852
 40
0.8629833632515889
 40
0.9534858834414522
 40
1.0
 40
1.0
 40
1.0
 40
1.0
 10
817.7864547621516
 20
550.7545144742724
 30
0.0
 10
817.863706111809
 20
550.7600168119453
 30
0.0
 10
818.0837647983035
 20
550.7756908060738
 30
0.0
 10
818.2669154764756
 20
550.7924518342428
 30
0.0
 10
818.3518880122167
 20
550.8026085015337
 30
0.0
 10
818.4116047913052
 20
550.8140854815962
 30
0.0
 10
818.4746716685331
 20
550.8320175092457
 30
0.0
 10
818.562305164297
 20
550.8714680870171
 30
0.0
 10
818.6660902045061
 20
550.9501897420988
 30
0.0
 10
818.7571524238715
 20
551.0772624777331
 30
0.0
 10
818.8073148988552
 20
551.2174966420196
 30
0.0
 10
818.7966896211628
 20
551.3064318782181
 30
0.0
 10
818.7930825744801
 20
551.3366234231345
 30
0.0
  0
LINE
  5
87
330
1F
100
AcDbEntity
  8
0
  6
Continuous
 62
     7
370
    25
100
AcDbLine
 10
814.3031340713
 20
550.5123469459
 30
0.0
 11
817.7864547622
 21
550.7545144743
 31
0.0
  0
LINE
  5
88
330
1F
100
AcDbEntity
  8
0
  6
Continuous
 62
     7
370
    25
100
AcDbLine
 10
817.7864547622
 20
557.367988575
 30
0.0
 11
814.3031340713
 21
557.6101561033
 31
0.0
  0
ARC
  5
89
330
1F
100
AcDbEntity
  8
0
  6
Continuous
 62
     7
370
    25
100
AcDbCircle
 10
769.4779282487
 20
551.0893570488
 30
0.0
 40
8.999995138923055
100
AcDbArc
 50
257.1419190681
 51
270.0
  0
ARC
  5
8A
330
1F
100
AcDbEntity
  8
0
  6
Continuous
 62
     7
370
    25
100
AcDbCircle
 10
769.4779282487
 20
551.0893570488
 30
0.0
 40
8.999995138923058
100
AcDbArc
 50
270.0
 51
305.1719294169
  0
SPLINE
  5
8B
330
1F
100
AcDbEntity
  8
0
  6
Continuous
 62
     7
370
    25
100
AcDbSpline
210
0.0
220
0.0
230
1.0
 70
     8
 71
     3
 72
    13
 73
     9
 74
     0
 42
0.00000001
 43
0.00000001
 40
0.0
 40
0.0
 40
0.0
 40
0.0
 40
0.167496538880593
 40
0.3349957006346764
 40
0.5032497132695324
 40
0.6715037200202241
 40
0.8356574437189662
 40
1.0
 40
1.0
 40
1.0
 40
1.0
 10
673.4130640722401
 20
544.7618163396168
 30
0.0
 10
672.6209104134715
 20
537.2892142190739
 30
0.0
 10
671.0365906913863
 20
522.3438929624955
 30
0.0
 10
669.5688014571376
 20
499.8105840519429
 30
0.0
 10
668.7678066971391
 20
477.2145789661888
 30
0.0
 10
668.7198301717807
 20
454.7583743922102
 30
0.0
 10
669.3253356068318
 20
432.486571227626
 30
0.0
 10
670.3091771611568
 20
417.8003441064341
 30
0.0
 10
670.8013807137304
 20
410.453009435341
 30
0.0
  0
ARC
  5
8C
330
1F
100
AcDbEntity
  8
0
  6
Continuous
 62
     7
370
    25
100
AcDbCircle
 10
668.7154982658
 20
417.3680446867
 30
0.0
 40
7.22278465092957
100
AcDbArc
 50
271.4178625931
 51
286.7856488342
  0
SPLINE
  5
8D
330
1F
100
AcDbEntity
  8
0
  6
Continuous
 62
     7
370
    25
100
AcDbSpline
210
0.0
220
0.0
230
1.0
 70
     8
 71
     3
 72
    13
 73
     9
 74
     0
 42
0.00000001
 43
0.00000001
 40
0.0
 40
0.0
 40
0.0
 40
0.0
 40
0.1641690360829144
 40
0.3286101633217165
 40
0.4960135075866848
 40
0.6634183606082487
 40
0.8317101834736546
 40
1.0
 40
1.0
 40
1.0
 40
1.0
 10
668.8942177293601
 20
410.1474714776291
 30
0.0
 10
668.3104484260359
 20
417.5131111715528
 30
0.0
 10
667.1419422894055
 20
432.2565982537743
 30
0.0
 10
666.4104308391657
 20
454.5957722668151
 30
0.0
 10
666.4155157127325
 20
477.0925181327257
 30
0.0
 10
667.2527489738086
 20
499.7517042100832
 30
0.0
 10
668.8218010527693
 20
522.4172258737633
 30
0.0
 10
670.5262702361499
 20
537.4910762623864
 30
0.0
 10
671.3784997477308
 20
545.0279565296262
 30
0.0
  0
ARC
  5
8E
330
1F
100
AcDbEntity
  8
0
  6
Continuous
 62
     7
370
    25
100
AcDbCircle
 10
667.1447320945
 20
504.7521382825
 30
0.0
 40
40.49773233181706
100
AcDbArc
 50
81.0958296646
 51
83.9991437087
  0
LINE
  5
8F
330
1F
100
AcDbEntity
  8
0
  6
Continuous
 62
     7
370
    25
100
AcDbLine
 10
673.4061808
 20
544.544022104
 30
0.0
 11
673.4130640722
 21
544.7618163396
 31
0.0
  0
ELLIPSE
  5
90
330
1F
100
AcDbEntity
  8
0
  6
Continuous
 62
     7
370
    25
100
AcDbEllipse
 10
1373.7689130435
 20
463.8132359245
 30
0.0
 11
-2.046363078989089E-11
 21
-705.0225305360213
 31
-7.531752999057063E-13
210
-3.100792954068654E-29
220
-1.068299617791044E-15
230
1.0
 40
0.9999680428
 41
4.597629157922761
 42
4.601394429271432
  0
ELLIPSE
  5
91
330
1F
100
AcDbEntity
  8
0
  6
Continuous
 62
     7
370
    25
100
AcDbEllipse
 10
1373.7689130435
 20
465.2097483189
 30
0.0
 11
704.9999999999998
 21
6.128857421572320E-10
 31
0.0
210
0.0
220
0.0
230
1.0
 40
0.9821487217
 41
3.030598102475607
 42
3.033431865790342
  0
LWPOLYLINE
  5
92
330
1F
100
AcDbEntity
  8
0
  6
Continuous
 62
     7
370
    25
100
AcDbPolyline
 90
        9
 70
   128
 43
0.0
 10
674.0662144092
 20
551.3923596161
 10
674.0304565774
 20
551.3955655578
 10
673.9244661889
 20
551.4045034544
 10
673.7507629722
 20
551.4189608237
 10
673.5134764055
 20
551.4385939681
 10
673.2182475451
 20
551.4629361453
 10
672.8720949201
 20
551.4914086643
 10
672.4832476794
 20
551.5233346427
 10
672.0609499587
 20
551.5579550985
  0
SPLINE
  5
93
330
1F
100
AcDbEntity
  8
0
  6
Continuous
 62
     7
370
    25
100
AcDbSpline
210
0.0
220
0.0
230
1.0
 70
     8
 71
     3
 72
    16
 73
    12
 74
     0
 42
0.00000001
 43
0.00000001
 40
0.0
 40
0.0
 40
0.0
 40
0.0
 40
0.1011114183972974
 40
0.2058198974052868
 40
0.3085551739473933
 40
0.4143883541457384
 40
0.5236167436258542
 40
0.635882817114656
 40
0.7506471644410554
 40
0.8687206501406435
 40
1.0
 40
1.0
 40
1.0
 40
1.0
 10
672.0609499587252
 20
551.5579550985093
 30
0.0
 10
672.0835445131769
 20
552.2040149340922
 30
0.0
 10
672.1295374282489
 20
553.5191183238486
 30
0.0
 10
671.7582337190654
 20
555.4604927099274
 30
0.0
 10
671.0756412954121
 20
557.3256614647753
 30
0.0
 10
670.0731535891559
 20
559.0647114406786
 30
0.0
 10
668.7616744651697
 20
560.6534584291735
 30
0.0
 10
667.1605957055746
 20
562.042103847322
 30
0.0
 10
665.2974744014399
 20
563.1754426676265
 30
0.0
 10
663.1524788405424
 20
564.0654493702939
 30
0.0
 10
661.5831050614989
 20
564.3390491525446
 30
0.0
 10
660.7568607200728
 20
564.4830940416074
 30
0.0
  0
ARC
  5
94
330
1F
100
AcDbEntity
  8
0
  6
Continuous
 62
     7
370
    25
100
AcDbCircle
 10
634.3365670042
 20
568.7470241219
 30
0.0
 40
26.76215648568346
100
AcDbArc
 50
350.8321736663
 51
357.3810719072
  0
SPLINE
  5
95
330
1F
100
AcDbEntity
  8
0
  6
Continuous
 62
     7
370
    25
100
AcDbSpline
210
0.0
220
0.0
230
1.0
 70
     8
 71
     3
 72
    16
 73
    12
 74
     0
 42
0.00000001
 43
0.00000001
 40
0.0
 40
0.0
 40
0.0
 40
0.0
 40
0.1265652235786989
 40
0.2399180908748048
 40
0.3532935642782803
 40
0.4634120317902187
 40
0.5735332456088027
 40
0.6798831241162325
 40
0.7862170680527379
 40
0.8931143231863432
 40
1.0
 40
1.0
 40
1.0
 40
1.0
 10
661.070771200834
 20
567.5241808223841
 30
0.0
 10
662.0247441021666
 20
567.3443091002172
 30
0.0
 10
663.833103071261
 20
567.003342767093
 30
0.0
 10
666.3050942796981
 20
565.8894916060912
 30
0.0
 10
668.4508757181559
 20
564.4819752994333
 30
0.0
 10
670.297162500638
 20
562.73922502726
 30
0.0
 10
671.8027761420411
 20
560.7641681318037
 30
0.0
 10
672.9506510183305
 20
558.5877183000791
 30
0.0
 10
673.7290042759602
 20
556.2746995571207
 30
0.0
 10
674.1477384159549
 20
553.8493948374188
 30
0.0
 10
674.093388096955
 20
552.2113417846427
 30
0.0
 10
674.0662144092408
 20
551.3923596161044
 30
0.0
  0
LWPOLYLINE
  5
96
330
1F
100
AcDbEntity
  8
0
  6
Continuous
 62
     7
370
    25
100
AcDbPolyline
 90
        9
 70
   128
 43
0.0
 10
647.4768761282
 20
551.5579550985
 10
647.0545784076
 20
551.5233346427
 10
646.6657311669
 20
551.4914086643
 10
646.3195785418
 20
551.4629361453
 10
646.0243496815
 20
551.4385939681
 10
645.7870631147
 20
551.4189608237
 10
645.6133598981
 20
551.4045034544
 10
645.5073695095
 20
551.3955655578
 10
645.4716116777
 20
551.3923596161
  0
SPLINE
  5
97
330
1F
100
AcDbEntity
  8
0
  6
Continuous
 62
     7
370
    25
100
AcDbSpline
210
0.0
220
0.0
230
1.0
 70
     8
 71
     3
 72
    16
 73
    12
 74
     0
 42
0.00000001
 43
0.00000001
 40
0.0
 40
0.0
 40
0.0
 40
0.0
 40
0.1053590165756655
 40
0.2137857859545509
 40
0.3187137499916416
 40
0.4264694089216682
 40
0.5350817333641125
 40
0.6467087676178402
 40
0.7583511234424992
 40
0.8734401572121758
 40
1.0
 40
1.0
 40
1.0
 40
1.0
 10
645.4716116777134
 20
551.3923596161044
 30
0.0
 10
645.4435229347204
 20
552.1996526917673
 30
0.0
 10
645.3865275849876
 20
553.8377449052829
 30
0.0
 10
645.8044489899856
 20
556.2526910378982
 30
0.0
 10
646.5806595529498
 20
558.5786699301749
 30
0.0
 10
647.7242763942131
 20
560.7448636454026
 30
0.0
 10
649.2308962790148
 20
562.7322271279565
 30
0.0
 10
651.0687069846052
 20
564.465582991123
 30
0.0
 10
653.2192252095311
 20
565.8856265830932
 30
0.0
 10
655.69207508081
 20
566.9999949708726
 30
0.0
 10
657.513245295399
 20
567.3440088832818
 30
0.0
 10
658.467054886123
 20
567.5241808223846
 30
0.0
  0
ARC
  5
98
330
1F
100
AcDbEntity
  8
0
  6
Continuous
 62
     7
370
    25
100
AcDbCircle
 10
685.2012590816
 20
568.7470241218
 30
0.0
 40
26.76215648445504
100
AcDbArc
 50
182.6189280927
 51
189.1678263338
  0
SPLINE
  5
99
330
1F
100
AcDbEntity
  8
0
  6
Continuous
 62
     7
370
    25
100
AcDbSpline
210
0.0
220
0.0
230
1.0
 70
     8
 71
     3
 72
    16
 73
    12
 74
     0
 42
0.00000001
 43
0.00000001
 40
0.0
 40
0.0
 40
0.0
 40
0.0
 40
0.1312858888381212
 40
0.2477037353016334
 40
0.3641242697899623
 40
0.4748881263150849
 40
0.5856211994970285
 40
0.6899344443378583
 40
0.7941891369142512
 40
0.8971121747277486
 40
1.0
 40
1.0
 40
1.0
 40
1.0
 10
658.7809653668837
 20
564.4830940416076
 30
0.0
 10
657.9546011222793
 20
564.3392693267183
 30
0.0
 10
656.395457851668
 20
564.0679079532907
 30
0.0
 10
654.251099862875
 20
563.1783504264708
 30
0.0
 10
652.3925163398371
 20
562.054629440672
 30
0.0
 10
650.7844204057249
 20
560.6589941011728
 30
0.0
 10
649.4745897439852
 20
559.0808619959341
 30
0.0
 10
648.4684670311296
 20
557.3335196294018
 30
0.0
 10
647.7840682633253
 20
555.4809928712501
 30
0.0
 10
647.4123956789243
 20
553.5303586724268
 30
0.0
 10
647.4553850968389
 20
552.2153479606532
 30
0.0
 10
647.4768761282288
 20
551.5579550985099
 30
0.0
  0
SPLINE
  5
9A
330
1F
100
AcDbEntity
  8
0
  6
Continuous
 62
     7
370
    25
100
AcDbSpline
210
0.0
220
0.0
230
1.0
 70
     8
 71
     3
 72
     9
 73
     5
 74
     0
 42
0.00000001
 43
0.00000001
 40
0.0
 40
0.0
 40
0.0
 40
0.0
 40
0.0585870904816303
 40
1.0
 40
1.0
 40
1.0
 40
1.0
 10
658.7809653668837
 20
564.4830940416076
 30
0.0
 10
658.8192981481257
 20
564.4876136742591
 30
0.0
 10
659.4735853115064
 20
564.5647575060207
 30
0.0
 10
660.1345860714555
 20
564.5226935720615
 30
0.0
 10
660.7568607200728
 20
564.4830940416074
 30
0.0
  0
LINE
  5
9B
330
1F
100
AcDbEntity
  8
0
  6
Continuous
 62
     7
370
    25
100
AcDbLine
 10
661.0707712008
 20
567.5241808224
 30
0.0
 11
658.4670548861
 21
567.5241808224
 31
0.0
  0
SPLINE
  5
9C
330
1F
100
AcDbEntity
  8
0
  6
Continuous
 62
     7
370
    25
100
AcDbSpline
210
0.0
220
0.0
230
1.0
 70
     8
 71
     3
 72
    16
 73
    12
 74
     0
 42
0.00000001
 43
0.00000001
 40
0.0
 40
0.0
 40
0.0
 40
0.0
 40
0.1006127915714309
 40
0.2012779882456505
 40
0.3042275840546246
 40
0.4072703879618032
 40
0.5202290237223941
 40
0.6332426808756452
 40
0.7558084970832557
 40
0.8783789753080344
 40
1.0
 40
1.0
 40
1.0
 40
1.0
 10
650.0147909280577
 20
399.7106937077006
 30
0.0
 10
650.0265579407925
 20
399.2386719335307
 30
0.0
 10
650.0500980952194
 20
398.2943825282853
 30
0.0
 10
650.4067548271607
 20
396.9068456689315
 30
0.0
 10
650.9893484181507
 20
395.6045960972414
 30
0.0
 10
651.8091502503072
 20
394.3790141877039
 30
0.0
 10
652.8513044280435
 20
393.2806181127251
 30
0.0
 10
654.1284202536613
 20
392.3090346376928
 30
0.0
 10
655.5953399404037
 20
391.5392471215723
 30
0.0
 10
657.2126804416348
 20
390.9757813129718
 30
0.0
 10
658.3452962222343
 20
390.8177230435923
 30
0.0
 10
658.9094022217201
 20
390.7390011861427
 30
0.0
  0
LINE
  5
9D
330
1F
100
AcDbEntity
  8
0
  6
Continuous
 62
     7
370
    25
100
AcDbLine
 10
650.6436083576
 20
410.1474714776
 30
0.0
 11
650.0147909281
 21
399.7106937077
 31
0.0
  0
SPLINE
  5
9E
330
1F
100
AcDbEntity
  8
0
  6
Continuous
 62
     7
370
    25
100
AcDbSpline
210
0.0
220
0.0
230
1.0
 70
     8
 71
     3
 72
    15
 73
    11
 74
     0
 42
0.00000001
 43
0.00000001
 40
0.0
 40
0.0
 40
0.0
 40
0.0
 40
0.1228706801416188
 40
0.2457421073061568
 40
0.368963376726601
 40
0.4921845652253977
 40
0.6189240972439431
 40
0.745662684214279
 40
0.8728336965048739
 40
1.0
 40
1.0
 40
1.0
 40
1.0
 10
648.159326339225
 20
545.0279565296115
 30
0.0
 10
648.79604121957
 20
539.5270601280148
 30
0.0
 10
650.0694748513267
 20
528.5252338807506
 30
0.0
 10
651.4583579457699
 20
511.9519242181836
 30
0.0
 10
652.4580431193363
 20
495.3370423958216
 30
0.0
 10
653.0290148555847
 20
478.5285007593632
 30
0.0
 10
653.1626043356893
 20
461.5537470421867
 30
0.0
 10
652.8219966334534
 20
444.4079384022193
 30
0.0
 10
652.0413594886891
 20
427.2584002052239
 30
0.0
 10
651.1095196506056
 20
415.8510439883223
 30
0.0
 10
650.6436083575951
 20
410.1474714776424
 30
0.0
  0
LINE
  5
9F
330
1F
100
AcDbEntity
  8
0
  6
Continuous
 62
     7
370
    25
100
AcDbLine
 10
647.4768761282
 20
551.5579550985
 30
0.0
 11
648.1593263392
 21
545.0279565296
 31
0.0
  0
LINE
  5
A0
330
1F
100
AcDbEntity
  8
0
  6
Continuous
 62
     7
370
    25
100
AcDbLine
 10
671.3784997477
 20
545.0279565296
 30
0.0
 11
672.0609499587
 21
551.5579550985
 31
0.0
  0
LINE
  5
A1
330
1F
100
AcDbEntity
  8
0
  6
Continuous
 62
     7
370
    25
100
AcDbLine
 10
669.5230351589
 20
399.7106937077
 30
0.0
 11
668.8942177294
 21
410.1474714776
 31
0.0
  0
SPLINE
  5
A2
330
1F
100
AcDbEntity
  8
0
  6
Continuous
 62
     7
370
    25
100
AcDbSpline
210
0.0
220
0.0
230
1.0
 70
     8
 71
     3
 72
    16
 73
    12
 74
     0
 42
0.00000001
 43
0.00000001
 40
0.0
 40
0.0
 40
0.0
 40
0.0
 40
0.1216210246919496
 40
0.2441915029167302
 40
0.3667573191243442
 40
0.4797709762775905
 40
0.5927296120381758
 40
0.6957724159453555
 40
0.7987220117543322
 40
0.8993872084285616
 40
1.0
 40
1.0
 40
1.0
 40
1.0
 10
660.6284238652339
 20
390.7390011861427
 30
0.0
 10
661.1925298647196
 20
390.8177230435922
 30
0.0
 10
662.325145645319
 20
390.9757813129719
 30
0.0
 10
663.9424861465502
 20
391.5392471215722
 30
0.0
 10
665.4094058332927
 20
392.3090346376928
 30
0.0
 10
666.6865216589102
 20
393.2806181127249
 30
0.0
 10
667.7286758366466
 20
394.3790141877037
 30
0.0
 10
668.5484776688032
 20
395.6045960972411
 30
0.0
 10
669.1310712597932
 20
396.9068456689312
 30
0.0
 10
669.4877279917346
 20
398.2943825282852
 30
0.0
 10
669.5112681461616
 20
399.2386719335305
 30
0.0
 10
669.5230351588963
 20
399.7106937077004
 30
0.0
  0
LINE
  5
A3
330
1F
100
AcDbEntity
  8
0
  6
Continuous
 62
     7
370
    25
100
AcDbLine
 10
660.6284238652
 20
390.7390011861
 30
0.0
 11
658.9094022217
 21
390.7390011861
 31
0.0
  0
ARC
  5
A4
330
1F
100
AcDbEntity
  8
0
  6
Continuous
 62
     7
370
    25
100
AcDbCircle
 10
650.8223278215
 20
417.3680446893
 30
0.0
 40
7.222784653531813
100
AcDbArc
 50
253.2143511689
 51
268.5821374044
  0
SPLINE
  5
A5
330
1F
100
AcDbEntity
  8
0
  6
Continuous
 62
     7
370
    25
100
AcDbSpline
210
0.0
220
0.0
230
1.0
 70
     8
 71
     3
 72
    15
 73
    11
 74
     0
 42
0.00000001
 43
0.00000001
 40
0.0
 40
0.0
 40
0.0
 40
0.0
 40
0.1267660483230548
 40
0.2535350382149457
 40
0.3806484971794478
 40
0.5077622670030952
 40
0.6306734929835315
 40
0.7535844718700745
 40
0.8767926958342646
 40
1.0
 40
1.0
 40
1.0
 40
1.0
 10
648.7364453732241
 20
410.4530094353438
 30
0.0
 10
649.1277005856343
 20
416.1189873416782
 30
0.0
 10
649.9102200894168
 20
427.4510746316964
 30
0.0
 10
650.5645110438909
 20
444.5075139117237
 30
0.0
 10
650.8353697925857
 20
461.5913379623063
 30
0.0
 10
650.6852299693406
 20
478.5071022008884
 30
0.0
 10
650.1416879795655
 20
495.2276318585834
 30
0.0
 10
649.2080579006797
 20
511.7564911308515
 30
0.0
 10
647.9130421023385
 20
528.2765305335466
 30
0.0
 10
646.7208538938901
 20
539.2667347453553
 30
0.0
 10
646.1247620147143
 20
544.7618163396203
 30
0.0
  0
ARC
  5
A6
330
1F
100
AcDbEntity
  8
0
  6
Continuous
 62
     7
370
    25
100
AcDbCircle
 10
652.3930939926
 20
504.7521382783
 30
0.0
 40
40.49773233600799
100
AcDbArc
 50
96.000856291
 51
98.9041703348
  0
ELLIPSE
  5
A7
330
1F
100
AcDbEntity
  8
0
  6
Continuous
 62
     7
370
    25
100
AcDbEllipse
 10
-54.2310869565
 20
465.2097483189
 30
0.0
 11
704.9999999999999
 21
6.128288987383712E-10
 31
0.0
210
0.0
220
0.0
230
1.0
 40
0.9821487217
 41
0.108160787797681
 42
0.1109945511124163
  0
ELLIPSE
  5
A8
330
1F
100
AcDbEntity
  8
0
  6
Continuous
 62
     7
370
    25
100
AcDbEllipse
 10
-54.2310869565
 20
463.8132359245
 30
0.0
 11
-2.031441681538126E-11
 21
-705.0225305360212
 31
-7.602807272633072E-13
210
-3.107222467760759E-29
220
-1.078377916072092E-15
230
1.0
 40
0.9999680428
 41
1.681790877908227
 42
1.685556149256898
  0
LINE
  5
A9
330
1F
100
AcDbEntity
  8
0
  6
Continuous
 62
     7
370
    25
100
AcDbLine
 10
646.1247620147
 20
544.7618163397
 30
0.0
 11
646.1316452869
 21
544.544022104
 31
0.0
  0
LINE
  5
AA
330
1F
100
AcDbEntity
  8
0
  6
Continuous
 62
     7
370
    25
100
AcDbLine
 10
646.1247620147
 20
544.7618163396
 30
0.0
 11
645.4716116777
 21
551.3923596161
 31
0.0
  0
LINE
  5
AB
330
1F
100
AcDbEntity
  8
0
  6
Continuous
 62
     7
370
    25
100
AcDbLine
 10
674.0662144092
 20
551.3923596161
 30
0.0
 11
673.4130640722
 21
544.7618163396
 31
0.0
  0
SPLINE
  5
AC
330
1F
100
AcDbEntity
  8
0
  6
Continuous
 62
     7
370
    25
100
AcDbSpline
210
0.0
220
0.0
230
1.0
 70
     8
 71
     3
 72
     9
 73
     5
 74
     0
 42
0.00000001
 43
0.00000001
 40
0.0
 40
0.0
 40
0.0
 40
0.0
 40
0.3280766036927998
 40
1.0
 40
1.0
 40
1.0
 40
1.0
 10
673.9045102388114
 20
549.3843170423036
 30
0.0
 10
673.9085427607932
 20
549.4304909707149
 30
0.0
 10
673.9208341644973
 20
549.5712322728729
 30
0.0
 10
673.9278284401656
 20
549.6588579018764
 30
0.0
 10
673.9325280576273
 20
549.7177356121199
 30
0.0
  0
SPLINE
  5
AD
330
1F
100
AcDbEntity
  8
0
  6
Continuous
 62
     7
370
    25
100
AcDbSpline
210
0.0
220
0.0
230
1.0
 70
     8
 71
     3
 72
    10
 73
     6
 74
     0
 42
0.00000001
 43
0.00000001
 40
0.0
 40
0.0
 40
0.0
 40
0.0
 40
0.3900443299658491
 40
0.6946968762803882
 40
0.9999999999999999
 40
0.9999999999999999
 40
0.9999999999999999
 40
0.9999999999999999
 10
645.4716116777134
 20
551.3923596161044
 30
0.0
 10
645.479391967599
 20
551.2808435960352
 30
0.0
 10
645.4932492209028
 20
551.082225580478
 30
0.0
 10
645.5493757759218
 20
550.3668233401975
 30
0.0
 10
645.6053159355182
 20
549.7120519341925
 30
0.0
 10
645.6333158481433
 20
549.3843170423036
 30
0.0
  0
ARC
  5
AE
330
1F
100
AcDbEntity
  8
0
  6
Continuous
 62
     7
370
    25
100
AcDbCircle
 10
669.6422020382
 20
409.2488834079
 30
0.0
 40
9.53893408622238
100
AcDbArc
 50
269.2842033724
 51
280.1624419627
  0
SPLINE
  5
AF
330
1F
100
AcDbEntity
  8
0
  6
Continuous
 62
     7
370
    25
100
AcDbSpline
210
0.0
220
0.0
230
1.0
 70
     8
 71
     3
 72
    16
 73
    12
 74
     0
 42
0.00000001
 43
0.00000001
 40
0.0
 40
0.0
 40
0.0
 40
0.0
 40
0.1058643960867462
 40
0.214775439841456
 40
0.319897863094103
 40
0.4277539704701143
 40
0.5381064023917365
 40
0.6514531937745107
 40
0.7667225498638877
 40
0.885641290327692
 40
1.0
 40
1.0
 40
1.0
 40
1.0
 10
671.325247284085
 20
399.8596011029403
 30
0.0
 10
671.3109196453038
 20
399.2382315200018
 30
0.0
 10
671.2818520358442
 20
397.977610098515
 30
0.0
 10
670.8606678196701
 20
396.1382696774587
 30
0.0
 10
670.1750616418475
 20
394.3810412034
 30
0.0
 10
669.217536539764
 20
392.750313092534
 30
0.0
 10
667.9866051816246
 20
391.2597569851594
 30
0.0
 10
666.4956320193677
 20
389.9610561393648
 30
0.0
 10
664.7602490634637
 20
388.9108390170622
 30
0.0
 10
662.8571198848412
 20
388.1481465623449
 30
0.0
 10
661.5047946334109
 20
387.9315148104161
 30
0.0
 10
660.841849412085
 20
387.8253162575332
 30
0.0
  0
ARC
  5
B0
330
1F
100
AcDbEntity
  8
0
  6
Continuous
 62
     7
370
    25
100
AcDbCircle
 10
641.1226074082
 20
387.8455535711
 30
0.0
 40
19.71925238839282
100
AcDbArc
 50
359.9411989443
 51
8.4375950421
  0
ARC
  5
B1
330
1F
100
AcDbEntity
  8
0
  6
Continuous
 62
     7
370
    25
100
AcDbCircle
 10
649.8956240488
 20
409.2488834079
 30
0.0
 40
9.538934086314427
100
AcDbArc
 50
259.8375580373
 51
270.7157966276
  0
ARC
  5
B2
330
1F
100
AcDbEntity
  8
0
  6
Continuous
 62
     7
370
    25
100
AcDbCircle
 10
678.4152186789
 20
387.8455535713
 30
0.0
 40
19.71925238845857
100
AcDbArc
 50
171.5624049586
 51
180.0588010565
  0
SPLINE
  5
B3
330
1F
100
AcDbEntity
  8
0
  6
Continuous
 62
     7
370
    25
100
AcDbSpline
210
0.0
220
0.0
230
1.0
 70
     8
 71
     3
 72
    16
 73
    12
 74
     0
 42
0.00000001
 43
0.00000001
 40
0.0
 40
0.0
 40
0.0
 40
0.0
 40
0.1143636219270646
 40
0.231440164076376
 40
0.3485478154540183
 40
0.4603965228412968
 40
0.5722481472484289
 40
0.678748079633835
 40
0.7852275526639733
 40
0.8926205175275217
 40
1.0
 40
1.0
 40
1.0
 40
1.0
 10
658.6959766749077
 20
387.825316257529
 30
0.0
 10
658.0329286761889
 20
387.9313094090792
 30
0.0
 10
656.6911039330738
 20
388.1458100691003
 30
0.0
 10
654.7887096961235
 20
388.9081702970222
 30
0.0
 10
653.0570561207296
 20
389.9486665745846
 30
0.0
 10
651.5588114067397
 20
391.2546924411503
 30
0.0
 10
650.3290231368048
 20
392.7361773401945
 30
0.0
 10
649.3678329781193
 20
394.3745532912017
 30
0.0
 10
648.6813336419483
 20
396.1219416956811
 30
0.0
 10
648.259157979699
 20
397.9688775360274
 30
0.0
 10
648.2281045453502
 20
399.2293862902136
 30
0.0
 10
648.2125788028691
 20
399.8596011029394
 30
0.0
  0
LINE
  5
B4
330
1F
100
AcDbEntity
  8
0
  6
Continuous
 62
     7
370
    25
100
AcDbLine
 10
658.6959766749
 20
387.8253162575
 30
0.0
 11
660.8418494121
 21
387.8253162575
 31
0.0
  0
LINE
  5
B5
330
1F
100
AcDbEntity
  8
0
  6
Continuous
 62
     7
370
    25
100
AcDbLine
 10
648.2125788029
 20
399.8596011029
 30
0.0
 11
648.7364453732
 21
410.4530094353
 31
0.0
  0
LINE
  5
B6
330
1F
100
AcDbEntity
  8
0
  6
Continuous
 62
     7
370
    25
100
AcDbLine
 10
670.8013807137
 20
410.4530094353
 30
0.0
 11
671.3252472841
 21
399.8596011029
 31
0.0
  0
LINE
  5
B7
330
1F
100
AcDbEntity
  8
0
  6
Continuous
 62
     7
370
    25
100
AcDbLine
 10
646.1316452869
 20
544.544022104
 30
0.0
 11
645.6333158481
 21
549.3843170423
 31
0.0
  0
LINE
  5
B8
330
1F
100
AcDbEntity
  8
0
  6
Continuous
 62
     7
370
    25
100
AcDbLine
 10
673.9045102388
 20
549.3843170423
 30
0.0
 11
673.4061808
 21
544.544022104
 31
0.0
  0
LINE
  5
B9
330
1F
100
AcDbEntity
  8
0
  6
Continuous
 62
     7
370
    25
100
AcDbLine
 10
671.2108773386
 20
402.1961644417
 30
0.0
 11
671.2669822962
 21
401.7570261209
 31
0.0
  0
LINE
  5
BA
330
1F
100
AcDbEntity
  8
0
  6
Continuous
 62
     7
370
    25
100
AcDbLine
 10
648.2708437907
 20
401.7570261209
 30
0.0
 11
648.3269480257
 21
402.1961587847
 31
0.0
  0
ARC
  5
BB
330
1F
100
AcDbEntity
  8
0
  6
Continuous
 62
     7
370
    25
100
AcDbCircle
 10
659.7689130435
 20
553.8158302358
 30
0.0
 40
14.22500000000001
100
AcDbArc
 50
358.3509776603
 51
321.0912291617
  0
LINE
  5
BC
330
1F
100
AcDbEntity
  8
0
  6
Continuous
 62
     7
370
    25
100
AcDbLine
 10
664.1291994587
 20
567.3560860449
 30
0.0
 11
664.2035526658
 21
567.5869794653
 31
0.0
  0
SPLINE
  5
BD
330
1F
100
AcDbEntity
  8
0
  6
Continuous
 62
     7
370
    25
100
AcDbSpline
210
0.0
220
0.0
230
1.0
 70
     8
 71
     3
 72
    11
 73
     7
 74
     0
 42
0.00000001
 43
0.00000001
 40
0.0
 40
0.0
 40
0.0
 40
0.0
 40
0.1446702591042532
 40
0.3907520209323642
 40
0.5962314811354594
 40
1.0
 40
1.0
 40
1.0
 40
1.0
 10
670.0787495422076
 20
563.9656012209357
 30
0.0
 10
669.8167234765655
 20
564.1718666718442
 30
0.0
 10
669.1089953275974
 20
564.7289863057628
 30
0.0
 10
667.9762819678317
 20
565.5102526230272
 30
0.0
 10
666.3024796026237
 20
566.5563411793555
 30
0.0
 10
665.0401437995021
 20
567.1761872471675
 30
0.0
 10
664.2035526657635
 20
567.5869794653171
 30
0.0
  0
LINE
  5
BE
330
1F
100
AcDbEntity
  8
0
  6
Continuous
 62
     7
370
    25
100
AcDbLine
 10
669.9058900827
 20
563.7954254934
 30
0.0
 11
670.0787495422
 21
563.9656012209
 31
0.0
  0
LINE
  5
BF
330
1F
100
AcDbEntity
  8
0
  6
Continuous
 62
     7
370
    25
100
AcDbLine
 10
673.6752617555
 20
556.809839337
 30
0.0
 11
673.9123979267
 21
556.860894281
 31
0.0
  0
SPLINE
  5
C0
330
1F
100
AcDbEntity
  8
0
  6
Continuous
 62
     7
370
    25
100
AcDbSpline
210
0.0
220
0.0
230
1.0
 70
     8
 71
     3
 72
    11
 73
     7
 74
     0
 42
0.00000001
 43
0.00000001
 40
0.0
 40
0.0
 40
0.0
 40
0.0
 40
0.1446702591042557
 40
0.3907520209323692
 40
0.596231481135486
 40
1.0
 40
1.0
 40
1.0
 40
1.0
 10
645.8240352783818
 20
557.6695250599809
 30
0.0
 10
645.7764171907929
 20
557.3394711052268
 30
0.0
 10
645.6478015093566
 20
556.4480007322879
 30
0.0
 10
645.5375617113672
 20
555.0764090288924
 30
0.0
 10
645.4685236295827
 20
553.1038093815439
 30
0.0
 10
645.5628890899825
 20
551.7006714740279
 30
0.0
 10
645.6254281602572
 20
550.7707661905548
 30
0.0
  0
LINE
  5
C1
330
1F
100
AcDbEntity
  8
0
  6
Continuous
 62
     7
370
    25
100
AcDbLine
 10
646.0578415113
 20
557.6049122405
 30
0.0
 11
645.8240352784
 21
557.66952506
 31
0.0
  0
LINE
  5
C2
330
1F
100
AcDbEntity
  8
0
  6
Continuous
 62
     7
370
    25
100
AcDbLine
 10
650.2228507466
 20
564.3620769437
 30
0.0
 11
650.0600677825
 21
564.5419154201
 31
0.0
  0
SPLINE
  5
C3
330
1F
100
AcDbEntity
  8
0
  6
Continuous
 62
     7
370
    25
100
AcDbSpline
210
0.0
220
0.0
230
1.0
 70
     8
 71
     3
 72
    11
 73
     7
 74
     0
 42
0.00000001
 43
0.00000001
 40
0.0
 40
0.0
 40
0.0
 40
0.0
 40
0.1446702591042546
 40
0.3907520209323576
 40
0.5962314811354748
 40
1.0
 40
1.0
 40
1.0
 40
1.0
 10
656.1338717771118
 20
567.819296045127
 30
0.0
 10
655.8242276238809
 20
567.6955075412815
 30
0.0
 10
654.9878837934764
 20
567.361156802261
 30
0.0
 10
653.7449306357214
 20
566.77083141613
 30
0.0
 10
652.002090188729
 20
565.8443203251098
 30
0.0
 10
650.8341198460072
 20
565.0610284854056
 30
0.0
 10
650.0600677825432
 20
564.5419154200821
 30
0.0
  0
LINE
  5
C4
330
1F
100
AcDbEntity
  8
0
  6
Continuous
 62
     7
370
    25
100
AcDbLine
 10
656.1948185505
 20
567.5845074982
 30
0.0
 11
656.1338717771
 21
567.8192960451
 31
0.0
  0
SPLINE
  5
C5
330
1F
100
AcDbEntity
  8
0
  6
Continuous
 62
     7
370
    25
100
AcDbSpline
210
0.0
220
0.0
230
1.0
 70
     8
 71
     3
 72
     9
 73
     5
 74
     0
 42
0.00000001
 43
0.00000001
 40
0.0
 40
0.0
 40
0.0
 40
0.0
 40
0.5863847898283641
 40
1.0
 40
1.0
 40
1.0
 40
1.0
 10
671.3827286032624
 20
562.8681732000889
 30
0.0
 10
671.1314904716164
 20
563.0875856114271
 30
0.0
 10
670.7030377968473
 20
563.4617638219543
 30
0.0
 10
670.2614124873942
 20
563.8181814633012
 30
0.0
 10
670.0787495422076
 20
563.9656012209357
 30
0.0
  0
ARC
  5
C6
330
1F
100
AcDbEntity
  8
0
  6
Continuous
 62
     7
370
    25
100
AcDbCircle
 10
659.7689130435
 20
553.8158302358
 30
0.0
 40
14.72500000000008
100
AcDbArc
 50
18.7674620976
 51
37.934493223
  0
SPLINE
  5
C7
330
1F
100
AcDbEntity
  8
0
  6
Continuous
 62
     7
370
    25
100
AcDbSpline
210
0.0
220
0.0
230
1.0
 70
     8
 71
     3
 72
     9
 73
     5
 74
     0
 42
0.00000001
 43
0.00000001
 40
0.0
 40
0.0
 40
0.0
 40
0.0
 40
0.5862283062032897
 40
1.0
 40
1.0
 40
1.0
 40
1.0
 10
673.9123979266977
 20
556.8608942810247
 30
0.0
 10
673.8790885052869
 20
557.1920010586152
 30
0.0
 10
673.8222686263107
 20
557.7568096393112
 30
0.0
 10
673.7435765606572
 20
558.3201722363501
 30
0.0
 10
673.7110160113634
 20
558.5532757323485
 30
0.0
  0
SPLINE
  5
C8
330
1F
100
AcDbEntity
  8
0
  6
Continuous
 62
     7
370
    25
100
AcDbSpline
210
0.0
220
0.0
230
1.0
 70
     8
 71
     3
 72
     9
 73
     5
 74
     0
 42
0.00000001
 43
0.00000001
 40
0.0
 40
0.0
 40
0.0
 40
0.0
 40
0.5862283062032934
 40
1.0
 40
1.0
 40
1.0
 40
1.0
 10
664.2035526657635
 20
567.5869794653171
 30
0.0
 10
663.9001510742994
 20
567.7236860489852
 30
0.0
 10
663.3826025556532
 20
567.9568828806998
 30
0.0
 10
662.8553702022489
 20
568.1704148512871
 30
0.0
 10
662.6372163783562
 20
568.2587683364368
 30
0.0
  0
SPLINE
  5
C9
330
1F
100
AcDbEntity
  8
0
  6
Continuous
 62
     7
370
    25
100
AcDbSpline
210
0.0
220
0.0
230
1.0
 70
     8
 71
     3
 72
     9
 73
     5
 74
     0
 42
0.00000001
 43
0.00000001
 40
0.0
 40
0.0
 40
0.0
 40
0.0
 40
0.5863847898283572
 40
1.0
 40
1.0
 40
1.0
 40
1.0
 10
657.7362618525176
 20
568.39986102758
 30
0.0
 10
657.42062606457
 20
568.2919886288445
 30
0.0
 10
656.8823518913263
 20
568.1080268334384
 30
0.0
 10
656.3528725048365
 20
567.9037769171713
 30
0.0
 10
656.1338717771118
 20
567.819296045127
 30
0.0
  0
ARC
  5
CA
330
1F
100
AcDbEntity
  8
0
  6
Continuous
 62
     7
370
    25
100
AcDbCircle
 10
659.7689130435
 20
553.8158302358
 30
0.0
 40
14.72500000000012
100
AcDbArc
 50
78.7674620976
 51
97.934493223
  0
SPLINE
  5
CB
330
1F
100
AcDbEntity
  8
0
  6
Continuous
 62
     7
370
    25
100
AcDbSpline
210
0.0
220
0.0
230
1.0
 70
     8
 71
     3
 72
     9
 73
     5
 74
     0
 42
0.00000001
 43
0.00000001
 40
0.0
 40
0.0
 40
0.0
 40
0.0
 40
0.5862283062032867
 40
0.9999999999999999
 40
0.9999999999999999
 40
0.9999999999999999
 40
0.9999999999999999
 10
650.0600677825432
 20
564.5419154200821
 30
0.0
 10
649.7899756124901
 20
564.3475152261597
 30
0.0
 10
649.3292469728201
 20
564.0159034771782
 30
0.0
 10
648.8807066850692
 20
563.6660728507267
 30
0.0
 10
648.6951134104703
 20
563.5213228398778
 30
0.0
  0
SPLINE
  5
CC
330
1F
100
AcDbEntity
  8
0
  6
Continuous
 62
     7
370
    25
100
AcDbSpline
210
0.0
220
0.0
230
1.0
 70
     8
 71
     3
 72
     9
 73
     5
 74
     0
 42
0.00000001
 43
0.00000001
 40
0.0
 40
0.0
 40
0.0
 40
0.0
 40
0.5863847898283617
 40
1.0
 40
1.0
 40
1.0
 40
1.0
 10
646.1224462927327
 20
559.3475180632807
 30
0.0
 10
646.0580486364311
 20
559.0202332532069
 30
0.0
 10
645.9482271379567
 20
558.4620932472739
 30
0.0
 10
645.8603730609198
 20
557.9014256896598
 30
0.0
 10
645.8240352783818
 20
557.6695250599809
 30
0.0
  0
ARC
  5
CD
330
1F
100
AcDbEntity
  8
0
  6
Continuous
 62
     7
370
    25
100
AcDbCircle
 10
659.7689130435
 20
553.8158302358
 30
0.0
 40
14.72500000000006
100
AcDbArc
 50
138.7674620976
 51
157.934493223
  0
ARC
  5
CE
330
1F
100
AcDbEntity
  8
0
  6
Continuous
 62
     7
370
    25
100
AcDbCircle
 10
673.9386314012
 20
556.4725990885
 30
0.0
 40
0.3891803588379439
100
AcDbArc
 50
55.2384460233
 51
93.8650664682
  0
SPLINE
  5
CF
330
1F
100
AcDbEntity
  8
0
  6
Continuous
 62
     7
370
    25
100
AcDbSpline
210
0.0
220
0.0
230
1.0
 70
    24
 71
     3
 72
    10
 73
     6
 74
     0
 42
0.00000001
 43
0.00000001
 40
0.0
 40
0.0
 40
0.0
 40
0.0
 40
0.612553800542068
 40
0.835031486289116
 40
0.9999999999999999
 40
0.9999999999999999
 40
0.9999999999999999
 40
0.9999999999999999
 10
674.1605274242975
 20
556.7923231987437
 30
0.0
 10
674.1409841057689
 20
556.1134721922442
 30
0.0
 10
674.1143427131215
 20
555.1880645555201
 30
0.0
 10
674.0822842541952
 20
554.0744912861128
 30
0.0
 10
674.0698503257225
 20
553.6425899769193
 30
0.0
 10
674.0645561540347
 20
553.4586931748676
 30
0.0
  0
SPLINE
  5
D0
330
1F
100
AcDbEntity
  8
0
  6
Continuous
 62
     7
370
    25
100
AcDbSpline
210
0.0
220
0.0
230
1.0
 70
    24
 71
     3
 72
    12
 73
     8
 74
     0
 42
0.00000001
 43
0.00000001
 40
0.0
 40
0.0
 40
0.0
 40
0.0
 40
0.3013828945620927
 40
0.410844249379568
 40
0.6247185195336458
 40
0.6986171054378635
 40
1.0
 40
1.0
 40
1.0
 40
1.0
 10
664.3870017137837
 20
567.7675803725261
 30
0.0
 10
664.965134709887
 20
567.4112283559933
 30
0.0
 10
665.7532438597802
 20
566.9254503659716
 30
0.0
 10
666.95737737348
 20
566.1832415512636
 30
0.0
 10
667.7244759857184
 20
565.7104141236766
 30
0.0
 10
668.8596644853102
 20
565.0107019230223
 30
0.0
 10
669.5795380902002
 20
564.5669832415421
 30
0.0
 10
670.1576577205401
 20
564.2106394634541
 30
0.0
  0
ARC
  5
D1
330
1F
100
AcDbEntity
  8
0
  6
Continuous
 62
     7
370
    25
100
AcDbCircle
 10
669.7686043148
 20
564.2006996887
 30
0.0
 40
0.3891803587959025
100
AcDbArc
 50
322.8368888502
 51
1.4635092995
  0
ARC
  5
D2
330
1F
100
AcDbEntity
  8
0
  6
Continuous
 62
     7
370
    25
100
AcDbCircle
 10
664.5529429039
 20
567.4155507245
 30
0.0
 40
0.3891803587983587
100
AcDbArc
 50
115.2384460212
 51
153.8650664702
  0
SPLINE
  5
D3
330
1F
100
AcDbEntity
  8
0
  6
Continuous
 62
     7
370
    25
100
AcDbSpline
210
0.0
220
0.0
230
1.0
 70
    24
 71
     3
 72
    12
 73
     8
 74
     0
 42
0.00000001
 43
0.00000001
 40
0.0
 40
0.0
 40
0.0
 40
0.0
 40
0.3013828945620991
 40
0.4108442493795574
 40
0.6247185195336494
 40
0.6986171054378603
 40
1.0
 40
1.0
 40
1.0
 40
1.0
 10
649.9953873329637
 20
564.791087409572
 30
0.0
 10
650.5930637300227
 20
565.1135892626972
 30
0.0
 10
651.4078143849274
 20
565.5532228124489
 30
0.0
 10
652.6526528302272
 20
566.224928617507
 30
0.0
 10
653.4456827002427
 20
566.6528417891199
 30
0.0
 10
654.6192454911431
 20
567.2860877675232
 30
0.0
 10
655.3634539438839
 20
567.6876572561317
 30
0.0
 10
655.9611165233586
 20
568.0101516533886
 30
0.0
  0
ARC
  5
D4
330
1F
100
AcDbEntity
  8
0
  6
Continuous
 62
     7
370
    25
100
AcDbCircle
 10
655.7751979179
 20
567.6682516332
 30
0.0
 40
0.3891803587973509
100
AcDbArc
 50
22.8368888503
 51
61.4635092994
  0
ARC
  5
D5
330
1F
100
AcDbEntity
  8
0
  6
Continuous
 62
     7
370
    25
100
AcDbCircle
 10
650.3832245461
 20
564.7587818717
 30
0.0
 40
0.3891803588002533
100
AcDbArc
 50
175.2384460214
 51
213.8650664701
  0
SPLINE
  5
D6
330
1F
100
AcDbEntity
  8
0
  6
Continuous
 62
     7
370
    25
100
AcDbSpline
210
0.0
220
0.0
230
1.0
 70
    24
 71
     3
 72
    12
 73
     8
 74
     0
 42
0.00000001
 43
0.00000001
 40
0.0
 40
0.0
 40
0.0
 40
0.0
 40
0.1780296441221533
 40
0.3068183440749564
 40
0.5584559128995771
 40
0.6454026058473339
 40
1.0
 40
1.0
 40
1.0
 40
1.0
 10
645.4065271971626
 20
551.8546111137756
 30
0.0
 10
645.4163414512759
 20
552.1955161792652
 30
0.0
 10
645.4332554501226
 20
552.7830359049603
 30
0.0
 10
645.4641916210824
 20
553.8576257072307
 30
0.0
 10
645.4901194519763
 20
554.7582472712185
 30
0.0
 10
645.5284942707763
 20
556.0912237730638
 30
0.0
 10
645.552828995801
 20
556.9365076767016
 30
0.0
 10
645.5723718462959
 20
557.6153424257241
 30
0.0
  0
ARC
  5
D7
330
1F
100
AcDbEntity
  8
0
  6
Continuous
 62
     7
370
    25
100
AcDbCircle
 10
645.7755066466
 20
557.2833821802
 30
0.0
 40
0.3891803587971479
100
AcDbArc
 50
82.8368888503
 51
121.4635092994
  0
LINE
  5
D8
330
1F
100
AcDbEntity
  8
0
  6
Continuous
 62
     7
370
    25
100
AcDbLine
 10
670.1576577205
 20
564.2106394635
 30
0.0
 11
671.6450858296
 21
563.2938123498
 31
0.0
  0
LINE
  5
D9
330
1F
100
AcDbEntity
  8
0
  6
Continuous
 62
     7
370
    25
100
AcDbLine
 10
671.6450858296
 20
563.2938123498
 30
0.0
 11
671.3827286033
 21
562.8681732001
 31
0.0
  0
LINE
  5
DA
330
1F
100
AcDbEntity
  8
0
  6
Continuous
 62
     7
370
    25
100
AcDbLine
 10
655.9611165234
 20
568.0101516534
 30
0.0
 11
657.4988261492
 21
568.8398886253
 31
0.0
  0
LINE
  5
DB
330
1F
100
AcDbEntity
  8
0
  6
Continuous
 62
     7
370
    25
100
AcDbLine
 10
657.4988261492
 20
568.8398886253
 30
0.0
 11
657.7362618525
 21
568.3998610276
 31
0.0
  0
LINE
  5
DC
330
1F
100
AcDbEntity
  8
0
  6
Continuous
 62
     7
370
    25
100
AcDbLine
 10
645.5723718463
 20
557.6153424257
 30
0.0
 11
645.622653363
 21
559.3619065113
 31
0.0
  0
LINE
  5
DD
330
1F
100
AcDbEntity
  8
0
  6
Continuous
 62
     7
370
    25
100
AcDbLine
 10
645.622653363
 20
559.3619065113
 30
0.0
 11
646.1224462927
 21
559.3475180633
 31
0.0
  0
LINE
  5
DE
330
1F
100
AcDbEntity
  8
0
  6
Continuous
 62
     7
370
    25
100
AcDbLine
 10
673.7110160114
 20
558.5532757323
 30
0.0
 11
674.210808941
 21
558.5388872843
 31
0.0
  0
LINE
  5
DF
330
1F
100
AcDbEntity
  8
0
  6
Continuous
 62
     7
370
    25
100
AcDbLine
 10
674.210808941
 20
558.5388872843
 30
0.0
 11
674.1605274243
 21
556.7923231987
 31
0.0
  0
LINE
  5
E0
330
1F
100
AcDbEntity
  8
0
  6
Continuous
 62
     7
370
    25
100
AcDbLine
 10
662.8995736047
 20
568.6844074862
 30
0.0
 11
664.3870017138
 21
567.7675803725
 31
0.0
  0
LINE
  5
E1
330
1F
100
AcDbEntity
  8
0
  6
Continuous
 62
     7
370
    25
100
AcDbLine
 10
662.8995736047
 20
568.6844074862
 30
0.0
 11
662.6372163784
 21
568.2587683364
 31
0.0
  0
LINE
  5
E2
330
1F
100
AcDbEntity
  8
0
  6
Continuous
 62
     7
370
    25
100
AcDbLine
 10
648.4576777071
 20
563.9613504376
 30
0.0
 11
649.995387333
 21
564.7910874096
 31
0.0
  0
LINE
  5
E3
330
1F
100
AcDbEntity
  8
0
  6
Continuous
 62
     7
370
    25
100
AcDbLine
 10
648.6951134105
 20
563.5213228399
 30
0.0
 11
648.4576777071
 21
563.9613504376
 31
0.0
  0
LINE
  5
E4
330
1F
100
AcDbEntity
  8
0
  6
Continuous
 62
     7
370
    25
100
AcDbLine
 10
645.3270171459
 20
549.0927731873
 30
0.0
 11
645.3772986627
 21
550.8393372728
 31
0.0
  0
ARC
  5
E5
330
1F
100
AcDbEntity
  8
0
  6
Continuous
 62
     7
370
    25
100
AcDbCircle
 10
659.7689130435
 20
553.8158302358
 30
0.0
 40
15.50000000000011
100
AcDbArc
 50
25.4371674189
 51
31.2647879017
  0
LINE
  5
E6
330
1F
100
AcDbEntity
  8
0
  6
Continuous
 62
     7
370
    25
100
AcDbLine
 10
673.4453602128
 20
562.1197325007
 30
0.0
 11
673.0179712387
 21
561.860235555
 31
0.0
  0
ARC
  5
E7
330
1F
100
AcDbEntity
  8
0
  6
Continuous
 62
     7
370
    25
100
AcDbCircle
 10
659.7689130435
 20
553.8158302358
 30
0.0
 40
16.00000000000011
100
AcDbArc
 50
25.4371674189
 51
31.2647879017
  0
LINE
  5
E8
330
1F
100
AcDbEntity
  8
0
  6
Continuous
 62
     7
370
    25
100
AcDbLine
 10
673.7662942997
 20
560.4734062186
 30
0.0
 11
674.2178227274
 21
560.6881667341
 31
0.0
  0
LINE
  5
E9
330
1F
100
AcDbEntity
  8
0
  6
Continuous
 62
     7
370
    25
100
AcDbLine
 10
673.7110160114
 20
558.5532757323
 30
0.0
 11
673.7662942997
 21
560.4734062186
 31
0.0
  0
LINE
  5
EA
330
1F
100
AcDbEntity
  8
0
  6
Continuous
 62
     7
370
    25
100
AcDbLine
 10
673.7662942997
 20
560.4734062186
 30
0.0
 11
674.2660872294
 21
560.4590177706
 31
0.0
  0
LINE
  5
EB
330
1F
100
AcDbEntity
  8
0
  6
Continuous
 62
     7
370
    25
100
AcDbLine
 10
674.2660872294
 20
560.4590177706
 30
0.0
 11
674.210808941
 21
558.5388872843
 31
0.0
  0
LINE
  5
EC
330
1F
100
AcDbEntity
  8
0
  6
Continuous
 62
     7
370
    25
100
AcDbLine
 10
673.0179712387
 20
561.860235555
 30
0.0
 11
671.3827286033
 21
562.8681732001
 31
0.0
  0
ARC
  5
ED
330
1F
100
AcDbEntity
  8
0
  6
Continuous
 62
     7
370
    25
100
AcDbCircle
 10
673.7662942997
 20
560.4734062186
 30
0.0
 40
0.4999999999999444
100
AcDbArc
 50
358.3509776603
 51
25.4371674189
  0
LINE
  5
EE
330
1F
100
AcDbEntity
  8
0
  6
Continuous
 62
     7
370
    25
100
AcDbLine
 10
673.2803284651
 20
562.2858747047
 30
0.0
 11
673.0179712387
 21
561.860235555
 31
0.0
  0
ARC
  5
EF
330
1F
100
AcDbEntity
  8
0
  6
Continuous
 62
     7
370
    25
100
AcDbCircle
 10
673.0179712387
 20
561.860235555
 30
0.0
 40
0.5000000000000259
100
AcDbArc
 50
31.2647879017
 51
58.3509776603
  0
LINE
  5
F0
330
1F
100
AcDbEntity
  8
0
  6
Continuous
 62
     7
370
    25
100
AcDbLine
 10
671.6450858296
 20
563.2938123498
 30
0.0
 11
673.2803284651
 21
562.2858747047
 31
0.0
  0
LINE
  5
F1
330
1F
100
AcDbEntity
  8
0
  6
Continuous
 62
     7
370
    25
100
AcDbLine
 10
673.9151727239
 20
548.2697539603
 30
0.0
 11
673.8598944355
 21
546.349623474
 31
0.0
  0
ARC
  5
F2
330
1F
100
AcDbEntity
  8
0
  6
Continuous
 62
     7
370
    25
100
AcDbCircle
 10
673.3601015058
 20
546.3640119221
 30
0.0
 40
0.4999999999999601
100
AcDbArc
 50
331.2647879017
 51
358.3509776603
  0
ARC
  5
F3
330
1F
100
AcDbEntity
  8
0
  6
Continuous
 62
     7
370
    25
100
AcDbCircle
 10
659.7689130435
 20
553.8158302358
 30
0.0
 40
16.00000000000001
100
AcDbArc
 50
329.3818616168
 51
331.2647879017
  0
LINE
  5
F4
330
1F
100
AcDbEntity
  8
0
  6
Continuous
 62
     7
370
    25
100
AcDbLine
 10
662.6372163784
 20
568.2587683364
 30
0.0
 11
661.0019737429
 21
569.2667059816
 31
0.0
  0
LINE
  5
F5
330
1F
100
AcDbEntity
  8
0
  6
Continuous
 62
     7
370
    25
100
AcDbLine
 10
659.4267827764
 20
569.3120538687
 30
0.0
 11
657.7362618525
 21
568.3998610276
 31
0.0
  0
ARC
  5
F6
330
1F
100
AcDbEntity
  8
0
  6
Continuous
 62
     7
370
    25
100
AcDbCircle
 10
659.7689130435
 20
553.8158302358
 30
0.0
 40
15.50000000000015
100
AcDbArc
 50
85.4371674189
 51
91.2647879017
  0
LINE
  5
F7
330
1F
100
AcDbEntity
  8
0
  6
Continuous
 62
     7
370
    25
100
AcDbLine
 10
661.2643309692
 20
569.6923451313
 30
0.0
 11
662.8995736047
 21
568.6844074862
 31
0.0
  0
LINE
  5
F8
330
1F
100
AcDbEntity
  8
0
  6
Continuous
 62
     7
370
    25
100
AcDbLine
 10
661.2643309692
 20
569.6923451313
 30
0.0
 11
661.0019737429
 21
569.2667059816
 31
0.0
  0
LINE
  5
F9
330
1F
100
AcDbEntity
  8
0
  6
Continuous
 62
     7
370
    25
100
AcDbLine
 10
661.0417498945
 20
569.7651213282
 30
0.0
 11
661.0019737429
 21
569.2667059816
 31
0.0
  0
ARC
  5
FA
330
1F
100
AcDbEntity
  8
0
  6
Continuous
 62
     7
370
    25
100
AcDbCircle
 10
661.0019737429
 20
569.2667059816
 30
0.0
 40
0.5000000000000566
100
AcDbArc
 50
58.3509776603
 51
85.4371674188
  0
ARC
  5
FB
330
1F
100
AcDbEntity
  8
0
  6
Continuous
 62
     7
370
    25
100
AcDbCircle
 10
659.7689130435
 20
553.8158302358
 30
0.0
 40
16.00000000000011
100
AcDbArc
 50
85.4371674189
 51
91.2647879017
  0
LINE
  5
FC
330
1F
100
AcDbEntity
  8
0
  6
Continuous
 62
     7
370
    25
100
AcDbLine
 10
659.4157463161
 20
569.8119320504
 30
0.0
 11
659.4267827764
 21
569.3120538687
 31
0.0
  0
LINE
  5
FD
330
1F
100
AcDbEntity
  8
0
  6
Continuous
 62
     7
370
    25
100
AcDbLine
 10
659.189347073
 20
569.7520814664
 30
0.0
 11
659.4267827764
 21
569.3120538687
 31
0.0
  0
ARC
  5
FE
330
1F
100
AcDbEntity
  8
0
  6
Continuous
 62
     7
370
    25
100
AcDbCircle
 10
659.4267827764
 20
569.3120538687
 30
0.0
 40
0.4999999999999681
100
AcDbArc
 50
91.2647879017
 51
118.3509776603
  0
LINE
  5
FF
330
1F
100
AcDbEntity
  8
0
  6
Continuous
 62
     7
370
    25
100
AcDbLine
 10
657.4988261492
 20
568.8398886253
 30
0.0
 11
659.189347073
 21
569.7520814664
 31
0.0
  0
LINE
  5
100
330
1F
100
AcDbEntity
  8
0
  6
Continuous
 62
     7
370
    25
100
AcDbLine
 10
648.6951134105
 20
563.5213228399
 30
0.0
 11
647.0045924866
 21
562.6091299988
 31
0.0
  0
LINE
  5
101
330
1F
100
AcDbEntity
  8
0
  6
Continuous
 62
     7
370
    25
100
AcDbLine
 10
646.1777245811
 20
561.2676485495
 30
0.0
 11
646.1224462927
 21
559.3475180633
 31
0.0
  0
ARC
  5
102
330
1F
100
AcDbEntity
  8
0
  6
Continuous
 62
     7
370
    25
100
AcDbCircle
 10
659.7689130435
 20
553.8158302358
 30
0.0
 40
15.50000000000001
100
AcDbArc
 50
145.4371674189
 51
151.2647879017
  0
LINE
  5
103
330
1F
100
AcDbEntity
  8
0
  6
Continuous
 62
     7
370
    25
100
AcDbLine
 10
647.0045924866
 20
562.6091299988
 30
0.0
 11
646.7671567833
 21
563.0491575965
 31
0.0
  0
LINE
  5
104
330
1F
100
AcDbEntity
  8
0
  6
Continuous
 62
     7
370
    25
100
AcDbLine
 10
646.7671567833
 20
563.0491575965
 30
0.0
 11
648.4576777071
 21
563.9613504376
 31
0.0
  0
ARC
  5
105
330
1F
100
AcDbEntity
  8
0
  6
Continuous
 62
     7
370
    25
100
AcDbCircle
 10
659.7689130435
 20
553.8158302358
 30
0.0
 40
16.00000000000002
100
AcDbArc
 50
145.4371674189
 51
151.2647879017
  0
LINE
  5
106
330
1F
100
AcDbEntity
  8
0
  6
Continuous
 62
     7
370
    25
100
AcDbLine
 10
646.5928402106
 20
562.8927848298
 30
0.0
 11
647.0045924866
 21
562.6091299988
 31
0.0
  0
LINE
  5
107
330
1F
100
AcDbEntity
  8
0
  6
Continuous
 62
     7
370
    25
100
AcDbLine
 10
645.7392991468
 20
561.5080297854
 30
0.0
 11
646.1777245811
 21
561.2676485495
 31
0.0
  0
ARC
  5
108
330
1F
100
AcDbEntity
  8
0
  6
Continuous
 62
     7
370
    25
100
AcDbCircle
 10
647.0045924866
 20
562.6091299988
 30
0.0
 40
0.5000000000000221
100
AcDbArc
 50
118.3509776603
 51
145.4371674189
  0
LINE
  5
109
330
1F
100
AcDbEntity
  8
0
  6
Continuous
 62
     7
370
    25
100
AcDbLine
 10
645.6779316514
 20
561.2820369975
 30
0.0
 11
646.1777245811
 21
561.2676485495
 31
0.0
  0
ARC
  5
10A
330
1F
100
AcDbEntity
  8
0
  6
Continuous
 62
     7
370
    25
100
AcDbCircle
 10
646.1777245811
 20
561.2676485495
 30
0.0
 40
0.5000000000001009
100
AcDbArc
 50
151.2647879017
 51
178.3509776603
  0
LINE
  5
10B
330
1F
100
AcDbEntity
  8
0
  6
Continuous
 62
     7
370
    25
100
AcDbLine
 10
645.622653363
 20
559.3619065113
 30
0.0
 11
645.6779316514
 21
561.2820369975
 31
0.0
  0
ARC
  5
10C
330
1F
100
AcDbEntity
  8
0
  6
Continuous
 62
     7
370
    25
100
AcDbCircle
 10
659.7689130435
 20
553.8158302358
 30
0.0
 40
15.99999999999995
100
AcDbArc
 50
205.4371674189
 51
211.2647879017
  0
LINE
  5
10D
330
1F
100
AcDbEntity
  8
0
  6
Continuous
 62
     7
370
    25
100
AcDbLine
 10
645.3200033596
 20
546.9434937374
 30
0.0
 11
645.7715317872
 21
547.158254253
 31
0.0
  0
LINE
  5
10E
330
1F
100
AcDbEntity
  8
0
  6
Continuous
 62
     7
370
    25
100
AcDbLine
 10
645.7715317872
 20
547.158254253
 30
0.0
 11
645.2717388575
 21
547.172642701
 31
0.0
  0
LINE
  5
10F
330
1F
100
AcDbEntity
  8
0
  6
Continuous
 62
     7
370
    25
100
AcDbLine
 10
645.2717388575
 20
547.172642701
 30
0.0
 11
645.3270171459
 21
549.0927731873
 31
0.0
  0
ARC
  5
110
330
1F
100
AcDbEntity
  8
0
  6
Continuous
 62
     7
370
    25
100
AcDbCircle
 10
645.7715317872
 20
547.158254253
 30
0.0
 40
0.5000000000001009
100
AcDbArc
 50
178.3509776603
 51
205.4371674189
  0
ARC
  5
111
330
1F
100
AcDbEntity
  8
0
  6
Continuous
 62
     7
370
    25
100
AcDbCircle
 10
558.1689130435
 20
553.8158302358
 30
0.0
 40
17.60000000000014
100
AcDbArc
 50
7.8643919193
 51
27.9531868834
  0
ARC
  5
112
330
1F
100
AcDbEntity
  8
0
  6
Continuous
 62
     7
370
    25
100
AcDbCircle
 10
558.1689130435
 20
553.8158302358
 30
0.0
 40
17.60000000000016
100
AcDbArc
 50
332.0468131166
 51
352.4574395054
  0
ARC
  5
113
330
1F
100
AcDbEntity
  8
0
  6
Continuous
 62
     7
370
    25
100
AcDbCircle
 10
558.1689130435
 20
553.8158302358
 30
0.0
 40
17.60000000000014
100
AcDbArc
 50
307.6429933395
 51
332.0468131166
  0
ARC
  5
114
330
1F
100
AcDbEntity
  8
0
  6
Continuous
 62
     7
370
    25
100
AcDbCircle
 10
558.1689130435
 20
553.8158302358
 30
0.0
 40
17.60000000000015
100
AcDbArc
 50
246.0785561998
 51
292.9137978091
  0
ARC
  5
115
330
1F
100
AcDbEntity
  8
0
  6
Continuous
 62
     7
370
    25
100
AcDbCircle
 10
558.1689130435
 20
553.8158302358
 30
0.0
 40
17.6000000000001
100
AcDbArc
 50
211.5427743269
 51
233.6668288102
  0
ARC
  5
116
330
1F
100
AcDbEntity
  8
0
  6
Continuous
 62
     7
370
    25
100
AcDbCircle
 10
558.1689130435
 20
553.8158302358
 30
0.0
 40
17.60000000000022
100
AcDbArc
 50
127.820519459
 51
148.4572256731
  0
ARC
  5
117
330
1F
100
AcDbEntity
  8
0
  6
Continuous
 62
     7
370
    25
100
AcDbCircle
 10
558.1689130435
 20
553.8158302358
 30
0.0
 40
17.60000000000017
100
AcDbArc
 50
67.858002364
 51
112.4647326206
  0
ARC
  5
118
330
1F
100
AcDbEntity
  8
0
  6
Continuous
 62
     7
370
    25
100
AcDbCircle
 10
558.1689130435
 20
553.8158302358
 30
0.0
 40
17.60000000000014
100
AcDbArc
 50
27.9531868834
 51
52.6714834466
  0
ARC
  5
119
330
1F
100
AcDbEntity
  8
0
  6
Continuous
 62
     7
370
    25
100
AcDbCircle
 10
761.3689130435
 20
553.8158302358
 30
0.0
 40
17.60000000000009
100
AcDbArc
 50
152.0468131166
 51
172.4872348779
  0
ARC
  5
11A
330
1F
100
AcDbEntity
  8
0
  6
Continuous
 62
     7
370
    25
100
AcDbCircle
 10
761.3689130435
 20
553.8158302358
 30
0.0
 40
17.60000000000008
100
AcDbArc
 50
187.9086986983
 51
207.9531868834
  0
ARC
  5
11B
330
1F
100
AcDbEntity
  8
0
  6
Continuous
 62
     7
370
    25
100
AcDbCircle
 10
761.3689130435
 20
553.8158302358
 30
0.0
 40
17.60000000000005
100
AcDbArc
 50
207.9531868834
 51
232.8867310931
  0
ARC
  5
11C
330
1F
100
AcDbEntity
  8
0
  6
Continuous
 62
     7
370
    25
100
AcDbCircle
 10
761.3689130435
 20
553.8158302358
 30
0.0
 40
17.60000000000013
100
AcDbArc
 50
247.4356610856
 51
293.8118547882
  0
ARC
  5
11D
330
1F
100
AcDbEntity
  8
0
  6
Continuous
 62
     7
370
    25
100
AcDbCircle
 10
761.3689130435
 20
553.8158302358
 30
0.0
 40
17.60000000000015
100
AcDbArc
 50
306.388999168
 51
329.914091969
  0
ARC
  5
11E
330
1F
100
AcDbEntity
  8
0
  6
Continuous
 62
     7
370
    25
100
AcDbCircle
 10
761.3689130435
 20
553.8158302358
 30
0.0
 40
17.60000000000019
100
AcDbArc
 50
33.0957362986
 51
52.5262671757
  0
ARC
  5
11F
330
1F
100
AcDbEntity
  8
0
  6
Continuous
 62
     7
370
    25
100
AcDbCircle
 10
761.3689130435
 20
553.8158302358
 30
0.0
 40
17.60000000000019
100
AcDbArc
 50
67.9144160294
 51
112.569834436
  0
ARC
  5
120
330
1F
100
AcDbEntity
  8
0
  6
Continuous
 62
     7
370
    25
100
AcDbCircle
 10
761.3689130435
 20
553.8158302358
 30
0.0
 40
17.60000000000018
100
AcDbArc
 50
127.6718977685
 51
152.0468131166
  0
LWPOLYLINE
  5
121
330
1F
100
AcDbEntity
  8
0
  6
Continuous
 62
     7
370
    25
100
AcDbPolyline
 90
        9
 70
   128
 43
0.0
 10
745.8222896159
 20
545.5658302358
 10
745.3998055497
 20
546.1420465286
 10
744.8060817489
 20
546.6067634294
 10
744.0564202323
 20
546.9480038086
 10
743.1701419949
 20
547.1569728924
 10
742.1700890487
 20
547.2282849291
 10
741.0820357166
 20
547.1601019967
 10
739.9340243518
 20
546.954181371
 10
738.7556426033
 20
546.6158302358
  0
SPLINE
  5
122
330
1F
100
AcDbEntity
  8
0
  6
Continuous
 62
     7
370
    25
100
AcDbSpline
210
0.0
220
0.0
230
1.0
 70
     8
 71
     3
 72
    30
 73
    26
 74
     0
 42
0.00000001
 43
0.00000001
 40
0.0
 40
0.0
 40
0.0
 40
0.0
 40
0.1250000000000007
 40
0.1250000000000007
 40
0.1875000000000002
 40
0.1875000000000002
 40
0.2499999999999997
 40
0.2499999999999997
 40
0.3749999999999995
 40
0.3749999999999995
 40
0.4999999999999993
 40
0.4999999999999993
 40
0.5624999999999992
 40
0.5624999999999992
 40
0.6249999999999991
 40
0.6249999999999991
 40
0.7499999999999992
 40
0.7499999999999992
 40
0.8124999999999994
 40
0.8124999999999994
 40
0.8749999999999997
 40
0.8749999999999997
 40
0.9374999999999999
 40
0.9374999999999999
 40
1.0
 40
1.0
 40
1.0
 40
1.0
 10
738.7556426033142
 20
546.6158302357898
 30
0.0
 10
738.3625299752331
 20
547.0603083444017
 30
0.0
 10
738.0373744161517
 20
547.5549168760471
 30
0.0
 10
737.6447676955222
 20
548.3814820826715
 30
0.0
 10
737.5310868380687
 20
548.6686918872593
 30
0.0
 10
737.3367295809212
 20
549.2564456716158
 30
0.0
 10
737.2553710488994
 20
549.5583839823443
 30
0.0
 10
737.0503800074615
 20
550.4873338664332
 30
0.0
 10
736.9653281346496
 20
551.1420928933346
 30
0.0
 10
736.8610442155318
 20
552.476717759135
 30
0.0
 10
736.840681505164
 20
553.1473052682671
 30
0.0
 10
736.84072400782
 20
554.1520120724855
 30
0.0
 10
736.8461755306438
 20
554.4870447702114
 30
0.0
 10
736.869480777284
 20
555.1573793677131
 30
0.0
 10
736.8874925369057
 20
555.4943953873984
 30
0.0
 10
736.9656333784707
 20
556.4915197613053
 30
0.0
 10
737.0489176158275
 20
557.1361439474655
 30
0.0
 10
737.2543285672429
 20
558.0693200915871
 30
0.0
 10
737.3369916973221
 20
558.3765237877681
 30
0.0
 10
737.5335092445496
 20
558.9697707283655
 30
0.0
 10
737.6465946072495
 20
559.2541062965203
 30
0.0
 10
737.9053641869463
 20
559.798737125019
 30
0.0
 10
738.0510409299964
 20
560.0590337527988
 30
0.0
 10
738.3775358693034
 20
560.5561658387584
 30
0.0
 10
738.5589996626433
 20
560.7934932359136
 30
0.0
 10
738.7556426033136
 20
561.0158302357901
 30
0.0
  0
LWPOLYLINE
  5
123
330
1F
100
AcDbEntity
  8
0
  6
Continuous
 62
     7
370
    25
100
AcDbPolyline
 90
        9
 70
   128
 43
0.0
 10
738.7556426033
 20
561.0158302358
 10
739.9340243518
 20
560.6774791005
 10
741.0820357166
 20
560.4715584749
 10
742.1700890487
 20
560.4033755425
 10
743.1701419949
 20
560.4746875792
 10
744.0564202323
 20
560.6836566629
 10
744.8060817489
 20
561.0248970422
 10
745.3998055497
 20
561.4896139429
 10
745.8222896159
 20
562.0658302358
  0
SPLINE
  5
124
330
1F
100
AcDbEntity
  8
0
  6
Continuous
 62
     7
370
    25
100
AcDbSpline
210
0.0
220
0.0
230
1.0
 70
     8
 71
     3
 72
    26
 73
    22
 74
     0
 42
0.00000001
 43
0.00000001
 40
0.0
 40
0.0
 40
0.0
 40
0.0
 40
0.1250000000000003
 40
0.1250000000000003
 40
0.1875
 40
0.1875
 40
0.2499999999999997
 40
0.2499999999999997
 40
0.3749999999999996
 40
0.3749999999999996
 40
0.4374999999999996
 40
0.4374999999999996
 40
0.4999999999999997
 40
0.4999999999999997
 40
0.6249999999999998
 40
0.6249999999999998
 40
0.7499999999999998
 40
0.7499999999999998
 40
0.8749999999999999
 40
0.8749999999999999
 40
1.0
 40
1.0
 40
1.0
 40
1.0
 10
580.782183483634
 20
561.0158302357995
 30
0.0
 10
581.1749586412352
 20
560.5717336927505
 30
0.0
 10
581.498895398833
 20
560.0787130064278
 30
0.0
 10
581.8897680913277
 20
559.2577489096719
 30
0.0
 10
582.0044442383055
 20
558.9695186759377
 30
0.0
 10
582.2013919993221
 20
558.374707484455
 30
0.0
 10
582.283732981533
 20
558.0683591187676
 30
0.0
 10
582.4889350922269
 20
557.1358051655833
 30
0.0
 10
582.572164543724
 20
556.4916282103413
 30
0.0
 10
582.6502790782366
 20
555.4952157907247
 30
0.0
 10
582.6682924154946
 20
555.1584343570512
 30
0.0
 10
582.6916138316402
 20
554.4885657200836
 30
0.0
 10
582.6970799615458
 20
554.1537658264704
 30
0.0
 10
582.6971883692106
 20
553.1497568945438
 30
0.0
 10
582.6768479902953
 20
552.4790457788395
 30
0.0
 10
582.572966229675
 20
551.146611669397
 30
0.0
 10
582.4898086901944
 20
550.5012946512792
 30
0.0
 10
582.2166852876809
 20
549.2571415677687
 30
0.0
 10
582.0229676900137
 20
548.6545895928816
 30
0.0
 10
581.4997744275685
 20
547.5538862296916
 30
0.0
 10
581.1748864745881
 20
547.0598451826353
 30
0.0
 10
580.7821834836426
 20
546.6158302357898
 30
0.0
  0
LWPOLYLINE
  5
125
330
1F
100
AcDbEntity
  8
0
  6
Continuous
 62
     7
370
    25
100
AcDbPolyline
 90
        9
 70
   128
 43
0.0
 10
573.7155364711
 20
545.5658302358
 10
574.1380205373
 20
546.1420465286
 10
574.731744338
 20
546.6067634294
 10
575.4814058546
 20
546.9480038086
 10
576.3676840921
 20
547.1569728924
 10
577.3677370383
 20
547.2282849291
 10
578.4557903704
 20
547.1601019967
 10
579.6038017352
 20
546.954181371
 10
580.7821834836
 20
546.6158302358
  0
LWPOLYLINE
  5
126
330
1F
100
AcDbEntity
  8
0
  6
Continuous
 62
     7
370
    25
100
AcDbPolyline
 90
        9
 70
   128
 43
0.0
 10
580.7821834836
 20
561.0158302358
 10
579.6038017352
 20
560.6774791005
 10
578.4557903704
 20
560.4715584749
 10
577.3677370383
 20
560.4033755425
 10
576.3676840921
 20
560.4746875792
 10
575.4814058546
 20
560.683656663
 10
574.731744338
 20
561.0248970422
 10
574.1380205373
 20
561.4896139429
 10
573.7155364711
 20
562.0658302358
  0
LINE
  5
127
330
1F
100
AcDbEntity
  8
0
  6
Continuous
 62
     7
370
    25
100
AcDbLine
 10
750.121945816
 20
567.3501264915
 30
0.0
 11
750.1499219776
 21
567.3737130662
 31
0.0
  0
LINE
  5
128
330
1F
100
AcDbEntity
  8
0
  6
Continuous
 62
     7
370
    25
100
AcDbLine
 10
569.3879041094
 20
567.3737130662
 30
0.0
 11
569.4184444938
 21
567.347964607
 31
0.0
  0
LINE
  5
129
330
1F
100
AcDbEntity
  8
0
  6
Continuous
 62
     7
370
    25
100
AcDbLine
 10
569.4101847252
 20
540.2744222032
 30
0.0
 11
569.3781096667
 21
540.2469721017
 31
0.0
  0
LWPOLYLINE
  5
12A
330
1F
100
AcDbEntity
  8
0
  6
Continuous
 62
     7
370
    25
100
AcDbPolyline
 90
        3
 70
   128
 43
0.0
 10
648.3157887558
 20
399.9345818359
 10
648.2221400656
 20
401.7003880133
 10
648.2238953812
 20
401.7665947601
  0
LWPOLYLINE
  5
12B
330
1F
100
AcDbEntity
  8
0
  6
Continuous
 62
     7
370
    25
100
AcDbPolyline
 90
        3
 70
   128
 43
0.0
 10
671.3138848162
 20
401.7681530057
 10
671.2609068752
 20
400.2712746594
 10
671.2417150263
 20
400.0942195735
  0
CIRCLE
  5
12C
330
1F
100
AcDbEntity
  8
0
  6
Continuous
 62
     7
370
    25
100
AcDbCircle
 10
761.3689130435
 20
553.8158302358
 30
0.0
 40
5.328914336627577
  0
CIRCLE
  5
12D
330
1F
100
AcDbEntity
  8
0
  6
Continuous
 62
     7
370
    25
100
AcDbCircle
 10
761.3689130435
 20
553.8158302358
 30
0.0
 40
5.925127771161442
  0
CIRCLE
  5
12E
330
1F
100
AcDbEntity
  8
0
  6
Continuous
 62
     7
370
    25
100
AcDbCircle
 10
761.3689130435
 20
553.8158302358
 30
0.0
 40
4.452105871057256
  0
CIRCLE
  5
12F
330
1F
100
AcDbEntity
  8
0
  6
Continuous
 62
     7
370
    25
100
AcDbCircle
 10
761.3689130435
 20
553.8158302358
 30
0.0
 40
5.074569253689219
  0
CIRCLE
  5
130
330
1F
100
AcDbEntity
  8
0
  6
Continuous
 62
     7
370
    25
100
AcDbCircle
 10
761.3689130435
 20
553.8158302358
 30
0.0
 40
7.149999999999977
  0
LINE
  5
131
330
1F
100
AcDbEntity
  8
0
  6
Continuous
 62
     7
370
    25
100
AcDbLine
 10
761.3623400843
 20
556.4841549529
 30
0.0
 11
762.5322706529
 21
556.2172046491
 31
0.0
  0
LINE
  5
132
330
1F
100
AcDbEntity
  8
0
  6
Continuous
 62
     7
370
    25
100
AcDbLine
 10
761.0842668511
 20
555.2654772774
 30
0.0
 11
761.3623400843
 21
556.4841549529
 31
0.0
  0
SPLINE
  5
133
330
1F
100
AcDbEntity
  8
0
  6
Continuous
 62
     7
370
    25
100
AcDbSpline
210
0.0
220
0.0
230
1.0
 70
     8
 71
     3
 72
    12
 73
     8
 74
     0
 42
0.00000001
 43
0.00000001
 40
0.0
 40
0.0
 40
0.0
 40
0.0
 40
0.2133534395476135
 40
0.4267919313634461
 40
0.638353973909149
 40
0.8490950351927548
 40
0.9999999999999999
 40
0.9999999999999999
 40
0.9999999999999999
 40
0.9999999999999999
 10
760.1862163057987
 20
554.7011146119547
 30
0.0
 10
760.2694201799527
 20
554.6904392542135
 30
0.0
 10
760.4358610970638
 20
554.6690842830538
 30
0.0
 10
760.6824304627307
 20
554.7434985989645
 30
0.0
 10
760.8889666652772
 20
554.8885823514646
 30
0.0
 10
761.0262397788647
 20
555.0736584036504
 30
0.0
 10
761.0671825542112
 20
555.2090020760672
 30
0.0
 10
761.0842668510844
 20
555.2654772773676
 30
0.0
  0
LINE
  5
134
330
1F
100
AcDbEntity
  8
0
  6
Continuous
 62
     7
370
    25
100
AcDbLine
 10
758.9675386302
 20
554.9791878452
 30
0.0
 11
760.1862163058
 21
554.701114612
 31
0.0
  0
LINE
  5
135
330
1F
100
AcDbEntity
  8
0
  6
Continuous
 62
     7
370
    25
100
AcDbLine
 10
758.7005883263
 20
553.8092572766
 30
0.0
 11
758.9675386302
 21
554.9791878452
 31
0.0
  0
LINE
  5
136
330
1F
100
AcDbEntity
  8
0
  6
Continuous
 62
     7
370
    25
100
AcDbLine
 10
759.9192660019
 20
553.5311840434
 30
0.0
 11
758.7005883263
 21
553.8092572766
 31
0.0
  0
SPLINE
  5
137
330
1F
100
AcDbEntity
  8
0
  6
Continuous
 62
     7
370
    25
100
AcDbSpline
210
0.0
220
0.0
230
1.0
 70
     8
 71
     3
 72
    12
 73
     8
 74
     0
 42
0.00000001
 43
0.00000001
 40
0.0
 40
0.0
 40
0.0
 40
0.0
 40
0.2133534395476132
 40
0.4267919313634478
 40
0.638353973909154
 40
0.8490950351927532
 40
1.0
 40
1.0
 40
1.0
 40
1.0
 10
760.4836286673136
 20
552.63313349811
 30
0.0
 10
760.4943040250547
 20
552.716337372264
 30
0.0
 10
760.5156589962145
 20
552.8827782893752
 30
0.0
 10
760.4412446803036
 20
553.1293476550421
 30
0.0
 10
760.2961609278035
 20
553.3358838575886
 30
0.0
 10
760.1110848756177
 20
553.4731569711761
 30
0.0
 10
759.9757412032009
 20
553.5140997465224
 30
0.0
 10
759.9192660019005
 20
553.5311840433958
 30
0.0
  0
LINE
  5
138
330
1F
100
AcDbEntity
  8
0
  6
Continuous
 62
     7
370
    25
100
AcDbLine
 10
760.2055554341
 20
551.4144558225
 30
0.0
 11
760.4836286673
 21
552.6331334981
 31
0.0
  0
LINE
  5
139
330
1F
100
AcDbEntity
  8
0
  6
Continuous
 62
     7
370
    25
100
AcDbLine
 10
761.3754860026
 20
551.1475055186
 30
0.0
 11
760.2055554341
 21
551.4144558225
 31
0.0
  0
LINE
  5
13A
330
1F
100
AcDbEntity
  8
0
  6
Continuous
 62
     7
370
    25
100
AcDbLine
 10
761.6535592359
 20
552.3661831942
 30
0.0
 11
761.3754860026
 21
551.1475055186
 31
0.0
  0
LINE
  5
13B
330
1F
100
AcDbEntity
  8
0
  6
Continuous
 62
     7
370
    25
100
AcDbLine
 10
763.7702874567
 20
552.6524726264
 30
0.0
 11
762.5516097812
 21
552.9305458596
 31
0.0
  0
LINE
  5
13C
330
1F
100
AcDbEntity
  8
0
  6
Continuous
 62
     7
370
    25
100
AcDbLine
 10
764.0372377606
 20
553.822403195
 30
0.0
 11
763.7702874567
 21
552.6524726264
 31
0.0
  0
LINE
  5
13D
330
1F
100
AcDbEntity
  8
0
  6
Continuous
 62
     7
370
    25
100
AcDbLine
 10
762.8185600851
 20
554.1004764282
 30
0.0
 11
764.0372377606
 21
553.822403195
 31
0.0
  0
LINE
  5
13E
330
1F
100
AcDbEntity
  8
0
  6
Continuous
 62
     7
370
    25
100
AcDbLine
 10
762.5322706529
 20
556.2172046491
 30
0.0
 11
762.2541974196
 21
554.9985269735
 31
0.0
  0
CIRCLE
  5
13F
330
1F
100
AcDbEntity
  8
0
  6
Continuous
 62
     7
370
    25
100
AcDbCircle
 10
761.3689130435
 20
553.8158302358
 30
0.0
 40
4.197433366238919
  0
SPLINE
  5
140
330
1F
100
AcDbEntity
  8
0
  6
Continuous
 62
     7
370
    25
100
AcDbSpline
210
0.0
220
0.0
230
1.0
 70
     8
 71
     3
 72
    12
 73
     8
 74
     0
 42
0.00000001
 43
0.00000001
 40
0.0
 40
0.0
 40
0.0
 40
0.0
 40
0.2133534395476131
 40
0.4267919313634476
 40
0.6383539739091537
 40
0.8490950351927532
 40
1.0
 40
1.0
 40
1.0
 40
1.0
 10
762.2541974196433
 20
554.9985269734696
 30
0.0
 10
762.2435220619021
 20
554.9153230993155
 30
0.0
 10
762.2221670907426
 20
554.7488821822043
 30
0.0
 10
762.2965814066532
 20
554.5023128165374
 30
0.0
 10
762.4416651591532
 20
554.2957766139908
 30
0.0
 10
762.6267412113391
 20
554.1585035004034
 30
0.0
 10
762.762084883756
 20
554.117560725057
 30
0.0
 10
762.8185600850563
 20
554.1004764281838
 30
0.0
  0
SPLINE
  5
141
330
1F
100
AcDbEntity
  8
0
  6
Continuous
 62
     7
370
    25
100
AcDbSpline
210
0.0
220
0.0
230
1.0
 70
     8
 71
     3
 72
    12
 73
     8
 74
     0
 42
0.00000001
 43
0.00000001
 40
0.0
 40
0.0
 40
0.0
 40
0.0
 40
0.2133534395476136
 40
0.4267919313634463
 40
0.6383539739091494
 40
0.8490950351927551
 40
1.0
 40
1.0
 40
1.0
 40
1.0
 10
762.5516097811582
 20
552.9305458596248
 30
0.0
 10
762.4684059070041
 20
552.941221217366
 30
0.0
 10
762.301964989893
 20
552.9625761885256
 30
0.0
 10
762.0553956242262
 20
552.8881618726149
 30
0.0
 10
761.8488594216797
 20
552.7430781201148
 30
0.0
 10
761.7115863080921
 20
552.558002067929
 30
0.0
 10
761.6706435327458
 20
552.4226583955121
 30
0.0
 10
761.6535592358724
 20
552.3661831942118
 30
0.0
  0
LINE
  5
142
330
1F
100
AcDbEntity
  8
0
  6
Continuous
 62
     7
370
    25
100
AcDbLine
 10
559.3322706529
 20
551.4144558225
 30
0.0
 11
558.1623400843
 21
551.1475055186
 31
0.0
  0
LINE
  5
143
330
1F
100
AcDbEntity
  8
0
  6
Continuous
 62
     7
370
    25
100
AcDbLine
 10
559.0541974196
 20
552.6331334981
 30
0.0
 11
559.3322706529
 21
551.4144558225
 31
0.0
  0
SPLINE
  5
144
330
1F
100
AcDbEntity
  8
0
  6
Continuous
 62
     7
370
    25
100
AcDbSpline
210
0.0
220
0.0
230
1.0
 70
     8
 71
     3
 72
    12
 73
     8
 74
     0
 42
0.00000001
 43
0.00000001
 40
0.0
 40
0.0
 40
0.0
 40
0.0
 40
0.2133534395476119
 40
0.4267919313634478
 40
0.6383539739091497
 40
0.849095035192757
 40
0.9999999999999999
 40
0.9999999999999999
 40
0.9999999999999999
 40
0.9999999999999999
 10
559.6185600850563
 20
553.5311840433958
 30
0.0
 10
559.5389607341273
 20
553.5047115809333
 30
0.0
 10
559.3797303003911
 20
553.4517561028953
 30
0.0
 10
559.1898438831242
 20
553.2777529677645
 30
0.0
 10
559.0666824964022
 20
553.0574400743095
 30
0.0
 10
559.0232762395927
 20
552.8311372911262
 30
0.0
 10
559.0450936237866
 20
552.6914296597553
 30
0.0
 10
559.0541974196433
 20
552.63313349811
 30
0.0
  0
LINE
  5
145
330
1F
100
AcDbEntity
  8
0
  6
Continuous
 62
     7
370
    25
100
AcDbLine
 10
560.8372377606
 20
553.8092572766
 30
0.0
 11
559.6185600851
 21
553.5311840434
 31
0.0
  0
LINE
  5
146
330
1F
100
AcDbEntity
  8
0
  6
Continuous
 62
     7
370
    25
100
AcDbLine
 10
560.5702874567
 20
554.9791878452
 30
0.0
 11
560.8372377606
 21
553.8092572766
 31
0.0
  0
LINE
  5
147
330
1F
100
AcDbEntity
  8
0
  6
Continuous
 62
     7
370
    25
100
AcDbLine
 10
559.3516097812
 20
554.701114612
 30
0.0
 11
560.5702874567
 21
554.9791878452
 31
0.0
  0
SPLINE
  5
148
330
1F
100
AcDbEntity
  8
0
  6
Continuous
 62
     7
370
    25
100
AcDbSpline
210
0.0
220
0.0
230
1.0
 70
     8
 71
     3
 72
    12
 73
     8
 74
     0
 42
0.00000001
 43
0.00000001
 40
0.0
 40
0.0
 40
0.0
 40
0.0
 40
0.2133534395476159
 40
0.4267919313634425
 40
0.6383539739091564
 40
0.849095035192758
 40
1.0
 40
1.0
 40
1.0
 40
1.0
 10
558.4535592358724
 20
555.2654772773676
 30
0.0
 10
558.4800316983349
 20
555.1858779264387
 30
0.0
 10
558.5329871763728
 20
555.0266474927025
 30
0.0
 10
558.7069903115037
 20
554.8367610754356
 30
0.0
 10
558.9273032049587
 20
554.7135996887135
 30
0.0
 10
559.1536059881419
 20
554.6701934319041
 30
0.0
 10
559.2933136195129
 20
554.6920108160979
 30
0.0
 10
559.3516097811581
 20
554.7011146119547
 30
0.0
  0
LINE
  5
149
330
1F
100
AcDbEntity
  8
0
  6
Continuous
 62
     7
370
    25
100
AcDbLine
 10
558.1754860026
 20
556.4841549529
 30
0.0
 11
558.4535592359
 21
555.2654772774
 31
0.0
  0
LINE
  5
14A
330
1F
100
AcDbEntity
  8
0
  6
Continuous
 62
     7
370
    25
100
AcDbLine
 10
557.0055554341
 20
556.2172046491
 30
0.0
 11
558.1754860026
 21
556.4841549529
 31
0.0
  0
LINE
  5
14B
330
1F
100
AcDbEntity
  8
0
  6
Continuous
 62
     7
370
    25
100
AcDbLine
 10
557.2836286673
 20
554.9985269735
 30
0.0
 11
557.0055554341
 21
556.2172046491
 31
0.0
  0
SPLINE
  5
14C
330
1F
100
AcDbEntity
  8
0
  6
Continuous
 62
     7
370
    25
100
AcDbSpline
210
0.0
220
0.0
230
1.0
 70
     8
 71
     3
 72
    12
 73
     8
 74
     0
 42
0.00000001
 43
0.00000001
 40
0.0
 40
0.0
 40
0.0
 40
0.0
 40
0.213353439547612
 40
0.426791931363448
 40
0.63835397390915
 40
0.8490950351927569
 40
1.0
 40
1.0
 40
1.0
 40
1.0
 10
556.7192660019005
 20
554.1004764281838
 30
0.0
 10
556.7988653528294
 20
554.1269488906462
 30
0.0
 10
556.9580957865657
 20
554.1799043686841
 30
0.0
 10
557.1479822038325
 20
554.353907503815
 30
0.0
 10
557.2711435905545
 20
554.57422039727
 30
0.0
 10
557.3145498473641
 20
554.8005231804533
 30
0.0
 10
557.2927324631702
 20
554.9402308118243
 30
0.0
 10
557.2836286673136
 20
554.9985269734696
 30
0.0
  0
LINE
  5
14D
330
1F
100
AcDbEntity
  8
0
  6
Continuous
 62
     7
370
    25
100
AcDbLine
 10
555.5005883263
 20
553.822403195
 30
0.0
 11
556.7192660019
 21
554.1004764282
 31
0.0
  0
LINE
  5
14E
330
1F
100
AcDbEntity
  8
0
  6
Continuous
 62
     7
370
    25
100
AcDbLine
 10
555.7675386302
 20
552.6524726264
 30
0.0
 11
555.5005883263
 21
553.822403195
 31
0.0
  0
LINE
  5
14F
330
1F
100
AcDbEntity
  8
0
  6
Continuous
 62
     7
370
    25
100
AcDbLine
 10
556.9862163058
 20
552.9305458596
 30
0.0
 11
555.7675386302
 21
552.6524726264
 31
0.0
  0
LINE
  5
150
330
1F
100
AcDbEntity
  8
0
  6
Continuous
 62
     7
370
    25
100
AcDbLine
 10
558.1623400843
 20
551.1475055186
 30
0.0
 11
557.8842668511
 21
552.3661831942
 31
0.0
  0
CIRCLE
  5
151
330
1F
100
AcDbEntity
  8
0
  6
Continuous
 62
     7
370
    25
100
AcDbCircle
 10
558.1689130435
 20
553.8158302358
 30
0.0
 40
4.197433366238919
  0
SPLINE
  5
152
330
1F
100
AcDbEntity
  8
0
  6
Continuous
 62
     7
370
    25
100
AcDbSpline
210
0.0
220
0.0
230
1.0
 70
     8
 71
     3
 72
    12
 73
     8
 74
     0
 42
0.00000001
 43
0.00000001
 40
0.0
 40
0.0
 40
0.0
 40
0.0
 40
0.2133534395476155
 40
0.4267919313634422
 40
0.6383539739091563
 40
0.8490950351927579
 40
0.9999999999999999
 40
0.9999999999999999
 40
0.9999999999999999
 40
0.9999999999999999
 10
557.8842668510844
 20
552.3661831942118
 30
0.0
 10
557.857794388622
 20
552.4457825451409
 30
0.0
 10
557.804838910584
 20
552.605012978877
 30
0.0
 10
557.6308357754532
 20
552.7948993961439
 30
0.0
 10
557.4105228819981
 20
552.9180607828658
 30
0.0
 10
557.1842200988149
 20
552.9614670396754
 30
0.0
 10
557.044512467444
 20
552.9396496554816
 30
0.0
 10
556.9862163057986
 20
552.9305458596248
 30
0.0
  0
CIRCLE
  5
153
330
1F
100
AcDbEntity
  8
0
  6
Continuous
 62
     7
370
    25
100
AcDbCircle
 10
558.1689130435
 20
553.8158302358
 30
0.0
 40
4.452105871057256
  0
CIRCLE
  5
154
330
1F
100
AcDbEntity
  8
0
  6
Continuous
 62
     7
370
    25
100
AcDbCircle
 10
558.1689130435
 20
553.8158302358
 30
0.0
 40
5.074569253689219
  0
CIRCLE
  5
155
330
1F
100
AcDbEntity
  8
0
  6
Continuous
 62
     7
370
    25
100
AcDbCircle
 10
558.1689130435
 20
553.8158302358
 30
0.0
 40
5.32891433662769
  0
CIRCLE
  5
156
330
1F
100
AcDbEntity
  8
0
  6
Continuous
 62
     7
370
    25
100
AcDbCircle
 10
558.1689130435
 20
553.8158302358
 30
0.0
 40
5.925127771161328
  0
CIRCLE
  5
157
330
1F
100
AcDbEntity
  8
0
  6
Continuous
 62
     7
370
    25
100
AcDbCircle
 10
558.1689130435
 20
553.8158302358
 30
0.0
 40
7.149999999999977
  0
SPLINE
  5
158
330
1F
100
AcDbEntity
  8
0
  6
Continuous
 62
     7
370
    25
100
AcDbSpline
210
0.0
220
0.0
230
1.0
 70
     8
 71
     3
 72
    11
 73
     7
 74
     0
 42
0.00000001
 43
0.00000001
 40
0.0
 40
0.0
 40
0.0
 40
0.0
 40
0.2200386424382255
 40
0.6637869905998169
 40
0.8890365590789576
 40
1.0
 40
1.0
 40
1.0
 40
1.0
 10
551.4913228988864
 20
548.0409332176671
 30
0.0
 10
551.287101435885
 20
548.3059518289259
 30
0.0
 10
550.6710298730014
 20
549.1054291592307
 30
0.0
 10
550.1474805219842
 20
550.3685984297585
 30
0.0
 10
549.8958513222232
 20
551.5351682430827
 30
0.0
 10
549.9165585169454
 20
552.046448041742
 30
0.0
 10
549.9233927009715
 20
552.2151903692143
 30
0.0
  0
SPLINE
  5
159
330
1F
100
AcDbEntity
  8
0
  6
Continuous
 62
     7
370
    25
100
AcDbSpline
210
0.0
220
0.0
230
1.0
 70
     8
 71
     3
 72
     9
 73
     5
 74
     0
 42
0.00000001
 43
0.00000001
 40
0.0
 40
0.0
 40
0.0
 40
0.0
 40
0.9209630919903056
 40
1.0
 40
1.0
 40
1.0
 40
1.0
 10
549.8512805356391
 20
548.3612564933007
 30
0.0
 10
550.365702073512
 20
548.3044294343821
 30
0.0
 10
550.9242711870268
 20
548.242725486186
 30
0.0
 10
551.4497876986961
 20
548.055714025298
 30
0.0
 10
551.4913228988864
 20
548.0409332176671
 30
0.0
  0
SPLINE
  5
15A
330
1F
100
AcDbEntity
  8
0
  6
Continuous
 62
     7
370
    25
100
AcDbSpline
210
0.0
220
0.0
230
1.0
 70
     8
 71
     3
 72
    10
 73
     6
 74
     0
 42
0.00000001
 43
0.00000001
 40
0.0
 40
0.0
 40
0.0
 40
0.0
 40
0.2596150688488836
 40
0.629760644481066
 40
0.9999999999999999
 40
0.9999999999999999
 40
0.9999999999999999
 40
0.9999999999999999
 10
502.676119581702
 20
550.9528140622897
 30
0.0
 10
506.753939800425
 20
550.6530599251913
 30
0.0
 10
516.6457026337903
 20
549.9259320300272
 30
0.0
 10
532.3752753164634
 20
549.100085160137
 30
0.0
 10
544.0254535777282
 20
548.6075535108713
 30
0.0
 10
549.8512805356391
 20
548.3612564933007
 30
0.0
  0
SPLINE
  5
15B
330
1F
100
AcDbEntity
  8
0
  6
Continuous
 62
     7
370
    25
100
AcDbSpline
210
0.0
220
0.0
230
1.0
 70
     8
 71
     3
 72
    11
 73
     7
 74
     0
 42
0.00000001
 43
0.00000001
 40
0.0
 40
0.0
 40
0.0
 40
0.0
 40
0.061464119541392
 40
0.4999988937835378
 40
0.9375097801832794
 40
1.0
 40
1.0
 40
1.0
 40
1.0
 10
502.6761195817022
 20
556.6788464092916
 30
0.0
 10
502.6644503854998
 20
556.5623894368396
 30
0.0
 10
502.5695236992303
 20
555.6150341695082
 30
0.0
 10
502.4858208719643
 20
553.8177899710602
 30
0.0
 10
502.5693907954843
 20
552.0185919468192
 30
0.0
 10
502.6642625005297
 20
551.0712171223862
 30
0.0
 10
502.676119581702
 20
550.9528140622897
 30
0.0
  0
SPLINE
  5
15C
330
1F
100
AcDbEntity
  8
0
  6
Continuous
 62
     7
370
    25
100
AcDbSpline
210
0.0
220
0.0
230
1.0
 70
     8
 71
     3
 72
    11
 73
     7
 74
     0
 42
0.00000001
 43
0.00000001
 40
0.0
 40
0.0
 40
0.0
 40
0.0
 40
0.259458927729189
 40
0.6296002946237427
 40
0.8147836738016297
 40
1.0
 40
1.0
 40
1.0
 40
1.0
 10
549.8512805356391
 20
559.2704039782789
 30
0.0
 10
545.7682798862942
 20
559.104905391858
 30
0.0
 10
535.8605136194897
 20
558.7033082694064
 30
0.0
 10
523.0453766605287
 20
558.025055453383
 30
0.0
 10
511.4011043942692
 20
557.3476345611708
 30
0.0
 10
505.5846203111365
 20
556.9017890125585
 30
0.0
 10
502.6761195817022
 20
556.6788464092916
 30
0.0
  0
SPLINE
  5
15D
330
1F
100
AcDbEntity
  8
0
  6
Continuous
 62
     7
370
    25
100
AcDbSpline
210
0.0
220
0.0
230
1.0
 70
     8
 71
     3
 72
     9
 73
     5
 74
     0
 42
0.00000001
 43
0.00000001
 40
0.0
 40
0.0
 40
0.0
 40
0.0
 40
0.0790369080192139
 40
1.0
 40
1.0
 40
1.0
 40
1.0
 10
551.4913228988856
 20
559.5907272539122
 30
0.0
 10
551.4497876986903
 20
559.5759464462794
 30
0.0
 10
550.9242711870212
 20
559.3889349853915
 30
0.0
 10
550.3657020735066
 20
559.3272310371962
 30
0.0
 10
549.8512805356391
 20
559.2704039782789
 30
0.0
  0
SPLINE
  5
15E
330
1F
100
AcDbEntity
  8
0
  6
Continuous
 62
     7
370
    25
100
AcDbSpline
210
0.0
220
0.0
230
1.0
 70
     8
 71
     3
 72
    11
 73
     7
 74
     0
 42
0.00000001
 43
0.00000001
 40
0.0
 40
0.0
 40
0.0
 40
0.0
 40
0.0728838064943292
 40
0.4140719411596029
 40
0.9209668754550567
 40
1.0
 40
1.0
 40
1.0
 40
1.0
 10
549.9233927009752
 20
555.4164701023503
 30
0.0
 10
549.9156775518376
 20
555.5269165365894
 30
0.0
 10
549.8718457744731
 20
556.1543915769203
 30
0.0
 10
550.216337485911
 20
557.5373836073853
 30
0.0
 10
550.8560268353975
 20
558.8073151251629
 30
0.0
 10
551.4158155848302
 20
559.4976157913359
 30
0.0
 10
551.4913228988856
 20
559.5907272539122
 30
0.0
  0
SPLINE
  5
15F
330
1F
100
AcDbEntity
  8
0
  6
Continuous
 62
     7
370
    25
100
AcDbSpline
210
0.0
220
0.0
230
1.0
 70
     8
 71
     3
 72
    10
 73
     6
 74
     0
 42
0.00000001
 43
0.00000001
 40
0.0
 40
0.0
 40
0.0
 40
0.0
 40
0.3880207377811389
 40
0.979063776650686
 40
1.0
 40
1.0
 40
1.0
 40
1.0
 10
549.9233927009715
 20
552.2151903692143
 30
0.0
 10
549.9967072317309
 20
552.62603023107
 30
0.0
 10
550.1816963170542
 20
553.6626718009185
 30
0.0
 10
550.0859893912232
 20
554.7564411224897
 30
0.0
 10
549.9287712399753
 20
555.3946369912092
 30
0.0
 10
549.9233927009752
 20
555.4164701023503
 30
0.0
  0
ARC
  5
160
330
1F
100
AcDbEntity
  8
0
  6
Continuous
 62
     7
370
    25
100
AcDbCircle
 10
558.1689130435
 20
553.8158302358
 30
0.0
 40
8.399443654264582
100
AcDbArc
 50
190.985757993
 51
169.0142420071
  0
SPLINE
  5
161
330
1F
100
AcDbEntity
  8
0
  6
Continuous
 62
     7
370
    25
100
AcDbSpline
210
0.0
220
0.0
230
1.0
 70
     8
 71
     3
 72
     9
 73
     5
 74
     0
 42
0.00000001
 43
0.00000001
 40
0.0
 40
0.0
 40
0.0
 40
0.0
 40
0.6817923421274312
 40
1.0
 40
1.0
 40
1.0
 40
1.0
 10
551.4913228988856
 20
559.5907272539122
 30
0.0
 10
551.6335864595287
 20
559.7806376090173
 30
0.0
 10
551.8422475896891
 20
560.0591833528908
 30
0.0
 10
552.0716734235696
 20
560.2920877258339
 30
0.0
 10
552.144678480824
 20
560.3661996808563
 30
0.0
  0
ARC
  5
162
330
1F
100
AcDbEntity
  8
0
  6
Continuous
 62
     7
370
    25
100
AcDbCircle
 10
558.1689130435
 20
553.8158302358
 30
0.0
 40
8.899367501836373
100
AcDbArc
 50
227.3959191961
 51
132.6040808039
  0
LINE
  5
163
330
1F
100
AcDbEntity
  8
0
  6
Continuous
 62
     7
370
    25
100
AcDbLine
 10
552.1446784808
 20
547.2654607907
 30
0.0
 11
551.4913228989
 21
548.0409332177
 31
0.0
  0
SPLINE
  5
164
330
1F
100
AcDbEntity
  8
0
  6
Continuous
 62
     7
370
    25
100
AcDbSpline
210
0.0
220
0.0
230
1.0
 70
     8
 71
     3
 72
    10
 73
     6
 74
     0
 42
0.00000001
 43
0.00000001
 40
0.0
 40
0.0
 40
0.0
 40
0.0
 40
0.3702896688583046
 40
0.7405318123903298
 40
0.9999999999999999
 40
0.9999999999999999
 40
0.9999999999999999
 40
0.9999999999999999
 10
502.6646001185238
 20
557.1217059901248
 30
0.0
 10
508.4846639647421
 20
557.4418970046512
 30
0.0
 10
520.1240446732457
 20
558.0822379383568
 30
0.0
 10
535.8429130800204
 20
558.95147227022
 30
0.0
 10
545.7400868960302
 20
559.5002132718292
 30
0.0
 10
549.8181552164945
 20
559.726318555661
 30
0.0
  0
ARC
  5
165
330
1F
100
AcDbEntity
  8
0
  6
Continuous
 62
     7
370
    25
100
AcDbCircle
 10
542.603066009
 20
558.972932189
 30
0.0
 40
7.254316183457581
100
AcDbArc
 50
2.3501399449
 51
5.9611177313
  0
ARC
  5
166
330
1F
100
AcDbEntity
  8
0
  6
Continuous
 62
     7
370
    25
100
AcDbCircle
 10
506.9251226597
 20
557.0109491661
 30
0.0
 40
4.261961918847136
100
AcDbArc
 50
178.5108705386
 51
184.4691613065
  0
SPLINE
  5
167
330
1F
100
AcDbEntity
  8
0
  6
Continuous
 62
     7
370
    25
100
AcDbSpline
210
0.0
220
0.0
230
1.0
 70
     8
 71
     3
 72
    10
 73
     6
 74
     0
 42
0.00000001
 43
0.00000001
 40
0.0
 40
0.0
 40
0.0
 40
0.0
 40
0.3702717503651152
 40
0.7405122151371749
 40
1.0
 40
1.0
 40
1.0
 40
1.0
 10
549.8181552164945
 20
547.9053419159186
 30
0.0
 10
543.9984831548253
 20
548.2278704015864
 30
0.0
 10
532.3596307565284
 20
548.8729001213295
 30
0.0
 10
516.6404911725737
 20
549.7417146088085
 30
0.0
 10
506.742993748875
 20
550.2857695195753
 30
0.0
 10
502.6646001185271
 20
550.5099544814544
 30
0.0
  0
ARC
  5
168
330
1F
100
AcDbEntity
  8
0
  6
Continuous
 62
     7
370
    25
100
AcDbCircle
 10
506.9251226626
 20
550.6207113054
 30
0.0
 40
4.261961921765893
100
AcDbArc
 50
175.530838696
 51
181.4891294598
  0
ARC
  5
169
330
1F
100
AcDbEntity
  8
0
  6
Continuous
 62
     7
370
    25
100
AcDbCircle
 10
542.6030660089
 20
548.6587282826
 30
0.0
 40
7.254316183568317
100
AcDbArc
 50
354.0388822687
 51
357.6498600551
  0
SPLINE
  5
16A
330
1F
100
AcDbEntity
  8
0
  6
Continuous
 62
     7
370
    25
100
AcDbSpline
210
0.0
220
0.0
230
1.0
 70
     8
 71
     3
 72
    12
 73
     8
 74
     0
 42
0.00000001
 43
0.00000001
 40
0.0
 40
0.0
 40
0.0
 40
0.0
 40
0.1224290494151349
 40
0.3423522449770471
 40
0.5614228816909413
 40
0.7807229538533572
 40
1.0
 40
1.0
 40
1.0
 40
1.0
 10
500.7403921488545
 20
551.063488431946
 30
0.0
 10
500.7493962247185
 20
551.061129747505
 30
0.0
 10
500.7745746084495
 20
551.0545340831803
 30
0.0
 10
500.9905622920942
 20
551.037526115441
 30
0.0
 10
501.4264604218233
 20
551.0120151412866
 30
0.0
 10
502.0103860352535
 20
550.9824629587273
 30
0.0
 10
502.4542161668216
 20
550.9626966818482
 30
0.0
 10
502.676119581702
 20
550.9528140622897
 30
0.0
  0
SPLINE
  5
16B
330
1F
100
AcDbEntity
  8
0
  6
Continuous
 62
     7
370
    25
100
AcDbSpline
210
0.0
220
0.0
230
1.0
 70
     8
 71
     3
 72
    11
 73
     7
 74
     0
 42
0.00000001
 43
0.00000001
 40
0.0
 40
0.0
 40
0.0
 40
0.0
 40
0.0800485240044433
 40
0.5000005853538798
 40
0.9209248322279645
 40
1.0
 40
1.0
 40
1.0
 40
1.0
 10
500.7403921488545
 20
551.063488431946
 30
0.0
 10
500.7406783932686
 20
551.2097328570466
 30
0.0
 10
500.7424663384732
 20
552.1232075158797
 30
0.0
 10
500.7437020353032
 20
553.8176171036382
 30
0.0
 10
500.7424643372083
 20
555.5102439554929
 30
0.0
 10
500.7406751152403
 20
556.4237073311368
 30
0.0
 10
500.7403921488545
 20
556.568172039628
 30
0.0
  0
SPLINE
  5
16C
330
1F
100
AcDbEntity
  8
0
  6
Continuous
 62
     7
370
    25
100
AcDbSpline
210
0.0
220
0.0
230
1.0
 70
     8
 71
     3
 72
    12
 73
     8
 74
     0
 42
0.00000001
 43
0.00000001
 40
0.0
 40
0.0
 40
0.0
 40
0.0
 40
0.1130367476169362
 40
0.3328594693548023
 40
0.5544127937945006
 40
0.7774207483513244
 40
1.0
 40
1.0
 40
1.0
 40
1.0
 10
502.6761195817022
 20
556.6788464092916
 30
0.0
 10
502.5620487417153
 20
556.6738311635903
 30
0.0
 10
502.2261441791074
 20
556.6590627625344
 30
0.0
 10
501.6920763227126
 20
556.6334705584252
 30
0.0
 10
501.1755506848255
 20
556.605595295554
 30
0.0
 10
500.818655967671
 20
556.5821534219637
 30
0.0
 10
500.7664633501525
 20
556.572829510204
 30
0.0
 10
500.7403921488545
 20
556.568172039628
 30
0.0
  0
SPLINE
  5
16D
330
1F
100
AcDbEntity
  8
0
  6
Continuous
 62
     7
370
    25
100
AcDbSpline
210
0.0
220
0.0
230
1.0
 70
     8
 71
     3
 72
     9
 73
     5
 74
     0
 42
0.00000001
 43
0.00000001
 40
0.0
 40
0.0
 40
0.0
 40
0.0
 40
0.500010612381544
 40
1.0
 40
1.0
 40
1.0
 40
1.0
 10
552.644286329667
 20
546.8336291014768
 30
0.0
 10
552.2145649628461
 20
547.1214696395701
 30
0.0
 10
551.3551404702855
 20
547.6971384973216
 30
0.0
 10
550.3304763850073
 20
547.8359417584084
 30
0.0
 10
549.8181552164945
 20
547.9053419159186
 30
0.0
  0
SPLINE
  5
16E
330
1F
100
AcDbEntity
  8
0
  6
Continuous
 62
     7
370
    25
100
AcDbSpline
210
0.0
220
0.0
230
1.0
 70
     8
 71
     3
 72
     9
 73
     5
 74
     0
 42
0.00000001
 43
0.00000001
 40
0.0
 40
0.0
 40
0.0
 40
0.0
 40
0.9838702326459385
 40
1.0
 40
1.0
 40
1.0
 40
1.0
 10
552.1446784808242
 20
547.2654607907232
 30
0.0
 10
552.3060192957587
 20
547.1206283777042
 30
0.0
 10
552.4700051646072
 20
546.9734215528473
 30
0.0
 10
552.6415198378891
 20
546.8358481288008
 30
0.0
 10
552.644286329667
 20
546.8336291014768
 30
0.0
  0
SPLINE
  5
16F
330
1F
100
AcDbEntity
  8
0
  6
Continuous
 62
     7
370
    25
100
AcDbSpline
210
0.0
220
0.0
230
1.0
 70
     8
 71
     3
 72
     9
 73
     5
 74
     0
 42
0.00000001
 43
0.00000001
 40
0.0
 40
0.0
 40
0.0
 40
0.0
 40
0.5055561057107305
 40
1.0
 40
1.0
 40
1.0
 40
1.0
 10
549.8181552164945
 20
559.726318555661
 30
0.0
 10
550.3362147338274
 20
559.796974589931
 30
0.0
 10
551.3609467299028
 20
559.9367336265084
 30
0.0
 10
552.2196872986643
 20
560.5130669013041
 30
0.0
 10
552.644286329667
 20
560.7980313701026
 30
0.0
  0
SPLINE
  5
170
330
1F
100
AcDbEntity
  8
0
  6
Continuous
 62
     7
370
    25
100
AcDbSpline
210
0.0
220
0.0
230
1.0
 70
     8
 71
     3
 72
     9
 73
     5
 74
     0
 42
0.00000001
 43
0.00000001
 40
0.0
 40
0.0
 40
0.0
 40
0.0
 40
0.0161297673533178
 40
0.9999999999999999
 40
0.9999999999999999
 40
0.9999999999999999
 40
0.9999999999999999
 10
552.644286329667
 20
560.7980313701026
 30
0.0
 10
552.6415198378892
 20
560.7958123427787
 30
0.0
 10
552.4700051646032
 20
560.6582389187291
 30
0.0
 10
552.3060192957568
 20
560.5110320938738
 30
0.0
 10
552.144678480824
 20
560.3661996808563
 30
0.0
  0
SPLINE
  5
171
330
1F
100
AcDbEntity
  8
0
  6
Continuous
 62
     7
370
    25
100
AcDbSpline
210
0.0
220
0.0
230
1.0
 70
     8
 71
     3
 72
    12
 73
     8
 74
     0
 42
0.00000001
 43
0.00000001
 40
0.0
 40
0.0
 40
0.0
 40
0.0
 40
0.2230315344150378
 40
0.4461337558340359
 40
0.6675099896777023
 40
0.8870667292265011
 40
1.0
 40
1.0
 40
1.0
 40
1.0
 10
501.2127464139389
 20
557.0673351106764
 30
0.0
 10
501.2322802000648
 20
557.0654448633817
 30
0.0
 10
501.2713539633014
 20
557.0616637697024
 30
0.0
 10
501.5389431453575
 20
557.068606605973
 30
0.0
 10
501.9264722291827
 20
557.0841954284627
 30
0.0
 10
502.3271943416456
 20
557.1035327085269
 30
0.0
 10
502.5790537639036
 20
557.1170983097035
 30
0.0
 10
502.6646001185238
 20
557.1217059901248
 30
0.0
  0
ARC
  5
172
330
1F
100
AcDbEntity
  8
0
  6
Continuous
 62
     7
370
    25
100
AcDbCircle
 10
501.2404920365
 20
556.5680054543
 30
0.0
 40
0.5000999153467998
100
AcDbArc
 50
93.1804119247
 51
179.9809145383
  0
SPLINE
  5
173
330
1F
100
AcDbEntity
  8
0
  6
Continuous
 62
     7
370
    25
100
AcDbSpline
210
0.0
220
0.0
230
1.0
 70
     8
 71
     3
 72
    12
 73
     8
 74
     0
 42
0.00000001
 43
0.00000001
 40
0.0
 40
0.0
 40
0.0
 40
0.0
 40
0.2190444340109334
 40
0.4380981679380241
 40
0.6571027493691853
 40
0.8772791087290019
 40
1.0
 40
1.0
 40
1.0
 40
1.0
 10
502.6646001185271
 20
550.5099544814544
 30
0.0
 10
502.4981823777562
 20
550.5187832944042
 30
0.0
 10
502.1653398306572
 20
550.5364412951465
 30
0.0
 10
501.727181388014
 20
550.5559597845555
 30
0.0
 10
501.4002155612544
 20
550.5672655681878
 30
0.0
 10
501.2383716842403
 20
550.5690894362644
 30
0.0
 10
501.2195003518281
 20
550.5655810069396
 30
0.0
 10
501.212746413939
 20
550.564325360903
 30
0.0
  0
ARC
  5
174
330
1F
100
AcDbEntity
  8
0
  6
Continuous
 62
     7
370
    25
100
AcDbCircle
 10
501.2404920365
 20
551.0636550173
 30
0.0
 40
0.5000999153469152
100
AcDbArc
 50
180.0190854623
 51
266.8195880753
  0
LINE
  5
175
330
1F
100
AcDbEntity
  8
0
  6
Continuous
 62
     7
370
    25
100
AcDbLine
 10
549.8181552165
 20
559.7263185557
 30
0.0
 11
549.7911690348
 21
559.797608831
 31
0.0
  0
LINE
  5
176
330
1F
100
AcDbEntity
  8
0
  6
Continuous
 62
     7
370
    25
100
AcDbLine
 10
501.2080560533
 20
557.0717735637
 30
0.0
 11
501.2127464139
 21
557.0673351107
 31
0.0
  0
ELLIPSE
  5
177
330
1F
100
AcDbEntity
  8
0
  6
Continuous
 62
     7
370
    25
100
AcDbEllipse
 10
502.707827596
 20
557.1550660137
 30
0.0
 11
1.499999304622861
 21
0.08287263343879658
 31
0.0
210
0.0
220
0.0
230
1.0
 40
0.0174284859
 41
2.255125316694016
 42
3.158083049606582
  0
LINE
  5
178
330
1F
100
AcDbEntity
  8
0
  6
Continuous
 62
     7
370
    25
100
AcDbLine
 10
505.223442265
 20
557.3638256018
 30
0.0
 11
501.7584790556
 21
557.1229343228
 31
0.0
  0
LINE
  5
179
330
1F
100
AcDbEntity
  8
0
  6
Continuous
 62
     7
370
    25
100
AcDbLine
 10
505.223442265
 20
557.3637272105
 30
0.0
 11
505.223442265
 21
557.3638256018
 31
0.0
  0
ELLIPSE
  5
17A
330
1F
100
AcDbEntity
  8
0
  6
Continuous
 62
     7
370
    25
100
AcDbEllipse
 10
514.672928686
 20
557.693373262
 30
0.0
 11
14.49999327802038
 21
0.801102123240753
 31
0.0
210
0.0
220
0.0
230
1.0
 40
0.0174284859
 41
1.54351683885243
 42
2.279642175407771
  0
ELLIPSE
  5
17B
330
1F
100
AcDbEntity
  8
0
  6
Continuous
 62
     7
370
    25
100
AcDbEllipse
 10
515.9939386015
 20
558.6436568113
 30
0.0
 11
35.70262504606012
 21
1.972514619921981
 31
0.0
210
0.0
220
0.0
230
1.0
 40
0.0174284859
 41
4.68510949244221
 42
5.167309992308034
  0
ELLIPSE
  5
17C
330
1F
100
AcDbEntity
  8
0
  6
Continuous
 62
     7
370
    25
100
AcDbEllipse
 10
535.0141660736
 20
559.016052871
 30
0.0
 11
7.499996523113964
 21
0.4143631671934145
 31
0.0
210
0.0
220
0.0
230
1.0
 40
0.0174284859
 41
1.834826681008195
 42
2.02571733871814
  0
LINE
  5
17D
330
1F
100
AcDbEntity
  8
0
  6
Continuous
 62
     7
370
    25
100
AcDbLine
 10
533.0695136725
 20
558.8837084198
 30
0.0
 11
533.0498954151
 21
559.0340989644
 31
0.0
  0
SPLINE
  5
17E
330
1F
100
AcDbEntity
  8
0
  6
Continuous
 62
     7
370
    25
100
AcDbSpline
210
0.0
220
0.0
230
1.0
 70
     8
 71
     3
 72
    10
 73
     6
 74
     0
 42
0.00000001
 43
0.00000001
 40
0.0
 40
0.0
 40
0.0
 40
0.0
 40
0.0186368637457253
 40
0.3939469944633057
 40
1.0
 40
1.0
 40
1.0
 40
1.0
 10
533.2532849582246
 20
558.8841947870649
 30
0.0
 10
533.250828750976
 20
558.8841070365855
 30
0.0
 10
533.1989093144989
 20
558.8822521623927
 30
0.0
 10
533.094910466021
 20
558.8795721810145
 30
0.0
 10
533.0792098086717
 20
558.8821292624121
 30
0.0
 10
533.0695136725282
 20
558.88370841982
 30
0.0
  0
LINE
  5
17F
330
1F
100
AcDbEntity
  8
0
  6
Continuous
 62
     7
370
    25
100
AcDbLine
 10
549.7911690348
 20
559.797608831
 30
0.0
 11
533.2532849582
 21
558.8841947871
 31
0.0
  0
LINE
  5
180
330
1F
100
AcDbEntity
  8
0
  6
Continuous
 62
     7
370
    25
100
AcDbLine
 10
533.2512192263
 20
548.7312620357
 30
0.0
 11
549.7851276497
 21
547.8180675735
 31
0.0
  0
SPLINE
  5
181
330
1F
100
AcDbEntity
  8
0
  6
Continuous
 62
     7
370
    25
100
AcDbSpline
210
0.0
220
0.0
230
1.0
 70
     8
 71
     3
 72
    11
 73
     7
 74
     0
 42
0.00000001
 43
0.00000001
 40
0.0
 40
0.0
 40
0.0
 40
0.0
 40
0.4177469294495291
 40
0.8392770662410922
 40
0.9817832068819584
 40
1.0
 40
1.0
 40
1.0
 40
1.0
 10
533.0675137856563
 20
548.732611480973
 30
0.0
 10
533.0721508136882
 20
548.7336946721567
 30
0.0
 10
533.0814668636895
 20
548.7358708641398
 30
0.0
 10
533.1569633294397
 20
548.7346686872484
 30
0.0
 10
533.2272235300118
 20
548.7321981599084
 30
0.0
 10
533.2487763666693
 20
548.7313573369514
 30
0.0
 10
533.2512192262993
 20
548.7312620356929
 30
0.0
  0
LINE
  5
182
330
1F
100
AcDbEntity
  8
0
  6
Continuous
 62
     7
370
    25
100
AcDbLine
 10
533.0498954151
 20
548.5975615072
 30
0.0
 11
533.0675137857
 21
548.732611481
 31
0.0
  0
ELLIPSE
  5
183
330
1F
100
AcDbEntity
  8
0
  6
Continuous
 62
     7
370
    25
100
AcDbEllipse
 10
535.0141660736
 20
548.6156076006
 30
0.0
 11
7.499996523114078
 21
-0.4143631671934145
 31
0.0
210
0.0
220
0.0
230
1.0
 40
0.0174284859
 41
4.257467968461579
 42
4.448358626171661
  0
ELLIPSE
  5
184
330
1F
100
AcDbEntity
  8
0
  6
Continuous
 62
     7
370
    25
100
AcDbEllipse
 10
515.9939386015
 20
548.9880036603
 30
0.0
 11
35.70262504606001
 21
-1.972514619921981
 31
0.0
210
0.0
220
0.0
230
1.0
 40
0.0174284859
 41
1.115875314871793
 42
1.598075814737377
  0
ELLIPSE
  5
185
330
1F
100
AcDbEntity
  8
0
  6
Continuous
 62
     7
370
    25
100
AcDbEllipse
 10
514.672928686
 20
549.9382872096
 30
0.0
 11
14.49999327802038
 21
-0.801102123240753
 31
0.0
210
0.0
220
0.0
230
1.0
 40
0.0174284859
 41
4.003543131771933
 42
4.739668468327169
  0
LINE
  5
186
330
1F
100
AcDbEntity
  8
0
  6
Continuous
 62
     7
370
    25
100
AcDbLine
 10
505.223442265
 20
550.2678348698
 30
0.0
 11
505.223442265
 21
550.267933261
 31
0.0
  0
LINE
  5
187
330
1F
100
AcDbEntity
  8
0
  6
Continuous
 62
     7
370
    25
100
AcDbLine
 10
501.7584790556
 20
550.5087261488
 30
0.0
 11
505.223442265
 21
550.2678348698
 31
0.0
  0
ELLIPSE
  5
188
330
1F
100
AcDbEntity
  8
0
  6
Continuous
 62
     7
370
    25
100
AcDbEllipse
 10
502.707827596
 20
550.4765944578
 30
0.0
 11
1.499999304622861
 21
-0.08287263343856921
 31
0.0
210
0.0
220
0.0
230
1.0
 40
0.0174284859
 41
3.628361469809859
 42
4.028059990479056
  0
LINE
  5
189
330
1F
100
AcDbEntity
  8
0
  6
Continuous
 62
     7
370
    25
100
AcDbLine
 10
501.2127464139
 20
550.5643253609
 30
0.0
 11
501.2080560533
 21
550.5598869078
 31
0.0
  0
LINE
  5
18A
330
1F
100
AcDbEntity
  8
0
  6
Continuous
 62
     7
370
    25
100
AcDbLine
 10
549.7851276497
 20
547.8180675735
 30
0.0
 11
549.8181552165
 21
547.9053419159
 31
0.0
  0
SPLINE
  5
18B
330
1F
100
AcDbEntity
  8
0
  6
Continuous
 62
     7
370
    25
100
AcDbSpline
210
0.0
220
0.0
230
1.0
 70
     8
 71
     3
 72
     9
 73
     5
 74
     0
 42
0.00000001
 43
0.00000001
 40
0.0
 40
0.0
 40
0.0
 40
0.0
 40
0.5001021276704695
 40
1.0
 40
1.0
 40
1.0
 40
1.0
 10
552.6110674636116
 20
560.8637228170628
 30
0.0
 10
552.1821196879042
 20
560.5771971829743
 30
0.0
 10
551.3243993304537
 20
560.0042629396764
 30
0.0
 10
550.3021762018386
 20
559.8664841532224
 30
0.0
 10
549.7911690347978
 20
559.7976088310216
 30
0.0
  0
LINE
  5
18C
330
1F
100
AcDbEntity
  8
0
  6
Continuous
 62
     7
370
    25
100
AcDbLine
 10
552.6110674636
 20
560.8637228171
 30
0.0
 11
552.6442863297
 21
560.7980313701
 31
0.0
  0
SPLINE
  5
18D
330
1F
100
AcDbEntity
  8
0
  6
Continuous
 62
     7
370
    25
100
AcDbSpline
210
0.0
220
0.0
230
1.0
 70
     8
 71
     3
 72
     9
 73
     5
 74
     0
 42
0.00000001
 43
0.00000001
 40
0.0
 40
0.0
 40
0.0
 40
0.0
 40
0.400722737156528
 40
1.0
 40
1.0
 40
1.0
 40
1.0
 10
549.7851276497462
 20
547.8180675734784
 30
0.0
 10
550.1938137731555
 20
547.7696603114127
 30
0.0
 10
551.2136863321953
 20
547.6488604226689
 30
0.0
 10
552.0827623760212
 20
547.0887531493153
 30
0.0
 10
552.6035798887681
 20
546.7530935956412
 30
0.0
  0
LINE
  5
18E
330
1F
100
AcDbEntity
  8
0
  6
Continuous
 62
     7
370
    25
100
AcDbLine
 10
552.6442863297
 20
546.8336291015
 30
0.0
 11
552.6035798888
 21
546.7530935956
 31
0.0
  0
ARC
  5
18F
330
1F
100
AcDbEntity
  8
0
  6
Continuous
 62
     7
370
    25
100
AcDbCircle
 10
558.1689130435
 20
553.8158302358
 30
0.0
 40
8.975658044222143
100
AcDbArc
 50
65.1648853947
 51
128.2586979829
  0
LWPOLYLINE
  5
190
330
1F
100
AcDbEntity
  8
0
  6
Continuous
 62
     7
370
    25
100
AcDbPolyline
 90
        3
 70
   128
 43
0.0
 10
562.1042264677
 20
562.0664899591
 10
561.9996449036
 20
562.0002375478
 10
561.9387643609
 20
561.9614215815
  0
ARC
  5
191
330
1F
100
AcDbEntity
  8
0
  6
Continuous
 62
     7
370
    25
100
AcDbCircle
 10
558.1689130435
 20
553.8158302358
 30
0.0
 40
9.14112015109221
100
AcDbArc
 50
295.4997164176
 51
64.5002794289
  0
LWPOLYLINE
  5
192
330
1F
100
AcDbEntity
  8
0
  6
Continuous
 62
     7
370
    25
100
AcDbPolyline
 90
        3
 70
   128
 43
0.0
 10
561.9550572713
 20
545.6598328193
 10
561.9996449036
 20
545.6314229237
 10
562.104226468
 20
545.5651705123
  0
ARC
  5
193
330
1F
100
AcDbEntity
  8
0
  6
Continuous
 62
     7
370
    25
100
AcDbCircle
 10
558.1689130435
 20
553.8158302358
 30
0.0
 40
8.991950954660766
100
AcDbArc
 50
231.762407147
 51
294.9014811666
  0
LINE
  5
194
330
1F
100
AcDbEntity
  8
0
  6
Continuous
 62
     7
370
    25
100
AcDbLine
 10
500.7357017882
 20
551.0590499789
 30
0.0
 11
500.7403921489
 21
551.0634884319
 31
0.0
  0
LINE
  5
195
330
1F
100
AcDbEntity
  8
0
  6
Continuous
 62
     7
370
    25
100
AcDbLine
 10
500.7357017882
 20
556.5726104927
 30
0.0
 11
500.7357017882
 21
551.0590499789
 31
0.0
  0
LINE
  5
196
330
1F
100
AcDbEntity
  8
0
  6
Continuous
 62
     7
370
    25
100
AcDbLine
 10
500.7403921489
 20
556.5681720396
 30
0.0
 11
500.7357017882
 21
556.5726104927
 31
0.0
  0
ARC
  5
197
330
1F
100
AcDbEntity
  8
0
  6
Continuous
 62
     7
370
    25
100
AcDbCircle
 10
501.2358016758
 20
551.0592165642
 30
0.0
 40
0.5000999153469133
100
AcDbArc
 50
180.0190854617
 51
266.8195880753
  0
ARC
  5
198
330
1F
100
AcDbEntity
  8
0
  6
Continuous
 62
     7
370
    25
100
AcDbCircle
 10
501.2358016758
 20
556.5724439073
 30
0.0
 40
0.5000999153466861
100
AcDbArc
 50
93.1804119247
 51
179.9809145383
  0
LINE
  5
199
330
1F
100
AcDbEntity
  8
0
  6
Continuous
 62
     7
370
    25
100
AcDbLine
 10
501.7584790556
 20
550.5087261488
 30
0.0
 11
501.7513713248
 21
550.5090931854
 31
0.0
  0
LINE
  5
19A
330
1F
100
AcDbEntity
  8
0
  6
Continuous
 62
     7
370
    25
100
AcDbLine
 10
501.7584790556
 20
557.1229343228
 30
0.0
 11
501.7513713248
 21
557.1225672861
 31
0.0
  0
SPLINE
  5
19B
330
1F
100
AcDbEntity
  8
0
  6
Continuous
 62
     7
370
    25
100
AcDbSpline
210
0.0
220
0.0
230
1.0
 70
     8
 71
     3
 72
    12
 73
     8
 74
     0
 42
0.00000001
 43
0.00000001
 40
0.0
 40
0.0
 40
0.0
 40
0.0
 40
0.1662426524176545
 40
0.3368059756191297
 40
0.6054181071254586
 40
0.8801435087136193
 40
1.0
 40
1.0
 40
1.0
 40
1.0
 10
552.0468537961679
 20
565.4924906174607
 30
0.0
 10
552.6845353167039
 20
565.3370054419777
 30
0.0
 10
553.9764717935045
 20
565.0219940086225
 30
0.0
 10
556.1606581758539
 20
564.359028903624
 30
0.0
 10
558.5226325194137
 20
563.5068339868186
 30
0.0
 10
560.4881700813063
 20
562.6642053082065
 30
0.0
 10
561.6019450661018
 20
562.1263472155113
 30
0.0
 10
561.9402605442593
 20
561.9629697646841
 30
0.0
  0
LINE
  5
19C
330
1F
100
AcDbEntity
  8
0
  6
Continuous
 62
     7
370
    25
100
AcDbLine
 10
552.0468537962
 20
565.4924906175
 30
0.0
 11
552.0627118731
 21
565.561964149
 31
0.0
  0
ARC
  5
19D
330
1F
100
AcDbEntity
  8
0
  6
Continuous
 62
     7
370
    25
100
AcDbCircle
 10
541.3409336366
 20
518.5903293368
 30
0.0
 40
48.17977797259044
100
AcDbArc
 50
64.4718479123
 51
77.1419190681
  0
LWPOLYLINE
  5
19E
330
1F
100
AcDbEntity
  8
0
  6
Continuous
 62
     7
370
    25
100
AcDbPolyline
 90
        3
 70
   128
 43
0.0
 10
561.9402605443
 20
561.9629697647
 10
561.9996483946
 20
562.0004934683
 10
562.1042264674
 20
562.0664914981
  0
SPLINE
  5
19F
330
1F
100
AcDbEntity
  8
0
  6
Continuous
 62
     7
370
    25
100
AcDbSpline
210
0.0
220
0.0
230
1.0
 70
     8
 71
     3
 72
    11
 73
     7
 74
     0
 42
0.00000001
 43
0.00000001
 40
0.0
 40
0.0
 40
0.0
 40
0.0
 40
0.1345990676765959
 40
0.4126978815969493
 40
0.6969472592954598
 40
1.0
 40
1.0
 40
1.0
 40
1.0
 10
561.9395429673023
 20
561.9622281986101
 30
0.0
 10
561.5102369470541
 20
562.1531120837711
 30
0.0
 10
560.1939300203298
 20
562.738386383191
 30
0.0
 10
557.8181199694466
 20
563.3608542672146
 30
0.0
 10
554.7644305845655
 20
563.7373569497149
 30
0.0
 10
552.5734006762048
 20
563.7644982780479
 30
0.0
 10
551.4428111586668
 20
563.7785034274929
 30
0.0
  0
ARC
  5
1A0
330
1F
100
AcDbEntity
  8
0
  6
Continuous
 62
     7
370
    25
100
AcDbCircle
 10
555.9353421517
 20
563.1586793829
 30
0.0
 40
4.535087272518012
100
AcDbArc
 50
149.0284626407
 51
172.1446266983
  0
LINE
  5
1A1
330
1F
100
AcDbEntity
  8
0
  6
Continuous
 62
     7
370
    25
100
AcDbLine
 10
561.9402605443
 20
561.9629697647
 30
0.0
 11
561.9395429673
 21
561.9622281986
 31
0.0
  0
LINE
  5
1A2
330
1F
100
AcDbEntity
  8
0
  6
Continuous
 62
     7
370
    25
100
AcDbLine
 10
552.6110674636
 20
560.8637228171
 30
0.0
 11
550.4131955434
 21
563.6508396914
 31
0.0
  0
ARC
  5
1A3
330
1F
100
AcDbEntity
  8
0
  6
Continuous
 62
     7
370
    25
100
AcDbCircle
 10
558.1689130435
 20
553.8158302358
 30
0.0
 40
12.52511736202731
100
AcDbArc
 50
127.8583068702
 51
128.2586979829
  0
LINE
  5
1A4
330
1F
100
AcDbEntity
  8
0
  6
Continuous
 62
     7
370
    25
100
AcDbLine
 10
551.4428111587
 20
563.7785034275
 30
0.0
 11
550.4821128098
 21
563.7047971737
 31
0.0
  0
LINE
  5
1A5
330
1F
100
AcDbEntity
  8
0
  6
Continuous
 62
     7
370
    25
100
AcDbLine
 10
561.9387643609
 20
561.9614215815
 30
0.0
 11
561.9395429673
 21
561.9622281986
 31
0.0
  0
ARC
  5
1A6
330
1F
100
AcDbEntity
  8
0
  6
Continuous
 62
     7
370
    25
100
AcDbCircle
 10
540.2512413298
 20
559.0924296239
 30
0.0
 40
6.834138728230659
100
AcDbArc
 50
31.8771071303
 51
46.9488007428
  0
SPLINE
  5
1A7
330
1F
100
AcDbEntity
  8
0
  6
Continuous
 62
     7
370
    25
100
AcDbSpline
210
0.0
220
0.0
230
1.0
 70
     8
 71
     3
 72
    17
 73
    13
 74
     0
 42
0.00000001
 43
0.00000001
 40
0.0
 40
0.0
 40
0.0
 40
0.0
 40
0.2859834379244703
 40
0.5215922644122238
 40
0.759239901680938
 40
0.85214924050605
 40
0.9266708633836014
 40
0.9605058393195369
 40
0.9835417153308584
 40
0.9930790992390832
 40
0.9972256067114875
 40
1.0
 40
1.0
 40
1.0
 40
1.0
 10
546.0546741209189
 20
562.7015320047749
 30
0.0
 10
544.8258959371716
 20
562.1696638807545
 30
0.0
 10
542.5847829553408
 20
561.1996136527068
 30
0.0
 10
539.2458342684389
 20
560.1573829819222
 30
0.0
 10
536.7431789017321
 20
559.5395644209955
 30
0.0
 10
534.9728726176959
 20
559.1855891117774
 30
0.0
 10
534.1077517823587
 20
559.0308880771646
 30
0.0
 10
533.5821643530832
 20
558.9423880863329
 30
0.0
 10
533.348502239426
 20
558.9032763235102
 30
0.0
 10
533.2708520799365
 20
558.8889565567483
 30
0.0
 10
533.2547704257364
 20
558.885222804431
 30
0.0
 10
533.2537100377606
 20
558.884488963236
 30
0.0
 10
533.2532849582246
 20
558.8841947870649
 30
0.0
  0
SPLINE
  5
1A8
330
1F
100
AcDbEntity
  8
0
  6
Continuous
 62
     7
370
    25
100
AcDbSpline
210
0.0
220
0.0
230
1.0
 70
     8
 71
     3
 72
    10
 73
     6
 74
     0
 42
0.00000001
 43
0.00000001
 40
0.0
 40
0.0
 40
0.0
 40
0.0
 40
0.5975855365574454
 40
0.9790563563181981
 40
1.0
 40
1.0
 40
1.0
 40
1.0
 10
533.143259638537
 20
558.8933216844043
 30
0.0
 10
533.1407404991835
 20
558.8895823866778
 30
0.0
 10
533.1366132584029
 20
558.8834560951543
 30
0.0
 10
533.2109843849584
 20
558.8830795362978
 30
0.0
 10
533.2511923370628
 20
558.8841396152983
 30
0.0
 10
533.2532849582246
 20
558.8841947870649
 30
0.0
  0
SPLINE
  5
1A9
330
1F
100
AcDbEntity
  8
0
  6
Continuous
 62
     7
370
    25
100
AcDbSpline
210
0.0
220
0.0
230
1.0
 70
     8
 71
     3
 72
    14
 73
    10
 74
     0
 42
0.00000001
 43
0.00000001
 40
0.0
 40
0.0
 40
0.0
 40
0.0
 40
0.0129036569231464
 40
0.0519665716781148
 40
0.131889182426121
 40
0.2280032005552168
 40
0.4679440229400842
 40
0.7079115564493631
 40
0.9999999999999999
 40
0.9999999999999999
 40
0.9999999999999999
 40
0.9999999999999999
 10
533.143259638537
 20
558.8933216844043
 30
0.0
 10
533.1767282150013
 20
558.9011666584655
 30
0.0
 10
533.311515367834
 20
558.9327605243981
 30
0.0
 10
533.7507888128266
 20
559.0351425716918
 30
0.0
 10
534.5622162310524
 20
559.237544080509
 30
0.0
 10
536.215693412873
 20
559.7045947612751
 30
0.0
 10
538.5599834851167
 20
560.5420518206654
 30
0.0
 10
541.7050776616139
 20
561.9869920610157
 30
0.0
 10
543.7783763358063
 20
563.3423629438105
 30
0.0
 10
544.9165772185535
 20
564.0864353509602
 30
0.0
  0
LINE
  5
1AA
330
1F
100
AcDbEntity
  8
0
  6
Continuous
 62
     7
370
    25
100
AcDbLine
 10
547.495342483
 20
563.2256756868
 30
0.0
 11
549.5954249991
 21
563.3416666355
 31
0.0
  0
LINE
  5
1AB
330
1F
100
AcDbEntity
  8
0
  6
Continuous
 62
     7
370
    25
100
AcDbLine
 10
549.7911690348
 20
559.797608831
 30
0.0
 11
549.5954249991
 21
563.3416666355
 31
0.0
  0
LINE
  5
1AC
330
1F
100
AcDbEntity
  8
0
  6
Continuous
 62
     7
370
    25
100
AcDbLine
 10
547.495342483
 20
563.2256756868
 30
0.0
 11
546.0546741209
 21
562.7015320048
 31
0.0
  0
LWPOLYLINE
  5
1AD
330
1F
100
AcDbEntity
  8
0
  6
Continuous
 62
     7
370
    25
100
AcDbPolyline
 90
        4
 70
   128
 43
0.0
 10
533.1237328245
 20
559.0444172607
 10
533.1259774601
 20
559.0270591138
 10
533.1349524941
 20
558.9576263676
 10
533.1432596385
 20
558.8933216844
  0
LINE
  5
1AE
330
1F
100
AcDbEntity
  8
0
  6
Continuous
 62
     7
370
    25
100
AcDbLine
 10
534.9118571082
 20
559.473944764
 30
0.0
 11
533.1237328245
 21
559.0444172607
 31
0.0
  0
ARC
  5
1AF
330
1F
100
AcDbEntity
  8
0
  6
Continuous
 62
     7
370
    25
100
AcDbCircle
 10
526.7262987097
 20
589.8996383578
 30
0.0
 40
31.50755777528351
100
AcDbArc
 50
285.0579972479
 51
305.1719294169
  0
LINE
  5
1B0
330
1F
100
AcDbEntity
  8
0
  6
Continuous
 62
     7
370
    25
100
AcDbLine
 10
544.9165772186
 20
564.086435351
 30
0.0
 11
544.8756573323
 21
564.144503364
 31
0.0
  0
SPLINE
  5
1B1
330
1F
100
AcDbEntity
  8
0
  6
Continuous
 62
     7
370
    25
100
AcDbSpline
210
0.0
220
0.0
230
1.0
 70
     8
 71
     3
 72
     9
 73
     5
 74
     0
 42
0.00000001
 43
0.00000001
 40
0.0
 40
0.0
 40
0.0
 40
0.0
 40
0.4998978730609624
 40
1.0
 40
1.0
 40
1.0
 40
1.0
 10
549.5954249990926
 20
563.3416666354657
 30
0.0
 10
549.7436199149884
 20
563.3616329734679
 30
0.0
 10
550.0400702979204
 20
563.4015738075426
 30
0.0
 10
550.2888035266969
 20
563.5677397501132
 30
0.0
 10
550.4131955434486
 20
563.6508396914176
 30
0.0
  0
ARC
  5
1B2
330
1F
100
AcDbEntity
  8
0
  6
Continuous
 62
     7
370
    25
100
AcDbCircle
 10
533.0419243236
 20
559.3830231242
 30
0.0
 40
0.5000763403554349
100
AcDbArc
 50
273.1626296397
 51
281.6913635619
  0
SPLINE
  5
1B3
330
1F
100
AcDbEntity
  8
0
  6
Continuous
 62
     7
370
    25
100
AcDbSpline
210
0.0
220
0.0
230
1.0
 70
     8
 71
     3
 72
    13
 73
     9
 74
     0
 42
0.00000001
 43
0.00000001
 40
0.0
 40
0.0
 40
0.0
 40
0.0
 40
0.0460329529079877
 40
0.249242584819372
 40
0.4775225570272876
 40
0.7051721168687834
 40
0.8526808263814666
 40
1.0
 40
1.0
 40
1.0
 40
1.0
 10
561.9562915179496
 20
545.6585584756872
 30
0.0
 10
561.8279568659111
 20
545.5960495072507
 30
0.0
 10
561.1330968064258
 20
545.2575985523733
 30
0.0
 10
559.7734335718491
 20
544.6396211283443
 30
0.0
 10
557.7654609550307
 20
543.8291488016312
 30
0.0
 10
555.7509506931275
 20
543.1365240003665
 30
0.0
 10
553.8886674118821
 20
542.5862901986684
 30
0.0
 10
552.7962978486435
 20
542.3187740875626
 30
0.0
 10
552.2504641926365
 20
542.1851020210022
 30
0.0
  0
LINE
  5
1B4
330
1F
100
AcDbEntity
  8
0
  6
Continuous
 62
     7
370
    25
100
AcDbLine
 10
551.7970041147
 20
544.1327045502
 30
0.0
 11
552.2504641926
 21
542.185102021
 31
0.0
  0
SPLINE
  5
1B5
330
1F
100
AcDbEntity
  8
0
  6
Continuous
 62
     7
370
    25
100
AcDbSpline
210
0.0
220
0.0
230
1.0
 70
     8
 71
     3
 72
    13
 73
     9
 74
     0
 42
0.00000001
 43
0.00000001
 40
0.0
 40
0.0
 40
0.0
 40
0.0
 40
0.2574896950994368
 40
0.4890886589321025
 40
0.7206004760683485
 40
0.9447506334961274
 40
0.9460032291293288
 40
1.0
 40
1.0
 40
1.0
 40
1.0
 10
551.7970041147495
 20
544.1327045502162
 30
0.0
 10
552.7157296907374
 20
544.1046415861015
 30
0.0
 10
554.4608024778754
 20
544.051337404436
 30
0.0
 10
556.955367723789
 20
544.2159015232742
 30
0.0
 10
559.2710175297897
 20
544.6292755182842
 30
0.0
 10
560.7481261313937
 20
545.1288327048475
 30
0.0
 10
561.6193875759344
 20
545.5030755597775
 30
0.0
 10
561.7894339847574
 20
545.5820559782627
 30
0.0
 10
561.9556251568126
 20
545.6592457784373
 30
0.0
  0
LINE
  5
1B6
330
1F
100
AcDbEntity
  8
0
  6
Continuous
 62
     7
370
    25
100
AcDbLine
 10
561.9556251568
 20
545.6592457784
 30
0.0
 11
561.9562915179
 21
545.6585584757
 31
0.0
  0
ARC
  5
1B7
330
1F
100
AcDbEntity
  8
0
  6
Continuous
 62
     7
370
    25
100
AcDbCircle
 10
541.3409336366
 20
589.0413311348
 30
0.0
 40
48.10950076354631
100
AcDbArc
 50
282.8580809319
 51
283.1066633214
  0
LWPOLYLINE
  5
1B8
330
1F
100
AcDbEntity
  8
0
  6
Continuous
 62
     7
370
    25
100
AcDbPolyline
 90
        3
 70
   128
 43
0.0
 10
561.9562915179
 20
545.6585584757
 10
561.9996483946
 20
545.6311670033
 10
562.1042264677
 20
545.5651689732
  0
ARC
  5
1B9
330
1F
100
AcDbEntity
  8
0
  6
Continuous
 62
     7
370
    25
100
AcDbCircle
 10
541.3409336366
 20
589.0413311348
 30
0.0
 40
48.17977797259046
100
AcDbArc
 50
282.8580809319
 51
295.5281512988
  0
LINE
  5
1BA
330
1F
100
AcDbEntity
  8
0
  6
Continuous
 62
     7
370
    25
100
AcDbLine
 10
552.0470726012
 20
542.1382112792
 30
0.0
 11
552.0627118731
 21
542.0696963225
 31
0.0
  0
LINE
  5
1BB
330
1F
100
AcDbEntity
  8
0
  6
Continuous
 62
     7
370
    25
100
AcDbLine
 10
549.7851276497
 20
547.8180675735
 30
0.0
 11
549.6417658208
 21
545.222419604
 31
0.0
  0
LINE
  5
1BC
330
1F
100
AcDbEntity
  8
0
  6
Continuous
 62
     7
370
    25
100
AcDbLine
 10
549.6417658208
 20
545.222419604
 30
0.0
 11
545.691684799
 21
545.4405889577
 31
0.0
  0
SPLINE
  5
1BD
330
1F
100
AcDbEntity
  8
0
  6
Continuous
 62
     7
370
    25
100
AcDbSpline
210
0.0
220
0.0
230
1.0
 70
     8
 71
     3
 72
    17
 73
    13
 74
     0
 42
0.00000001
 43
0.00000001
 40
0.0
 40
0.0
 40
0.0
 40
0.0
 40
0.0068264277560524
 40
0.0088450004853816
 40
0.0223994102884418
 40
0.0309598270239211
 40
0.0563228448230689
 40
0.1198844474831666
 40
0.1957493698893797
 40
0.555871606010061
 40
0.7769840750939091
 40
1.0
 40
1.0
 40
1.0
 40
1.0
 10
533.2512192262993
 20
548.7312620356929
 30
0.0
 10
533.2548393714685
 20
548.7302238526481
 30
0.0
 10
533.2595299925259
 20
548.728878679175
 30
0.0
 10
533.3030627051573
 20
548.7212886910964
 30
0.0
 10
533.377594629117
 20
548.7095371843656
 30
0.0
 10
533.5444268674006
 20
548.6838182887847
 30
0.0
 10
533.9260031136523
 20
548.6253037161636
 30
0.0
 10
534.6089026399578
 20
548.5161066602031
 30
0.0
 10
536.7139184409901
 20
548.1489352445666
 30
0.0
 10
539.5220447093927
 20
547.5157683422107
 30
0.0
 10
542.9216103946502
 20
546.5033224657352
 30
0.0
 10
544.7656921946125
 20
545.7958441693678
 30
0.0
 10
545.6916847989727
 20
545.4405889576983
 30
0.0
  0
LINE
  5
1BE
330
1F
100
AcDbEntity
  8
0
  6
Continuous
 62
     7
370
    25
100
AcDbLine
 10
545.691684799
 20
545.4405889577
 30
0.0
 11
544.5622093815
 21
543.7904171681
 31
0.0
  0
SPLINE
  5
1BF
330
1F
100
AcDbEntity
  8
0
  6
Continuous
 62
     7
370
    25
100
AcDbSpline
210
0.0
220
0.0
230
1.0
 70
     8
 71
     3
 72
    15
 73
    11
 74
     0
 42
0.00000001
 43
0.00000001
 40
0.0
 40
0.0
 40
0.0
 40
0.0
 40
0.2255198391625377
 40
0.4515645943751947
 40
0.6337799820516974
 40
0.8158790324473547
 40
0.8946729146060268
 40
0.9638048440471935
 40
0.9940832206369723
 40
0.9999999999999999
 40
0.9999999999999999
 40
0.9999999999999999
 40
0.9999999999999999
 10
544.5622093814807
 20
543.7904171680595
 30
0.0
 10
543.7167608406268
 20
544.335424837401
 30
0.0
 10
542.0238959076189
 20
545.4267087264435
 30
0.0
 10
539.5475797139395
 20
546.6438121160362
 30
0.0
 10
537.2191687992282
 20
547.5747119244713
 30
0.0
 10
535.4786893094059
 20
548.1305024692848
 30
0.0
 10
534.2210204530362
 20
548.4670552962492
 30
0.0
 10
533.5768875551239
 20
548.6224024025737
 30
0.0
 10
533.2489422650418
 20
548.6979558008411
 30
0.0
 10
533.1564048214177
 20
548.7194765088911
 30
0.0
 10
533.1412778348823
 20
548.7229944735999
 30
0.0
  0
SPLINE
  5
1C0
330
1F
100
AcDbEntity
  8
0
  6
Continuous
 62
     7
370
    25
100
AcDbSpline
210
0.0
220
0.0
230
1.0
 70
     8
 71
     3
 72
    11
 73
     7
 74
     0
 42
0.00000001
 43
0.00000001
 40
0.0
 40
0.0
 40
0.0
 40
0.0
 40
0.0195561212295927
 40
0.1681891996744411
 40
0.5898876540792777
 40
1.0
 40
1.0
 40
1.0
 40
1.0
 10
533.2512192262993
 20
548.7312620356929
 30
0.0
 10
533.2492605131514
 20
548.7313201494086
 30
0.0
 10
533.2324149233285
 20
548.7318199468494
 30
0.0
 10
533.1805143595694
 20
548.7326663642629
 30
0.0
 10
533.1312297275039
 20
548.7305770657408
 30
0.0
 10
533.1379597125803
 20
548.7254984245573
 30
0.0
 10
533.1412778348823
 20
548.7229944735999
 30
0.0
  0
LINE
  5
1C1
330
1F
100
AcDbEntity
  8
0
  6
Continuous
 62
     7
370
    25
100
AcDbLine
 10
552.6035798888
 20
546.7530935956
 30
0.0
 11
550.9946228955
 21
544.7112320947
 31
0.0
  0
LINE
  5
1C2
330
1F
100
AcDbEntity
  8
0
  6
Continuous
 62
     7
370
    25
100
AcDbLine
 10
561.9556251568
 20
545.6592457784
 30
0.0
 11
561.9550572713
 21
545.6598328193
 31
0.0
  0
ARC
  5
1C3
330
1F
100
AcDbEntity
  8
0
  6
Continuous
 62
     7
370
    25
100
AcDbCircle
 10
558.1689130435
 20
553.8158302358
 30
0.0
 40
11.59155496206734
100
AcDbArc
 50
231.762407147
 51
236.6533814372
  0
LWPOLYLINE
  5
1C4
330
1F
100
AcDbEntity
  8
0
  6
Continuous
 62
     7
370
    25
100
AcDbPolyline
 90
        4
 70
   128
 43
0.0
 10
533.1412778349
 20
548.7229944736
 10
533.1390355886
 20
548.7056362186
 10
533.1300631057
 20
548.636203357
 10
533.1237328245
 20
548.5872432109
  0
ARC
  5
1C5
330
1F
100
AcDbEntity
  8
0
  6
Continuous
 62
     7
370
    25
100
AcDbCircle
 10
526.7262987097
 20
517.7320221138
 30
0.0
 40
31.57783498432746
100
AcDbArc
 50
54.8280705831
 51
55.6099480104
  0
LINE
  5
1C6
330
1F
100
AcDbEntity
  8
0
  6
Continuous
 62
     7
370
    25
100
AcDbLine
 10
544.9161392472
 20
543.5446036104
 30
0.0
 11
544.8756573323
 21
543.4871571076
 31
0.0
  0
ARC
  5
1C7
330
1F
100
AcDbEntity
  8
0
  6
Continuous
 62
     7
370
    25
100
AcDbCircle
 10
526.7262987097
 20
517.7320221138
 30
0.0
 40
31.50755777528326
100
AcDbArc
 50
54.8280705831
 51
74.9420027521
  0
LINE
  5
1C8
330
1F
100
AcDbEntity
  8
0
  6
Continuous
 62
     7
370
    25
100
AcDbLine
 10
533.1237328245
 20
548.5872432109
 30
0.0
 11
534.9118571082
 21
548.1577157076
 31
0.0
  0
LINE
  5
1C9
330
1F
100
AcDbEntity
  8
0
  6
Continuous
 62
     7
370
    25
100
AcDbLine
 10
533.0498954151
 20
559.0340989644
 30
0.0
 11
533.1237328245
 21
559.0444172607
 31
0.0
  0
SPLINE
  5
1CA
330
1F
100
AcDbEntity
  8
0
  6
Continuous
 62
     7
370
    25
100
AcDbSpline
210
0.0
220
0.0
230
1.0
 70
     8
 71
     3
 72
    10
 73
     6
 74
     0
 42
0.00000001
 43
0.00000001
 40
0.0
 40
0.0
 40
0.0
 40
0.0
 40
0.0490769085761659
 40
0.599580584366531
 40
1.0
 40
1.0
 40
1.0
 40
1.0
 10
550.9946228955095
 20
544.7112320946649
 30
0.0
 10
550.9756753571404
 20
544.7258548302663
 30
0.0
 10
550.744190195234
 20
544.9045031724553
 30
0.0
 10
550.2983164204167
 20
545.1385551658766
 30
0.0
 10
549.8363098435321
 20
545.1975695388942
 30
0.0
 10
549.6417658207785
 20
545.2224196040265
 30
0.0
  0
ARC
  5
1CB
330
1F
100
AcDbEntity
  8
0
  6
Continuous
 62
     7
370
    25
100
AcDbCircle
 10
533.0399244339
 20
548.2332967766
 30
0.0
 40
0.5000763405278212
100
AcDbArc
 50
78.306520338
 51
86.8373700344
  0
SPLINE
  5
1CC
330
1F
100
AcDbEntity
  8
0
  6
Continuous
 62
     7
370
    25
100
AcDbSpline
210
0.0
220
0.0
230
1.0
 70
     8
 71
     3
 72
     9
 73
     5
 74
     0
 42
0.00000001
 43
0.00000001
 40
0.0
 40
0.0
 40
0.0
 40
0.0
 40
0.8458911907785839
 40
1.0
 40
1.0
 40
1.0
 40
1.0
 10
533.1237328244717
 20
548.5872432109137
 30
0.0
 10
533.1028922283607
 20
548.591058017906
 30
0.0
 10
533.078254785226
 20
548.5955678260632
 30
0.0
 10
533.0536822580497
 20
548.5972952898144
 30
0.0
 10
533.0498954151469
 20
548.597561507196
 30
0.0
  0
LINE
  5
1CD
330
1F
100
AcDbEntity
  8
0
  6
Continuous
 62
     7
370
    25
100
AcDbLine
 10
515.0544752175
 20
549.6638173605
 30
0.0
 11
515.0549332373
 21
549.663792274
 31
0.0
  0
LINE
  5
1CE
330
1F
100
AcDbEntity
  8
0
  6
Continuous
 62
     7
370
    25
100
AcDbLine
 10
544.9165772186
 20
564.086435351
 30
0.0
 11
546.7553180679
 21
565.0834015866
 31
0.0
  0
LINE
  5
1CF
330
1F
100
AcDbEntity
  8
0
  6
Continuous
 62
     7
370
    25
100
AcDbLine
 10
547.495342483
 20
563.2256756868
 30
0.0
 11
546.7553180679
 21
565.0834015866
 31
0.0
  0
LINE
  5
1D0
330
1F
100
AcDbEntity
  8
0
  6
Continuous
 62
     7
370
    25
100
AcDbLine
 10
550.4821128098
 20
563.7047971737
 30
0.0
 11
550.6039465564
 21
565.7007776827
 31
0.0
  0
LINE
  5
1D1
330
1F
100
AcDbEntity
  8
0
  6
Continuous
 62
     7
370
    25
100
AcDbLine
 10
550.6039465564
 20
565.7007776827
 30
0.0
 11
552.0468537962
 21
565.4924906175
 31
0.0
  0
ARC
  5
1D2
330
1F
100
AcDbEntity
  8
0
  6
Continuous
 62
     7
370
    25
100
AcDbCircle
 10
550.0598978383
 20
550.84393576
 30
0.0
 40
6.929946387144392
100
AcDbArc
 50
234.8280705831
 51
282.8580809319
  0
LINE
  5
1D3
330
1F
100
AcDbEntity
  8
0
  6
Continuous
 62
     7
370
    25
100
AcDbLine
 10
551.6020665962
 20
544.0877628455
 30
0.0
 11
552.0470726012
 21
542.1382112792
 31
0.0
  0
ARC
  5
1D4
330
1F
100
AcDbEntity
  8
0
  6
Continuous
 62
     7
370
    25
100
AcDbCircle
 10
550.0598978383
 20
550.84393576
 30
0.0
 40
8.929641777457071
100
AcDbArc
 50
234.8280705831
 51
282.8580809319
  0
LINE
  5
1D5
330
1F
100
AcDbEntity
  8
0
  6
Continuous
 62
     7
370
    25
100
AcDbLine
 10
546.0680275983
 20
545.1792090308
 30
0.0
 11
544.9161392472
 21
543.5446036104
 31
0.0
  0
ARC
  5
1D6
330
1F
100
AcDbEntity
  8
0
  6
Continuous
 62
     7
370
    25
100
AcDbCircle
 10
550.0598978383
 20
556.7877247116
 30
0.0
 40
6.929946387144304
100
AcDbArc
 50
86.5070253286
 51
111.7198462835
  0
ARC
  5
1D7
330
1F
100
AcDbEntity
  8
0
  6
Continuous
 62
     7
370
    25
100
AcDbCircle
 10
550.0598978383
 20
556.7877247116
 30
0.0
 40
8.929641777457107
100
AcDbArc
 50
86.5070253286
 51
111.7198462835
  0
ARC
  5
1D8
330
1F
100
AcDbEntity
  8
0
  6
Continuous
 62
     7
370
    25
100
AcDbCircle
 10
541.3409336366
 20
589.0413311348
 30
0.0
 40
46.10980537323355
100
AcDbArc
 50
282.8580809319
 51
283.1066633214
  0
ARC
  5
1D9
330
1F
100
AcDbEntity
  8
0
  6
Continuous
 62
     7
370
    25
100
AcDbCircle
 10
526.7262987097
 20
517.7320221138
 30
0.0
 40
33.57753037464025
100
AcDbArc
 50
54.8280705831
 51
55.6099480104
  0
ARC
  5
1DA
330
1F
100
AcDbEntity
  8
0
  6
Continuous
 62
     7
370
    25
100
AcDbCircle
 10
550.0598978383
 20
556.7877247116
 30
0.0
 40
8.999918986501177
100
AcDbArc
 50
77.1419190681
 51
125.1719294169
  0
ARC
  5
1DB
330
1F
100
AcDbEntity
  8
0
  6
Continuous
 62
     7
370
    25
100
AcDbCircle
 10
550.0598978383
 20
550.84393576
 30
0.0
 40
8.999918986501271
100
AcDbArc
 50
234.8280705831
 51
282.8580809319
  0
SPLINE
  5
1DC
330
1F
100
AcDbEntity
  8
0
  6
Continuous
 62
     7
370
    25
100
AcDbSpline
210
0.0
220
0.0
230
1.0
 70
     8
 71
     3
 72
    11
 73
     7
 74
     0
 42
0.00000001
 43
0.00000001
 40
0.0
 40
0.0
 40
0.0
 40
0.0
 40
0.2200386424382255
 40
0.6637869905998169
 40
0.8890365590789576
 40
1.0
 40
1.0
 40
1.0
 40
1.0
 10
768.0465031880703
 20
559.8361485427407
 30
0.0
 10
768.2507246510718
 20
559.5711299314819
 30
0.0
 10
768.8667962139554
 20
558.7716526011772
 30
0.0
 10
769.3903455649726
 20
557.5084833306493
 30
0.0
 10
769.6419747647336
 20
556.3419135173252
 30
0.0
 10
769.6212675700114
 20
555.8306337186658
 30
0.0
 10
769.6144333859853
 20
555.6618913911935
 30
0.0
  0
SPLINE
  5
1DD
330
1F
100
AcDbEntity
  8
0
  6
Continuous
 62
     7
370
    25
100
AcDbSpline
210
0.0
220
0.0
230
1.0
 70
     8
 71
     3
 72
     9
 73
     5
 74
     0
 42
0.00000001
 43
0.00000001
 40
0.0
 40
0.0
 40
0.0
 40
0.0
 40
0.9209630919903056
 40
1.0
 40
1.0
 40
1.0
 40
1.0
 10
769.6865455513176
 20
559.5158252671072
 30
0.0
 10
769.1721240134448
 20
559.5726523260258
 30
0.0
 10
768.61355489993
 20
559.6343562742218
 30
0.0
 10
768.0880383882607
 20
559.8213677351097
 30
0.0
 10
768.0465031880703
 20
559.8361485427407
 30
0.0
  0
SPLINE
  5
1DE
330
1F
100
AcDbEntity
  8
0
  6
Continuous
 62
     7
370
    25
100
AcDbSpline
210
0.0
220
0.0
230
1.0
 70
     8
 71
     3
 72
    10
 73
     6
 74
     0
 42
0.00000001
 43
0.00000001
 40
0.0
 40
0.0
 40
0.0
 40
0.0
 40
0.2596150688488836
 40
0.629760644481066
 40
0.9999999999999999
 40
0.9999999999999999
 40
0.9999999999999999
 40
0.9999999999999999
 10
816.8617065052548
 20
556.9242676981181
 30
0.0
 10
812.7838862865317
 20
557.2240218352166
 30
0.0
 10
802.8921234531665
 20
557.9511497303806
 30
0.0
 10
787.1625507704933
 20
558.7769966002708
 30
0.0
 10
775.5123725092286
 20
559.2695282495365
 30
0.0
 10
769.6865455513176
 20
559.5158252671072
 30
0.0
  0
SPLINE
  5
1DF
330
1F
100
AcDbEntity
  8
0
  6
Continuous
 62
     7
370
    25
100
AcDbSpline
210
0.0
220
0.0
230
1.0
 70
     8
 71
     3
 72
    11
 73
     7
 74
     0
 42
0.00000001
 43
0.00000001
 40
0.0
 40
0.0
 40
0.0
 40
0.0
 40
0.061464119541392
 40
0.4999988937835377
 40
0.9375097801832794
 40
1.0
 40
1.0
 40
1.0
 40
1.0
 10
816.8617065052546
 20
551.1982353511162
 30
0.0
 10
816.873375701457
 20
551.3146923235682
 30
0.0
 10
816.9683023877265
 20
552.2620475908994
 30
0.0
 10
817.0520052149927
 20
554.0592917893476
 30
0.0
 10
816.9684352914724
 20
555.8584898135886
 30
0.0
 10
816.8735635864272
 20
556.8058646380216
 30
0.0
 10
816.8617065052548
 20
556.9242676981181
 30
0.0
  0
SPLINE
  5
1E0
330
1F
100
AcDbEntity
  8
0
  6
Continuous
 62
     7
370
    25
100
AcDbSpline
210
0.0
220
0.0
230
1.0
 70
     8
 71
     3
 72
    11
 73
     7
 74
     0
 42
0.00000001
 43
0.00000001
 40
0.0
 40
0.0
 40
0.0
 40
0.0
 40
0.259458927729189
 40
0.6296002946237427
 40
0.8147836738016297
 40
1.0
 40
1.0
 40
1.0
 40
1.0
 10
769.6865455513176
 20
548.606677782129
 30
0.0
 10
773.7695462006626
 20
548.7721763685499
 30
0.0
 10
783.6773124674671
 20
549.1737734910015
 30
0.0
 10
796.492449426428
 20
549.8520263070249
 30
0.0
 10
808.1367216926876
 20
550.529447199237
 30
0.0
 10
813.9532057758203
 20
550.9752927478493
 30
0.0
 10
816.8617065052546
 20
551.1982353511162
 30
0.0
  0
SPLINE
  5
1E1
330
1F
100
AcDbEntity
  8
0
  6
Continuous
 62
     7
370
    25
100
AcDbSpline
210
0.0
220
0.0
230
1.0
 70
     8
 71
     3
 72
     9
 73
     5
 74
     0
 42
0.00000001
 43
0.00000001
 40
0.0
 40
0.0
 40
0.0
 40
0.0
 40
0.0790369080192139
 40
1.0
 40
1.0
 40
1.0
 40
1.0
 10
768.0465031880711
 20
548.2863545064956
 30
0.0
 10
768.0880383882665
 20
548.3011353141284
 30
0.0
 10
768.6135548999357
 20
548.4881467750163
 30
0.0
 10
769.1721240134502
 20
548.5498507232116
 30
0.0
 10
769.6865455513176
 20
548.606677782129
 30
0.0
  0
SPLINE
  5
1E2
330
1F
100
AcDbEntity
  8
0
  6
Continuous
 62
     7
370
    25
100
AcDbSpline
210
0.0
220
0.0
230
1.0
 70
     8
 71
     3
 72
    11
 73
     7
 74
     0
 42
0.00000001
 43
0.00000001
 40
0.0
 40
0.0
 40
0.0
 40
0.0
 40
0.0728838064943292
 40
0.4140719411596028
 40
0.9209668754550567
 40
1.0
 40
1.0
 40
1.0
 40
1.0
 10
769.6144333859816
 20
552.4606116580575
 30
0.0
 10
769.6221485351192
 20
552.3501652238185
 30
0.0
 10
769.6659803124838
 20
551.7226901834875
 30
0.0
 10
769.3214886010458
 20
550.3396981530225
 30
0.0
 10
768.6817992515596
 20
549.0697666352448
 30
0.0
 10
768.1220105021266
 20
548.3794659690719
 30
0.0
 10
768.0465031880711
 20
548.2863545064956
 30
0.0
  0
SPLINE
  5
1E3
330
1F
100
AcDbEntity
  8
0
  6
Continuous
 62
     7
370
    25
100
AcDbSpline
210
0.0
220
0.0
230
1.0
 70
     8
 71
     3
 72
    10
 73
     6
 74
     0
 42
0.00000001
 43
0.00000001
 40
0.0
 40
0.0
 40
0.0
 40
0.0
 40
0.3880207377811385
 40
0.9790637766506849
 40
1.0
 40
1.0
 40
1.0
 40
1.0
 10
769.6144333859853
 20
555.6618913911935
 30
0.0
 10
769.5411188552259
 20
555.2510515293377
 30
0.0
 10
769.3561297699025
 20
554.2144099594894
 30
0.0
 10
769.4518366957337
 20
553.1206406379181
 30
0.0
 10
769.6090548469815
 20
552.4824447691988
 30
0.0
 10
769.6144333859816
 20
552.4606116580575
 30
0.0
  0
ARC
  5
1E4
330
1F
100
AcDbEntity
  8
0
  6
Continuous
 62
     7
370
    25
100
AcDbCircle
 10
761.3689130435
 20
554.0612515246
 30
0.0
 40
8.399443654264605
100
AcDbArc
 50
10.985757993
 51
349.0142420071
  0
SPLINE
  5
1E5
330
1F
100
AcDbEntity
  8
0
  6
Continuous
 62
     7
370
    25
100
AcDbSpline
210
0.0
220
0.0
230
1.0
 70
     8
 71
     3
 72
     9
 73
     5
 74
     0
 42
0.00000001
 43
0.00000001
 40
0.0
 40
0.0
 40
0.0
 40
0.0
 40
0.681792342127431
 40
1.0
 40
1.0
 40
1.0
 40
1.0
 10
768.0465031880711
 20
548.2863545064956
 30
0.0
 10
767.9042396274281
 20
548.0964441513904
 30
0.0
 10
767.6955784972677
 20
547.817898407517
 30
0.0
 10
767.4661526633872
 20
547.5849940345739
 30
0.0
 10
767.3931476061327
 20
547.5108820795515
 30
0.0
  0
ARC
  5
1E6
330
1F
100
AcDbEntity
  8
0
  6
Continuous
 62
     7
370
    25
100
AcDbCircle
 10
761.3689130435
 20
554.0612515246
 30
0.0
 40
8.899367501836297
100
AcDbArc
 50
47.3959191961
 51
312.6040808039
  0
LINE
  5
1E7
330
1F
100
AcDbEntity
  8
0
  6
Continuous
 62
     7
370
    25
100
AcDbLine
 10
767.3931476061
 20
560.6116209697
 30
0.0
 11
768.0465031881
 21
559.8361485427
 31
0.0
  0
SPLINE
  5
1E8
330
1F
100
AcDbEntity
  8
0
  6
Continuous
 62
     7
370
    25
100
AcDbSpline
210
0.0
220
0.0
230
1.0
 70
     8
 71
     3
 72
    10
 73
     6
 74
     0
 42
0.00000001
 43
0.00000001
 40
0.0
 40
0.0
 40
0.0
 40
0.0
 40
0.3702896688583046
 40
0.7405318123903298
 40
0.9999999999999999
 40
0.9999999999999999
 40
0.9999999999999999
 40
0.9999999999999999
 10
816.8732259684331
 20
550.755375770283
 30
0.0
 10
811.0531621222146
 20
550.4351847557567
 30
0.0
 10
799.413781413711
 20
549.7948438220511
 30
0.0
 10
783.6949130069364
 20
548.9256094901878
 30
0.0
 10
773.7977391909266
 20
548.3768684885787
 30
0.0
 10
769.7196708704623
 20
548.1507632047469
 30
0.0
  0
ARC
  5
1E9
330
1F
100
AcDbEntity
  8
0
  6
Continuous
 62
     7
370
    25
100
AcDbCircle
 10
776.9347600779
 20
548.9041495714
 30
0.0
 40
7.254316183443007
100
AcDbArc
 50
182.3501399449
 51
185.9611177313
  0
ARC
  5
1EA
330
1F
100
AcDbEntity
  8
0
  6
Continuous
 62
     7
370
    25
100
AcDbCircle
 10
812.6127034273
 20
550.8661325943
 30
0.0
 40
4.261961918839622
100
AcDbArc
 50
358.5108705386
 51
4.4691613065
  0
SPLINE
  5
1EB
330
1F
100
AcDbEntity
  8
0
  6
Continuous
 62
     7
370
    25
100
AcDbSpline
210
0.0
220
0.0
230
1.0
 70
     8
 71
     3
 72
    10
 73
     6
 74
     0
 42
0.00000001
 43
0.00000001
 40
0.0
 40
0.0
 40
0.0
 40
0.0
 40
0.3702717503651152
 40
0.7405122151371749
 40
1.0
 40
1.0
 40
1.0
 40
1.0
 10
769.7196708704623
 20
559.9717398444893
 30
0.0
 10
775.5393429321316
 20
559.6492113588214
 30
0.0
 10
787.1781953304285
 20
559.0041816390783
 30
0.0
 10
802.8973349143831
 20
558.1353671515994
 30
0.0
 10
812.7948323380818
 20
557.5913122408326
 30
0.0
 10
816.8732259684297
 20
557.3671272789535
 30
0.0
  0
ARC
  5
1EC
330
1F
100
AcDbEntity
  8
0
  6
Continuous
 62
     7
370
    25
100
AcDbCircle
 10
812.6127034244
 20
557.256370455
 30
0.0
 40
4.261961921722683
100
AcDbArc
 50
355.530838696
 51
1.4891294599
  0
ARC
  5
1ED
330
1F
100
AcDbEntity
  8
0
  6
Continuous
 62
     7
370
    25
100
AcDbCircle
 10
776.9347600781
 20
559.2183534778
 30
0.0
 40
7.254316183600001
100
AcDbArc
 50
174.0388822687
 51
177.6498600551
  0
SPLINE
  5
1EE
330
1F
100
AcDbEntity
  8
0
  6
Continuous
 62
     7
370
    25
100
AcDbSpline
210
0.0
220
0.0
230
1.0
 70
     8
 71
     3
 72
    12
 73
     8
 74
     0
 42
0.00000001
 43
0.00000001
 40
0.0
 40
0.0
 40
0.0
 40
0.0
 40
0.1224290494151348
 40
0.3423522449770467
 40
0.5614228816909441
 40
0.7807229538533574
 40
1.0
 40
1.0
 40
1.0
 40
1.0
 10
818.7974339381024
 20
556.8135933284619
 30
0.0
 10
818.7884298622383
 20
556.8159520129028
 30
0.0
 10
818.7632514785073
 20
556.8225476772276
 30
0.0
 10
818.5472637948625
 20
556.8395556449668
 30
0.0
 10
818.1113656651336
 20
556.8650666191212
 30
0.0
 10
817.5274400517031
 20
556.8946188016805
 30
0.0
 10
817.0836099201351
 20
556.9143850785595
 30
0.0
 10
816.8617065052548
 20
556.9242676981181
 30
0.0
  0
SPLINE
  5
1EF
330
1F
100
AcDbEntity
  8
0
  6
Continuous
 62
     7
370
    25
100
AcDbSpline
210
0.0
220
0.0
230
1.0
 70
     8
 71
     3
 72
    11
 73
     7
 74
     0
 42
0.00000001
 43
0.00000001
 40
0.0
 40
0.0
 40
0.0
 40
0.0
 40
0.0800485240044433
 40
0.5000005853538798
 40
0.9209248322279645
 40
1.0
 40
1.0
 40
1.0
 40
1.0
 10
818.7974339381024
 20
556.8135933284619
 30
0.0
 10
818.7971476936882
 20
556.6673489033612
 30
0.0
 10
818.7953597484836
 20
555.7538742445281
 30
0.0
 10
818.7941240516536
 20
554.0594646567696
 30
0.0
 10
818.7953617497485
 20
552.3668378049149
 30
0.0
 10
818.7971509717164
 20
551.4533744292711
 30
0.0
 10
818.7974339381024
 20
551.3089097207799
 30
0.0
  0
SPLINE
  5
1F0
330
1F
100
AcDbEntity
  8
0
  6
Continuous
 62
     7
370
    25
100
AcDbSpline
210
0.0
220
0.0
230
1.0
 70
     8
 71
     3
 72
    12
 73
     8
 74
     0
 42
0.00000001
 43
0.00000001
 40
0.0
 40
0.0
 40
0.0
 40
0.0
 40
0.1130367476169362
 40
0.3328594693548023
 40
0.5544127937945006
 40
0.7774207483513244
 40
1.0
 40
1.0
 40
1.0
 40
1.0
 10
816.8617065052546
 20
551.1982353511162
 30
0.0
 10
816.9757773452416
 20
551.2032505968176
 30
0.0
 10
817.3116819078494
 20
551.2180189978734
 30
0.0
 10
817.8457497642441
 20
551.2436112019827
 30
0.0
 10
818.3622754021313
 20
551.2714864648538
 30
0.0
 10
818.7191701192859
 20
551.2949283384442
 30
0.0
 10
818.7713627368042
 20
551.3042522502038
 30
0.0
 10
818.7974339381024
 20
551.3089097207799
 30
0.0
  0
SPLINE
  5
1F1
330
1F
100
AcDbEntity
  8
0
  6
Continuous
 62
     7
370
    25
100
AcDbSpline
210
0.0
220
0.0
230
1.0
 70
     8
 71
     3
 72
     9
 73
     5
 74
     0
 42
0.00000001
 43
0.00000001
 40
0.0
 40
0.0
 40
0.0
 40
0.0
 40
0.500010612381544
 40
1.0
 40
1.0
 40
1.0
 40
1.0
 10
766.8935397572898
 20
561.043452658931
 30
0.0
 10
767.3232611241107
 20
560.7556121208377
 30
0.0
 10
768.1826856166713
 20
560.1799432630863
 30
0.0
 10
769.2073497019495
 20
560.0411400019996
 30
0.0
 10
769.7196708704623
 20
559.9717398444893
 30
0.0
  0
SPLINE
  5
1F2
330
1F
100
AcDbEntity
  8
0
  6
Continuous
 62
     7
370
    25
100
AcDbSpline
210
0.0
220
0.0
230
1.0
 70
     8
 71
     3
 72
     9
 73
     5
 74
     0
 42
0.00000001
 43
0.00000001
 40
0.0
 40
0.0
 40
0.0
 40
0.0
 40
0.9838702326459385
 40
1.0
 40
1.0
 40
1.0
 40
1.0
 10
767.3931476061326
 20
560.6116209696846
 30
0.0
 10
767.2318067911981
 20
560.7564533827036
 30
0.0
 10
767.0678209223496
 20
560.9036602075604
 30
0.0
 10
766.8963062490677
 20
561.0412336316069
 30
0.0
 10
766.8935397572898
 20
561.043452658931
 30
0.0
  0
SPLINE
  5
1F3
330
1F
100
AcDbEntity
  8
0
  6
Continuous
 62
     7
370
    25
100
AcDbSpline
210
0.0
220
0.0
230
1.0
 70
     8
 71
     3
 72
     9
 73
     5
 74
     0
 42
0.00000001
 43
0.00000001
 40
0.0
 40
0.0
 40
0.0
 40
0.0
 40
0.5055561057107305
 40
1.0
 40
1.0
 40
1.0
 40
1.0
 10
769.7196708704623
 20
548.1507632047469
 30
0.0
 10
769.2016113531294
 20
548.0801071704768
 30
0.0
 10
768.1768793570541
 20
547.9403481338993
 30
0.0
 10
767.3181387882925
 20
547.3640148591037
 30
0.0
 10
766.8935397572898
 20
547.0790503903052
 30
0.0
  0
SPLINE
  5
1F4
330
1F
100
AcDbEntity
  8
0
  6
Continuous
 62
     7
370
    25
100
AcDbSpline
210
0.0
220
0.0
230
1.0
 70
     8
 71
     3
 72
     9
 73
     5
 74
     0
 42
0.00000001
 43
0.00000001
 40
0.0
 40
0.0
 40
0.0
 40
0.0
 40
0.0161297673533178
 40
0.9999999999999999
 40
0.9999999999999999
 40
0.9999999999999999
 40
0.9999999999999999
 10
766.8935397572898
 20
547.0790503903052
 30
0.0
 10
766.8963062490676
 20
547.0812694176292
 30
0.0
 10
767.0678209223536
 20
547.2188428416787
 30
0.0
 10
767.2318067912
 20
547.366049666534
 30
0.0
 10
767.3931476061327
 20
547.5108820795515
 30
0.0
  0
SPLINE
  5
1F5
330
1F
100
AcDbEntity
  8
0
  6
Continuous
 62
     7
370
    25
100
AcDbSpline
210
0.0
220
0.0
230
1.0
 70
     8
 71
     3
 72
    12
 73
     8
 74
     0
 42
0.00000001
 43
0.00000001
 40
0.0
 40
0.0
 40
0.0
 40
0.0
 40
0.2230315344150434
 40
0.4461337558340359
 40
0.6675099896777019
 40
0.8870667292265005
 40
1.0
 40
1.0
 40
1.0
 40
1.0
 10
818.325079673018
 20
550.8097466497313
 30
0.0
 10
818.305545886892
 20
550.8116368970261
 30
0.0
 10
818.2664721236555
 20
550.8154179907056
 30
0.0
 10
817.9988829415993
 20
550.8084751544349
 30
0.0
 10
817.6113538577742
 20
550.792886331945
 30
0.0
 10
817.210631745311
 20
550.7735490518808
 30
0.0
 10
816.9587723230533
 20
550.7599834507043
 30
0.0
 10
816.8732259684331
 20
550.755375770283
 30
0.0
  0
ARC
  5
1F6
330
1F
100
AcDbEntity
  8
0
  6
Continuous
 62
     7
370
    25
100
AcDbCircle
 10
818.2973340505
 20
551.3090763061
 30
0.0
 40
0.5000999153469606
100
AcDbArc
 50
273.1804119247
 51
359.9809145383
  0
SPLINE
  5
1F7
330
1F
100
AcDbEntity
  8
0
  6
Continuous
 62
     7
370
    25
100
AcDbSpline
210
0.0
220
0.0
230
1.0
 70
     8
 71
     3
 72
    12
 73
     8
 74
     0
 42
0.00000001
 43
0.00000001
 40
0.0
 40
0.0
 40
0.0
 40
0.0
 40
0.2190444340109334
 40
0.4380981679380241
 40
0.6571027493691853
 40
0.8772791087290019
 40
1.0
 40
1.0
 40
1.0
 40
1.0
 10
816.8732259684297
 20
557.3671272789535
 30
0.0
 10
817.0396437092006
 20
557.3582984660036
 30
0.0
 10
817.3724862562997
 20
557.3406404652613
 30
0.0
 10
817.8106446989428
 20
557.3211219758523
 30
0.0
 10
818.1376105257025
 20
557.30981619222
 30
0.0
 10
818.2994544027165
 20
557.3079923241434
 30
0.0
 10
818.3183257351287
 20
557.3115007534682
 30
0.0
 10
818.3250796730179
 20
557.3127563995047
 30
0.0
  0
ARC
  5
1F8
330
1F
100
AcDbEntity
  8
0
  6
Continuous
 62
     7
370
    25
100
AcDbCircle
 10
818.2973340505
 20
556.8134267431
 30
0.0
 40
0.500099915346822
100
AcDbArc
 50
0.0190854623
 51
86.8195880753
  0
LINE
  5
1F9
330
1F
100
AcDbEntity
  8
0
  6
Continuous
 62
     7
370
    25
100
AcDbLine
 10
769.7196708705
 20
548.1507632047
 30
0.0
 11
769.7466570522
 21
548.0794729294
 31
0.0
  0
LINE
  5
1FA
330
1F
100
AcDbEntity
  8
0
  6
Continuous
 62
     7
370
    25
100
AcDbLine
 10
818.3297700337
 20
550.8053081967
 30
0.0
 11
818.325079673
 21
550.8097466497
 31
0.0
  0
ELLIPSE
  5
1FB
330
1F
100
AcDbEntity
  8
0
  6
Continuous
 62
     7
370
    25
100
AcDbEllipse
 10
816.8299984909
 20
550.7220157467
 30
0.0
 11
1.499999304622861
 21
0.0828726334386829
 31
0.0
210
0.0
220
0.0
230
1.0
 40
0.0174284859
 41
5.396717970289234
 42
6.299675703199956
  0
LINE
  5
1FC
330
1F
100
AcDbEntity
  8
0
  6
Continuous
 62
     7
370
    25
100
AcDbLine
 10
814.3143838219
 20
550.5132561586
 30
0.0
 11
817.7793470314
 21
550.7541474376
 31
0.0
  0
LINE
  5
1FD
330
1F
100
AcDbEntity
  8
0
  6
Continuous
 62
     7
370
    25
100
AcDbLine
 10
814.3143838219
 20
550.5133545499
 30
0.0
 11
814.3143838219
 21
550.5132561586
 31
0.0
  0
ELLIPSE
  5
1FE
330
1F
100
AcDbEntity
  8
0
  6
Continuous
 62
     7
370
    25
100
AcDbEllipse
 10
804.864897401
 20
550.1837084984
 30
0.0
 11
14.4999932780205
 21
0.8011021232407529
 31
0.0
210
0.0
220
0.0
230
1.0
 40
0.0174284859
 41
4.685109492442209
 42
5.421234828998124
  0
ELLIPSE
  5
1FF
330
1F
100
AcDbEntity
  8
0
  6
Continuous
 62
     7
370
    25
100
AcDbEllipse
 10
803.5438874854
 20
549.2334249491
 30
0.0
 11
35.70262504606012
 21
1.972514619921981
 31
0.0
210
0.0
220
0.0
230
1.0
 40
0.0174284859
 41
1.543516838852418
 42
2.025717338718003
  0
ELLIPSE
  5
200
330
1F
100
AcDbEntity
  8
0
  6
Continuous
 62
     7
370
    25
100
AcDbEllipse
 10
784.5236600134
 20
548.8610288894
 30
0.0
 11
7.499996523113964
 21
0.4143631671935282
 31
0.0
210
0.0
220
0.0
230
1.0
 40
0.0174284859
 41
4.976419334597757
 42
5.167309992307912
  0
LINE
  5
201
330
1F
100
AcDbEntity
  8
0
  6
Continuous
 62
     7
370
    25
100
AcDbLine
 10
786.4683124144
 20
548.9933733406
 30
0.0
 11
786.4879306718
 21
548.842982796
 31
0.0
  0
SPLINE
  5
202
330
1F
100
AcDbEntity
  8
0
  6
Continuous
 62
     7
370
    25
100
AcDbSpline
210
0.0
220
0.0
230
1.0
 70
     8
 71
     3
 72
    10
 73
     6
 74
     0
 42
0.00000001
 43
0.00000001
 40
0.0
 40
0.0
 40
0.0
 40
0.0
 40
0.0186368637457253
 40
0.3939469944633057
 40
1.0
 40
1.0
 40
1.0
 40
1.0
 10
786.2845411287321
 20
548.9928869733429
 30
0.0
 10
786.2869973359808
 20
548.9929747238223
 30
0.0
 10
786.3389167724579
 20
548.9948295980151
 30
0.0
 10
786.4429156209359
 20
548.9975095793933
 30
0.0
 10
786.458616278285
 20
548.9949524979958
 30
0.0
 10
786.4683124144286
 20
548.9933733405878
 30
0.0
  0
LINE
  5
203
330
1F
100
AcDbEntity
  8
0
  6
Continuous
 62
     7
370
    25
100
AcDbLine
 10
769.7466570522
 20
548.0794729294
 30
0.0
 11
786.2845411287
 21
548.9928869733
 31
0.0
  0
LINE
  5
204
330
1F
100
AcDbEntity
  8
0
  6
Continuous
 62
     7
370
    25
100
AcDbLine
 10
786.2866068607
 20
559.1458197247
 30
0.0
 11
769.7526984372
 21
560.0590141869
 31
0.0
  0
SPLINE
  5
205
330
1F
100
AcDbEntity
  8
0
  6
Continuous
 62
     7
370
    25
100
AcDbSpline
210
0.0
220
0.0
230
1.0
 70
     8
 71
     3
 72
    11
 73
     7
 74
     0
 42
0.00000001
 43
0.00000001
 40
0.0
 40
0.0
 40
0.0
 40
0.0
 40
0.4177469294495291
 40
0.8392770662410922
 40
0.9817832068819584
 40
1.0
 40
1.0
 40
1.0
 40
1.0
 10
786.4703123013005
 20
559.1444702794348
 30
0.0
 10
786.4656752732686
 20
559.1433870882512
 30
0.0
 10
786.4563592232673
 20
559.1412108962681
 30
0.0
 10
786.3808627575171
 20
559.1424130731594
 30
0.0
 10
786.310602556945
 20
559.1448836004995
 30
0.0
 10
786.2890497202875
 20
559.1457244234565
 30
0.0
 10
786.2866068606575
 20
559.1458197247149
 30
0.0
  0
LINE
  5
206
330
1F
100
AcDbEntity
  8
0
  6
Continuous
 62
     7
370
    25
100
AcDbLine
 10
786.4879306718
 20
559.2795202532
 30
0.0
 11
786.4703123013
 21
559.1444702794
 31
0.0
  0
ELLIPSE
  5
207
330
1F
100
AcDbEntity
  8
0
  6
Continuous
 62
     7
370
    25
100
AcDbEllipse
 10
784.5236600134
 20
559.2614741598
 30
0.0
 11
7.499996523114078
 21
-0.4143631671935282
 31
0.0
210
0.0
220
0.0
230
1.0
 40
0.0174284859
 41
1.115875314871824
 42
1.306765972581658
  0
ELLIPSE
  5
208
330
1F
100
AcDbEntity
  8
0
  6
Continuous
 62
     7
370
    25
100
AcDbEllipse
 10
803.5438874854
 20
558.8890781001
 30
0.0
 11
35.70262504606012
 21
-1.972514619921981
 31
0.0
210
0.0
220
0.0
230
1.0
 40
0.0174284859
 41
4.257467968461656
 42
4.739668468327174
  0
ELLIPSE
  5
209
330
1F
100
AcDbEntity
  8
0
  6
Continuous
 62
     7
370
    25
100
AcDbEllipse
 10
804.864897401
 20
557.9387945508
 30
0.0
 11
14.4999932780205
 21
-0.8011021232406391
 31
0.0
210
0.0
220
0.0
230
1.0
 40
0.0174284859
 41
0.86195047818182
 42
1.598075814737354
  0
LINE
  5
20A
330
1F
100
AcDbEntity
  8
0
  6
Continuous
 62
     7
370
    25
100
AcDbLine
 10
814.3143838219
 20
557.6092468906
 30
0.0
 11
814.3143838219
 21
557.6091484994
 31
0.0
  0
LINE
  5
20B
330
1F
100
AcDbEntity
  8
0
  6
Continuous
 62
     7
370
    25
100
AcDbLine
 10
817.7793470314
 20
557.3683556116
 30
0.0
 11
814.3143838219
 21
557.6092468906
 31
0.0
  0
ELLIPSE
  5
20C
330
1F
100
AcDbEntity
  8
0
  6
Continuous
 62
     7
370
    25
100
AcDbEllipse
 10
816.8299984909
 20
557.4004873026
 30
0.0
 11
1.499999304622861
 21
-0.08287263343879658
 31
0.0
210
0.0
220
0.0
230
1.0
 40
0.0174284859
 41
0.4867688162203449
 42
0.8864673368945324
  0
LINE
  5
20D
330
1F
100
AcDbEntity
  8
0
  6
Continuous
 62
     7
370
    25
100
AcDbLine
 10
818.325079673
 20
557.3127563995
 30
0.0
 11
818.3297700337
 21
557.3171948526
 31
0.0
  0
LINE
  5
20E
330
1F
100
AcDbEntity
  8
0
  6
Continuous
 62
     7
370
    25
100
AcDbLine
 10
769.7526984372
 20
560.0590141869
 30
0.0
 11
769.7196708705
 21
559.9717398445
 31
0.0
  0
SPLINE
  5
20F
330
1F
100
AcDbEntity
  8
0
  6
Continuous
 62
     7
370
    25
100
AcDbSpline
210
0.0
220
0.0
230
1.0
 70
     8
 71
     3
 72
     9
 73
     5
 74
     0
 42
0.00000001
 43
0.00000001
 40
0.0
 40
0.0
 40
0.0
 40
0.0
 40
0.5001021276704695
 40
1.0
 40
1.0
 40
1.0
 40
1.0
 10
766.9267586233452
 20
547.013358943345
 30
0.0
 10
767.3557063990526
 20
547.2998845774335
 30
0.0
 10
768.213426756503
 20
547.8728188207314
 30
0.0
 10
769.2356498851182
 20
548.0105976071856
 30
0.0
 10
769.746657052159
 20
548.079472929386
 30
0.0
  0
LINE
  5
210
330
1F
100
AcDbEntity
  8
0
  6
Continuous
 62
     7
370
    25
100
AcDbLine
 10
766.9267586233
 20
547.0133589433
 30
0.0
 11
766.8935397573
 21
547.0790503903
 31
0.0
  0
SPLINE
  5
211
330
1F
100
AcDbEntity
  8
0
  6
Continuous
 62
     7
370
    25
100
AcDbSpline
210
0.0
220
0.0
230
1.0
 70
     8
 71
     3
 72
     9
 73
     5
 74
     0
 42
0.00000001
 43
0.00000001
 40
0.0
 40
0.0
 40
0.0
 40
0.0
 40
0.400722737156528
 40
1.0
 40
1.0
 40
1.0
 40
1.0
 10
769.7526984372106
 20
560.0590141869295
 30
0.0
 10
769.3440123138014
 20
560.1074214489951
 30
0.0
 10
768.3241397547615
 20
560.228221337739
 30
0.0
 10
767.4550637109356
 20
560.7883286110927
 30
0.0
 10
766.9342461981887
 20
561.1239881647667
 30
0.0
  0
LINE
  5
212
330
1F
100
AcDbEntity
  8
0
  6
Continuous
 62
     7
370
    25
100
AcDbLine
 10
766.8935397573
 20
561.0434526589
 30
0.0
 11
766.9342461982
 21
561.1239881648
 31
0.0
  0
ARC
  5
213
330
1F
100
AcDbEntity
  8
0
  6
Continuous
 62
     7
370
    25
100
AcDbCircle
 10
761.3689130435
 20
554.0612515246
 30
0.0
 40
8.975658044222053
100
AcDbArc
 50
245.1648853947
 51
308.2586979829
  0
LWPOLYLINE
  5
214
330
1F
100
AcDbEntity
  8
0
  6
Continuous
 62
     7
370
    25
100
AcDbPolyline
 90
        3
 70
   128
 43
0.0
 10
757.4335996192
 20
545.8105918013
 10
757.5381811834
 20
545.8768442126
 10
757.5990617261
 20
545.9156601789
  0
ARC
  5
215
330
1F
100
AcDbEntity
  8
0
  6
Continuous
 62
     7
370
    25
100
AcDbCircle
 10
761.3689130435
 20
554.0612515246
 30
0.0
 40
9.141120151092208
100
AcDbArc
 50
115.4997164176
 51
244.5002794289
  0
LWPOLYLINE
  5
216
330
1F
100
AcDbEntity
  8
0
  6
Continuous
 62
     7
370
    25
100
AcDbPolyline
 90
        3
 70
   128
 43
0.0
 10
757.5827688157
 20
562.2172489411
 10
757.5381811834
 20
562.2456588367
 10
757.4335996189
 20
562.3119112481
  0
ARC
  5
217
330
1F
100
AcDbEntity
  8
0
  6
Continuous
 62
     7
370
    25
100
AcDbCircle
 10
761.3689130435
 20
554.0612515246
 30
0.0
 40
8.991950954660869
100
AcDbArc
 50
51.762407147
 51
114.9014811666
  0
LINE
  5
218
330
1F
100
AcDbEntity
  8
0
  6
Continuous
 62
     7
370
    25
100
AcDbLine
 10
818.8021242988
 20
556.8180317815
 30
0.0
 11
818.7974339381
 21
556.8135933285
 31
0.0
  0
LINE
  5
219
330
1F
100
AcDbEntity
  8
0
  6
Continuous
 62
     7
370
    25
100
AcDbLine
 10
818.8021242988
 20
551.3044712677
 30
0.0
 11
818.8021242988
 21
556.8180317815
 31
0.0
  0
LINE
  5
21A
330
1F
100
AcDbEntity
  8
0
  6
Continuous
 62
     7
370
    25
100
AcDbLine
 10
818.7974339381
 20
551.3089097208
 30
0.0
 11
818.8021242988
 21
551.3044712677
 31
0.0
  0
ARC
  5
21B
330
1F
100
AcDbEntity
  8
0
  6
Continuous
 62
     7
370
    25
100
AcDbCircle
 10
818.3020244112
 20
556.8178651962
 30
0.0
 40
0.500099915346721
100
AcDbArc
 50
0.0190854617
 51
86.8195880753
  0
ARC
  5
21C
330
1F
100
AcDbEntity
  8
0
  6
Continuous
 62
     7
370
    25
100
AcDbCircle
 10
818.3020244112
 20
551.3046378531
 30
0.0
 40
0.5000999153467998
100
AcDbArc
 50
273.1804119247
 51
359.9809145383
  0
LINE
  5
21D
330
1F
100
AcDbEntity
  8
0
  6
Continuous
 62
     7
370
    25
100
AcDbLine
 10
817.7793470314
 20
557.3683556116
 30
0.0
 11
817.7864547622
 21
557.367988575
 31
0.0
  0
LINE
  5
21E
330
1F
100
AcDbEntity
  8
0
  6
Continuous
 62
     7
370
    25
100
AcDbLine
 10
817.7793470314
 20
550.7541474376
 30
0.0
 11
817.7864547622
 21
550.7545144743
 31
0.0
  0
SPLINE
  5
21F
330
1F
100
AcDbEntity
  8
0
  6
Continuous
 62
     7
370
    25
100
AcDbSpline
210
0.0
220
0.0
230
1.0
 70
     8
 71
     3
 72
    12
 73
     8
 74
     0
 42
0.00000001
 43
0.00000001
 40
0.0
 40
0.0
 40
0.0
 40
0.0
 40
0.1662426524176545
 40
0.3368059756191297
 40
0.6054181071254586
 40
0.8801435087136193
 40
1.0
 40
1.0
 40
1.0
 40
1.0
 10
767.490972290789
 20
542.3845911429471
 30
0.0
 10
766.8532907702529
 20
542.5400763184301
 30
0.0
 10
765.5613542934523
 20
542.8550877517854
 30
0.0
 10
763.3771679111029
 20
543.5180528567839
 30
0.0
 10
761.0151935675431
 20
544.3702477735892
 30
0.0
 10
759.0496560056506
 20
545.2128764522013
 30
0.0
 10
757.9358810208549
 20
545.7507345448965
 30
0.0
 10
757.5975655426975
 20
545.9141119957238
 30
0.0
  0
LINE
  5
220
330
1F
100
AcDbEntity
  8
0
  6
Continuous
 62
     7
370
    25
100
AcDbLine
 10
767.4909722908
 20
542.3845911429
 30
0.0
 11
767.4751142139
 21
542.3151176114
 31
0.0
  0
ARC
  5
221
330
1F
100
AcDbEntity
  8
0
  6
Continuous
 62
     7
370
    25
100
AcDbCircle
 10
778.1968924503
 20
589.2867524236
 30
0.0
 40
48.17977797259049
100
AcDbArc
 50
244.4718479123
 51
257.1419190681
  0
LWPOLYLINE
  5
222
330
1F
100
AcDbEntity
  8
0
  6
Continuous
 62
     7
370
    25
100
AcDbPolyline
 90
        3
 70
   128
 43
0.0
 10
757.5975655427
 20
545.9141119957
 10
757.5381776924
 20
545.8765882922
 10
757.4335996195
 20
545.8105902623
  0
SPLINE
  5
223
330
1F
100
AcDbEntity
  8
0
  6
Continuous
 62
     7
370
    25
100
AcDbSpline
210
0.0
220
0.0
230
1.0
 70
     8
 71
     3
 72
    11
 73
     7
 74
     0
 42
0.00000001
 43
0.00000001
 40
0.0
 40
0.0
 40
0.0
 40
0.0
 40
0.1345990676765959
 40
0.4126978815969493
 40
0.6969472592954598
 40
1.0
 40
1.0
 40
1.0
 40
1.0
 10
757.5982831196545
 20
545.9148535617977
 30
0.0
 10
758.0275891399027
 20
545.7239696766366
 30
0.0
 10
759.343896066627
 20
545.1386953772168
 30
0.0
 10
761.7197061175103
 20
544.5162274931931
 30
0.0
 10
764.7733955023913
 20
544.1397248106929
 30
0.0
 10
766.964425410752
 20
544.11258348236
 30
0.0
 10
768.09501492829
 20
544.0985783329149
 30
0.0
  0
ARC
  5
224
330
1F
100
AcDbEntity
  8
0
  6
Continuous
 62
     7
370
    25
100
AcDbCircle
 10
763.6024839353
 20
544.7184023775
 30
0.0
 40
4.535087272522473
100
AcDbArc
 50
329.0284626407
 51
352.1446266983
  0
LINE
  5
225
330
1F
100
AcDbEntity
  8
0
  6
Continuous
 62
     7
370
    25
100
AcDbLine
 10
757.5975655427
 20
545.9141119957
 30
0.0
 11
757.5982831197
 21
545.9148535618
 31
0.0
  0
LINE
  5
226
330
1F
100
AcDbEntity
  8
0
  6
Continuous
 62
     7
370
    25
100
AcDbLine
 10
766.9267586233
 20
547.0133589433
 30
0.0
 11
769.1246305435
 21
544.226242069
 31
0.0
  0
ARC
  5
227
330
1F
100
AcDbEntity
  8
0
  6
Continuous
 62
     7
370
    25
100
AcDbCircle
 10
761.3689130435
 20
554.0612515246
 30
0.0
 40
12.52511736202725
100
AcDbArc
 50
307.8583068702
 51
308.2586979829
  0
LINE
  5
228
330
1F
100
AcDbEntity
  8
0
  6
Continuous
 62
     7
370
    25
100
AcDbLine
 10
768.0950149283
 20
544.0985783329
 30
0.0
 11
769.0557132772
 21
544.1722845867
 31
0.0
  0
LINE
  5
229
330
1F
100
AcDbEntity
  8
0
  6
Continuous
 62
     7
370
    25
100
AcDbLine
 10
757.5990617261
 20
545.9156601789
 30
0.0
 11
757.5982831197
 21
545.9148535618
 31
0.0
  0
LINE
  5
22A
330
1F
100
AcDbEntity
  8
0
  6
Continuous
 62
     7
370
    25
100
AcDbLine
 10
772.042483604
 20
544.6514060737
 30
0.0
 11
769.9424010879
 21
544.5354151249
 31
0.0
  0
LINE
  5
22B
330
1F
100
AcDbEntity
  8
0
  6
Continuous
 62
     7
370
    25
100
AcDbLine
 10
769.7466570522
 20
548.0794729294
 30
0.0
 11
769.9424010879
 21
544.5354151249
 31
0.0
  0
SPLINE
  5
22C
330
1F
100
AcDbEntity
  8
0
  6
Continuous
 62
     7
370
    25
100
AcDbSpline
210
0.0
220
0.0
230
1.0
 70
     8
 71
     3
 72
    17
 73
    13
 74
     0
 42
0.00000001
 43
0.00000001
 40
0.0
 40
0.0
 40
0.0
 40
0.0
 40
0.2859834379244703
 40
0.521592264412224
 40
0.759239901680938
 40
0.85214924050605
 40
0.9266708633836014
 40
0.9605058393195369
 40
0.9835417153308584
 40
0.9930790992390832
 40
0.9972256067114875
 40
1.0
 40
1.0
 40
1.0
 40
1.0
 10
773.4831519660379
 20
545.1755497556329
 30
0.0
 10
774.7119301497853
 20
545.7074178796532
 30
0.0
 10
776.953043131616
 20
546.6774681077009
 30
0.0
 10
780.2919918185178
 20
547.7196987784856
 30
0.0
 10
782.7946471852248
 20
548.3375173394122
 30
0.0
 10
784.5649534692609
 20
548.6914926486304
 30
0.0
 10
785.4300743045981
 20
548.8461936832433
 30
0.0
 10
785.9556617338736
 20
548.934693674075
 30
0.0
 10
786.1893238475308
 20
548.9738054368976
 30
0.0
 10
786.2669740070203
 20
548.9881252036595
 30
0.0
 10
786.2830556612204
 20
548.9918589559769
 30
0.0
 10
786.2841160491962
 20
548.9925927971718
 30
0.0
 10
786.2845411287321
 20
548.9928869733429
 30
0.0
  0
LINE
  5
22D
330
1F
100
AcDbEntity
  8
0
  6
Continuous
 62
     7
370
    25
100
AcDbLine
 10
772.042483604
 20
544.6514060737
 30
0.0
 11
773.483151966
 21
545.1755497556
 31
0.0
  0
ARC
  5
22E
330
1F
100
AcDbEntity
  8
0
  6
Continuous
 62
     7
370
    25
100
AcDbCircle
 10
779.2865847572
 20
548.7846521365
 30
0.0
 40
6.834138728230582
100
AcDbArc
 50
211.8771071303
 51
226.9488007428
  0
SPLINE
  5
22F
330
1F
100
AcDbEntity
  8
0
  6
Continuous
 62
     7
370
    25
100
AcDbSpline
210
0.0
220
0.0
230
1.0
 70
     8
 71
     3
 72
    10
 73
     6
 74
     0
 42
0.00000001
 43
0.00000001
 40
0.0
 40
0.0
 40
0.0
 40
0.0
 40
0.5975855365574454
 40
0.9790563563181981
 40
1.0
 40
1.0
 40
1.0
 40
1.0
 10
786.3945664484198
 20
548.9837600760036
 30
0.0
 10
786.3970855877733
 20
548.98749937373
 30
0.0
 10
786.4012128285539
 20
548.9936256652535
 30
0.0
 10
786.3268417019984
 20
548.99400222411
 30
0.0
 10
786.286633749894
 20
548.9929421451095
 30
0.0
 10
786.2845411287321
 20
548.9928869733429
 30
0.0
  0
SPLINE
  5
230
330
1F
100
AcDbEntity
  8
0
  6
Continuous
 62
     7
370
    25
100
AcDbSpline
210
0.0
220
0.0
230
1.0
 70
     8
 71
     3
 72
    14
 73
    10
 74
     0
 42
0.00000001
 43
0.00000001
 40
0.0
 40
0.0
 40
0.0
 40
0.0
 40
0.0129036569231464
 40
0.0519665716781148
 40
0.1318891824261205
 40
0.2280032005552168
 40
0.4679440229400844
 40
0.7079115564493632
 40
1.0
 40
1.0
 40
1.0
 40
1.0
 10
786.3945664484198
 20
548.9837600760036
 30
0.0
 10
786.3610978719555
 20
548.9759151019422
 30
0.0
 10
786.2263107191227
 20
548.9443212360096
 30
0.0
 10
785.7870372741304
 20
548.841939188716
 30
0.0
 10
784.9756098559044
 20
548.6395376798989
 30
0.0
 10
783.3221326740838
 20
548.1724869991328
 30
0.0
 10
780.9778426018402
 20
547.3350299397424
 30
0.0
 10
777.8327484253429
 20
545.890089699392
 30
0.0
 10
775.7594497511504
 20
544.5347188165973
 30
0.0
 10
774.6212488684033
 20
543.7906464094476
 30
0.0
  0
LWPOLYLINE
  5
231
330
1F
100
AcDbEntity
  8
0
  6
Continuous
 62
     7
370
    25
100
AcDbPolyline
 90
        4
 70
   128
 43
0.0
 10
786.4140932625
 20
548.8326644997
 10
786.4118486268
 20
548.8500226466
 10
786.4028735929
 20
548.9194553928
 10
786.3945664484
 20
548.983760076
  0
LINE
  5
232
330
1F
100
AcDbEntity
  8
0
  6
Continuous
 62
     7
370
    25
100
AcDbLine
 10
784.6259689787
 20
548.4031369964
 30
0.0
 11
786.4140932625
 21
548.8326644997
 31
0.0
  0
ARC
  5
233
330
1F
100
AcDbEntity
  8
0
  6
Continuous
 62
     7
370
    25
100
AcDbCircle
 10
792.8115273773
 20
517.9774434026
 30
0.0
 40
31.50755777528326
100
AcDbArc
 50
105.0579972479
 51
125.1719294169
  0
LINE
  5
234
330
1F
100
AcDbEntity
  8
0
  6
Continuous
 62
     7
370
    25
100
AcDbLine
 10
774.6212488684
 20
543.7906464094
 30
0.0
 11
774.6621687546
 21
543.7325783964
 31
0.0
  0
SPLINE
  5
235
330
1F
100
AcDbEntity
  8
0
  6
Continuous
 62
     7
370
    25
100
AcDbSpline
210
0.0
220
0.0
230
1.0
 70
     8
 71
     3
 72
     9
 73
     5
 74
     0
 42
0.00000001
 43
0.00000001
 40
0.0
 40
0.0
 40
0.0
 40
0.0
 40
0.4998978730609624
 40
1.0
 40
1.0
 40
1.0
 40
1.0
 10
769.9424010878641
 20
544.5354151249422
 30
0.0
 10
769.7942061719684
 20
544.5154487869399
 30
0.0
 10
769.4977557890364
 20
544.4755079528652
 30
0.0
 10
769.2490225602598
 20
544.3093420102947
 30
0.0
 10
769.1246305435083
 20
544.2262420689902
 30
0.0
  0
ARC
  5
236
330
1F
100
AcDbEntity
  8
0
  6
Continuous
 62
     7
370
    25
100
AcDbCircle
 10
786.4959017633
 20
548.4940586362
 30
0.0
 40
0.5000763403621377
100
AcDbArc
 50
93.1626296397
 51
101.6913635618
  0
SPLINE
  5
237
330
1F
100
AcDbEntity
  8
0
  6
Continuous
 62
     7
370
    25
100
AcDbSpline
210
0.0
220
0.0
230
1.0
 70
     8
 71
     3
 72
    13
 73
     9
 74
     0
 42
0.00000001
 43
0.00000001
 40
0.0
 40
0.0
 40
0.0
 40
0.0
 40
0.0460329529079886
 40
0.2492425848193727
 40
0.477522557027288
 40
0.7051721168687837
 40
0.8526808263814667
 40
0.9999999999999999
 40
0.9999999999999999
 40
0.9999999999999999
 40
0.9999999999999999
 10
757.5815345690072
 20
562.2185232847205
 30
0.0
 10
757.7098692210456
 20
562.2810322531572
 30
0.0
 10
758.4047292805311
 20
562.6194832080346
 30
0.0
 10
759.7643925151077
 20
563.2374606320635
 30
0.0
 10
761.7723651319261
 20
564.0479329587766
 30
0.0
 10
763.7868753938293
 20
564.7405577600413
 30
0.0
 10
765.6491586750747
 20
565.2907915617393
 30
0.0
 10
766.7415282383133
 20
565.5583076728453
 30
0.0
 10
767.2873618943204
 20
565.6919797394056
 30
0.0
  0
LINE
  5
238
330
1F
100
AcDbEntity
  8
0
  6
Continuous
 62
     7
370
    25
100
AcDbLine
 10
767.7408219722
 20
563.7443772102
 30
0.0
 11
767.2873618943
 21
565.6919797394
 31
0.0
  0
SPLINE
  5
239
330
1F
100
AcDbEntity
  8
0
  6
Continuous
 62
     7
370
    25
100
AcDbSpline
210
0.0
220
0.0
230
1.0
 70
     8
 71
     3
 72
    13
 73
     9
 74
     0
 42
0.00000001
 43
0.00000001
 40
0.0
 40
0.0
 40
0.0
 40
0.0
 40
0.2574896950994368
 40
0.4890886589321025
 40
0.7206004760683485
 40
0.9447506334961274
 40
0.9460032291293288
 40
1.0
 40
1.0
 40
1.0
 40
1.0
 10
767.7408219722073
 20
563.7443772101916
 30
0.0
 10
766.8220963962194
 20
563.7724401743064
 30
0.0
 10
765.0770236090814
 20
563.8257443559718
 30
0.0
 10
762.5824583631678
 20
563.6611802371337
 30
0.0
 10
760.2668085571671
 20
563.2478062421236
 30
0.0
 10
758.789699955563
 20
562.7482490555602
 30
0.0
 10
757.9184385110224
 20
562.3740062006302
 30
0.0
 10
757.7483921021994
 20
562.2950257821452
 30
0.0
 10
757.5822009301442
 20
562.2178359819706
 30
0.0
  0
LINE
  5
23A
330
1F
100
AcDbEntity
  8
0
  6
Continuous
 62
     7
370
    25
100
AcDbLine
 10
757.5822009301
 20
562.217835982
 30
0.0
 11
757.581534569
 21
562.2185232847
 31
0.0
  0
ARC
  5
23B
330
1F
100
AcDbEntity
  8
0
  6
Continuous
 62
     7
370
    25
100
AcDbCircle
 10
778.1968924503
 20
518.8357506256
 30
0.0
 40
48.10950076354634
100
AcDbArc
 50
102.8580809319
 51
103.1066633214
  0
LWPOLYLINE
  5
23C
330
1F
100
AcDbEntity
  8
0
  6
Continuous
 62
     7
370
    25
100
AcDbPolyline
 90
        3
 70
   128
 43
0.0
 10
757.581534569
 20
562.2185232847
 10
757.5381776924
 20
562.2459147571
 10
757.4335996192
 20
562.3119127872
  0
ARC
  5
23D
330
1F
100
AcDbEntity
  8
0
  6
Continuous
 62
     7
370
    25
100
AcDbCircle
 10
778.1968924503
 20
518.8357506256
 30
0.0
 40
48.17977797259051
100
AcDbArc
 50
102.8580809319
 51
115.5281512988
  0
LINE
  5
23E
330
1F
100
AcDbEntity
  8
0
  6
Continuous
 62
     7
370
    25
100
AcDbLine
 10
767.4907534858
 20
565.7388704812
 30
0.0
 11
767.4751142139
 21
565.8073854379
 31
0.0
  0
LINE
  5
23F
330
1F
100
AcDbEntity
  8
0
  6
Continuous
 62
     7
370
    25
100
AcDbLine
 10
769.7526984372
 20
560.0590141869
 30
0.0
 11
769.8960602662
 21
562.6546621564
 31
0.0
  0
LINE
  5
240
330
1F
100
AcDbEntity
  8
0
  6
Continuous
 62
     7
370
    25
100
AcDbLine
 10
769.8960602662
 20
562.6546621564
 30
0.0
 11
773.846141288
 21
562.4364928027
 31
0.0
  0
SPLINE
  5
241
330
1F
100
AcDbEntity
  8
0
  6
Continuous
 62
     7
370
    25
100
AcDbSpline
210
0.0
220
0.0
230
1.0
 70
     8
 71
     3
 72
    17
 73
    13
 74
     0
 42
0.00000001
 43
0.00000001
 40
0.0
 40
0.0
 40
0.0
 40
0.0
 40
0.0068264277560524
 40
0.0088450004853816
 40
0.0223994102884418
 40
0.0309598270239211
 40
0.0563228448230689
 40
0.1198844474831666
 40
0.1957493698893797
 40
0.555871606010061
 40
0.7769840750939091
 40
1.0
 40
1.0
 40
1.0
 40
1.0
 10
786.2866068606575
 20
559.1458197247149
 30
0.0
 10
786.2829867154883
 20
559.1468579077597
 30
0.0
 10
786.2782960944309
 20
559.148203081233
 30
0.0
 10
786.2347633817994
 20
559.1557930693112
 30
0.0
 10
786.1602314578398
 20
559.1675445760422
 30
0.0
 10
785.9933992195563
 20
559.1932634716231
 30
0.0
 10
785.6118229733045
 20
559.2517780442442
 30
0.0
 10
784.928923446999
 20
559.3609751002047
 30
0.0
 10
782.8239076459666
 20
559.7281465158413
 30
0.0
 10
780.015781377564
 20
560.3613134181971
 30
0.0
 10
776.6162156923066
 20
561.3737592946726
 30
0.0
 10
774.7721338923443
 20
562.08123759104
 30
0.0
 10
773.8461412879841
 20
562.4364928027096
 30
0.0
  0
LINE
  5
242
330
1F
100
AcDbEntity
  8
0
  6
Continuous
 62
     7
370
    25
100
AcDbLine
 10
773.846141288
 20
562.4364928027
 30
0.0
 11
774.9756167055
 21
564.0866645923
 31
0.0
  0
SPLINE
  5
243
330
1F
100
AcDbEntity
  8
0
  6
Continuous
 62
     7
370
    25
100
AcDbSpline
210
0.0
220
0.0
230
1.0
 70
     8
 71
     3
 72
    15
 73
    11
 74
     0
 42
0.00000001
 43
0.00000001
 40
0.0
 40
0.0
 40
0.0
 40
0.0
 40
0.2255198391625378
 40
0.451564594375195
 40
0.6337799820516977
 40
0.8158790324473547
 40
0.8946729146060269
 40
0.9638048440471935
 40
0.9940832206369723
 40
1.0
 40
1.0
 40
1.0
 40
1.0
 10
774.9756167054761
 20
564.0866645923484
 30
0.0
 10
775.82106524633
 20
563.5416569230068
 30
0.0
 10
777.5139301793378
 20
562.4503730339643
 30
0.0
 10
779.9902463730173
 20
561.2332696443717
 30
0.0
 10
782.3186572877285
 20
560.3023698359365
 30
0.0
 10
784.0591367775509
 20
559.746579291123
 30
0.0
 10
785.3168056339206
 20
559.4100264641586
 30
0.0
 10
785.9609385318329
 20
559.2546793578341
 30
0.0
 10
786.288883821915
 20
559.1791259595666
 30
0.0
 10
786.3814212655391
 20
559.1576052515165
 30
0.0
 10
786.3965482520745
 20
559.1540872868079
 30
0.0
  0
SPLINE
  5
244
330
1F
100
AcDbEntity
  8
0
  6
Continuous
 62
     7
370
    25
100
AcDbSpline
210
0.0
220
0.0
230
1.0
 70
     8
 71
     3
 72
    11
 73
     7
 74
     0
 42
0.00000001
 43
0.00000001
 40
0.0
 40
0.0
 40
0.0
 40
0.0
 40
0.019556121229571
 40
0.168189199674442
 40
0.5898876540792781
 40
1.0
 40
1.0
 40
1.0
 40
1.0
 10
786.2866068606575
 20
559.1458197247149
 30
0.0
 10
786.2885655738055
 20
559.1457616109992
 30
0.0
 10
786.305411163628
 20
559.1452618135585
 30
0.0
 10
786.3573117273876
 20
559.144415396145
 30
0.0
 10
786.4065963594529
 20
559.146504694667
 30
0.0
 10
786.3998663743765
 20
559.1515833358504
 30
0.0
 10
786.3965482520745
 20
559.1540872868079
 30
0.0
  0
LINE
  5
245
330
1F
100
AcDbEntity
  8
0
  6
Continuous
 62
     7
370
    25
100
AcDbLine
 10
766.9342461982
 20
561.1239881648
 30
0.0
 11
768.5432031914
 21
563.1658496657
 31
0.0
  0
LINE
  5
246
330
1F
100
AcDbEntity
  8
0
  6
Continuous
 62
     7
370
    25
100
AcDbLine
 10
757.5822009301
 20
562.217835982
 30
0.0
 11
757.5827688157
 21
562.2172489411
 31
0.0
  0
ARC
  5
247
330
1F
100
AcDbEntity
  8
0
  6
Continuous
 62
     7
370
    25
100
AcDbCircle
 10
761.3689130435
 20
554.0612515246
 30
0.0
 40
11.59155496206743
100
AcDbArc
 50
51.762407147
 51
56.6533814372
  0
LWPOLYLINE
  5
248
330
1F
100
AcDbEntity
  8
0
  6
Continuous
 62
     7
370
    25
100
AcDbPolyline
 90
        4
 70
   128
 43
0.0
 10
786.3965482521
 20
559.1540872868
 10
786.3987904984
 20
559.1714455418
 10
786.4077629813
 20
559.2408784034
 10
786.4140932625
 20
559.2898385495
  0
ARC
  5
249
330
1F
100
AcDbEntity
  8
0
  6
Continuous
 62
     7
370
    25
100
AcDbCircle
 10
792.8115273773
 20
590.1450596466
 30
0.0
 40
31.57783498432754
100
AcDbArc
 50
234.8280705831
 51
235.6099480104
  0
LINE
  5
24A
330
1F
100
AcDbEntity
  8
0
  6
Continuous
 62
     7
370
    25
100
AcDbLine
 10
774.6216868398
 20
564.33247815
 30
0.0
 11
774.6621687546
 21
564.3899246528
 31
0.0
  0
ARC
  5
24B
330
1F
100
AcDbEntity
  8
0
  6
Continuous
 62
     7
370
    25
100
AcDbCircle
 10
792.8115273773
 20
590.1450596466
 30
0.0
 40
31.50755777528343
100
AcDbArc
 50
234.8280705831
 51
254.9420027521
  0
LINE
  5
24C
330
1F
100
AcDbEntity
  8
0
  6
Continuous
 62
     7
370
    25
100
AcDbLine
 10
786.4140932625
 20
559.2898385495
 30
0.0
 11
784.6259689787
 21
559.7193660528
 31
0.0
  0
LINE
  5
24D
330
1F
100
AcDbEntity
  8
0
  6
Continuous
 62
     7
370
    25
100
AcDbLine
 10
786.4879306718
 20
548.842982796
 30
0.0
 11
786.4140932625
 21
548.8326644997
 31
0.0
  0
SPLINE
  5
24E
330
1F
100
AcDbEntity
  8
0
  6
Continuous
 62
     7
370
    25
100
AcDbSpline
210
0.0
220
0.0
230
1.0
 70
     8
 71
     3
 72
    10
 73
     6
 74
     0
 42
0.00000001
 43
0.00000001
 40
0.0
 40
0.0
 40
0.0
 40
0.0
 40
0.0490769085761659
 40
0.599580584366531
 40
1.0
 40
1.0
 40
1.0
 40
1.0
 10
768.5432031914473
 20
563.165849665743
 30
0.0
 10
768.5621507298164
 20
563.1512269301417
 30
0.0
 10
768.7936358917229
 20
562.9725785879525
 30
0.0
 10
769.2395096665402
 20
562.7385265945313
 30
0.0
 10
769.7015162434246
 20
562.6795122215136
 30
0.0
 10
769.8960602661783
 20
562.6546621563813
 30
0.0
  0
ARC
  5
24F
330
1F
100
AcDbEntity
  8
0
  6
Continuous
 62
     7
370
    25
100
AcDbCircle
 10
786.497901653
 20
559.6437849838
 30
0.0
 40
0.5000763405113754
100
AcDbArc
 50
258.3065203379
 51
266.8373700346
  0
SPLINE
  5
250
330
1F
100
AcDbEntity
  8
0
  6
Continuous
 62
     7
370
    25
100
AcDbSpline
210
0.0
220
0.0
230
1.0
 70
     8
 71
     3
 72
     9
 73
     5
 74
     0
 42
0.00000001
 43
0.00000001
 40
0.0
 40
0.0
 40
0.0
 40
0.0
 40
0.8458911907785723
 40
1.0
 40
1.0
 40
1.0
 40
1.0
 10
786.414093262485
 20
559.2898385494942
 30
0.0
 10
786.4349338585961
 20
559.2860237425018
 30
0.0
 10
786.4595713017311
 20
559.2815139343445
 30
0.0
 10
786.4841438289072
 20
559.2797864705935
 30
0.0
 10
786.4879306718099
 20
559.2795202532118
 30
0.0
  0
LINE
  5
251
330
1F
100
AcDbEntity
  8
0
  6
Continuous
 62
     7
370
    25
100
AcDbLine
 10
804.4833508695
 20
558.2132643999
 30
0.0
 11
804.4828928496
 21
558.2132894864
 31
0.0
  0
LINE
  5
252
330
1F
100
AcDbEntity
  8
0
  6
Continuous
 62
     7
370
    25
100
AcDbLine
 10
774.6212488684
 20
543.7906464094
 30
0.0
 11
772.7825080191
 21
542.7936801738
 31
0.0
  0
LINE
  5
253
330
1F
100
AcDbEntity
  8
0
  6
Continuous
 62
     7
370
    25
100
AcDbLine
 10
772.042483604
 20
544.6514060737
 30
0.0
 11
772.7825080191
 21
542.7936801738
 31
0.0
  0
LINE
  5
254
330
1F
100
AcDbEntity
  8
0
  6
Continuous
 62
     7
370
    25
100
AcDbLine
 10
769.0557132772
 20
544.1722845867
 30
0.0
 11
768.9338795305
 21
542.1763040777
 31
0.0
  0
LINE
  5
255
330
1F
100
AcDbEntity
  8
0
  6
Continuous
 62
     7
370
    25
100
AcDbLine
 10
768.9338795305
 20
542.1763040777
 30
0.0
 11
767.4909722908
 21
542.3845911429
 31
0.0
  0
ARC
  5
256
330
1F
100
AcDbEntity
  8
0
  6
Continuous
 62
     7
370
    25
100
AcDbCircle
 10
792.8115273773
 20
590.1450596466
 30
0.0
 40
33.57753037464031
100
AcDbArc
 50
234.8280705831
 51
235.6099480104
  0
LINE
  5
257
330
1F
100
AcDbEntity
  8
0
  6
Continuous
 62
     7
370
    25
100
AcDbLine
 10
773.4697984886
 20
562.6978727296
 30
0.0
 11
774.6216868398
 21
564.33247815
 31
0.0
  0
ARC
  5
258
330
1F
100
AcDbEntity
  8
0
  6
Continuous
 62
     7
370
    25
100
AcDbCircle
 10
769.4779282487
 20
557.0331460004
 30
0.0
 40
6.929946387144395
100
AcDbArc
 50
54.8280705831
 51
102.8580809319
  0
LINE
  5
259
330
1F
100
AcDbEntity
  8
0
  6
Continuous
 62
     7
370
    25
100
AcDbLine
 10
767.9357594908
 20
563.7893189149
 30
0.0
 11
767.4907534858
 21
565.7388704812
 31
0.0
  0
ARC
  5
25A
330
1F
100
AcDbEntity
  8
0
  6
Continuous
 62
     7
370
    25
100
AcDbCircle
 10
769.4779282487
 20
557.0331460004
 30
0.0
 40
8.929641777457071
100
AcDbArc
 50
54.8280705831
 51
102.8580809319
  0
ARC
  5
25B
330
1F
100
AcDbEntity
  8
0
  6
Continuous
 62
     7
370
    25
100
AcDbCircle
 10
778.1968924503
 20
518.8357506256
 30
0.0
 40
46.10980537323366
100
AcDbArc
 50
102.8580809319
 51
103.1066633214
  0
ARC
  5
25C
330
1F
100
AcDbEntity
  8
0
  6
Continuous
 62
     7
370
    25
100
AcDbCircle
 10
769.4779282487
 20
551.0893570488
 30
0.0
 40
6.929946387144304
100
AcDbArc
 50
266.5070253286
 51
291.7198462835
  0
ARC
  5
25D
330
1F
100
AcDbEntity
  8
0
  6
Continuous
 62
     7
370
    25
100
AcDbCircle
 10
769.4779282487
 20
551.0893570488
 30
0.0
 40
8.929641777457059
100
AcDbArc
 50
266.5070253286
 51
291.7198462835
  0
ARC
  5
25E
330
1F
100
AcDbEntity
  8
0
  6
Continuous
 62
     7
370
    25
100
AcDbCircle
 10
769.4779282487
 20
551.0893570488
 30
0.0
 40
8.999918986501271
100
AcDbArc
 50
257.1419190681
 51
305.1719294169
  0
ARC
  5
25F
330
1F
100
AcDbEntity
  8
0
  6
Continuous
 62
     7
370
    25
100
AcDbCircle
 10
769.4779282487
 20
557.0331460004
 30
0.0
 40
8.999918986501244
100
AcDbArc
 50
54.8280705831
 51
102.8580809319
  0
ARC
  5
260
330
1F
100
AcDbEntity
  8
0
  6
Continuous
 62
     7
370
    25
100
AcDbCircle
 10
558.1689130435
 20
553.8158302358
 30
0.0
 40
10.30000000000002
100
AcDbArc
 50
292.7308609266
 51
307.2691390734
  0
SPLINE
  5
261
330
1F
100
AcDbEntity
  8
0
  6
Continuous
 62
     7
370
    25
100
AcDbSpline
210
0.0
220
0.0
230
1.0
 70
    24
 71
     3
 72
    10
 73
     6
 74
     0
 42
0.00000001
 43
0.00000001
 40
0.0
 40
0.0
 40
0.0
 40
0.0
 40
0.0800020169186634
 40
0.7057834866390905
 40
1.0
 40
1.0
 40
1.0
 40
1.0
 10
562.1488627919049
 20
544.3158302357898
 30
0.0
 10
562.0736486909091
 20
544.3158302357898
 30
0.0
 10
561.4101045392752
 20
544.3158302357898
 30
0.0
 10
560.4442640359911
 20
544.3158302357898
 30
0.0
 10
559.5231832040555
 20
544.3158302357898
 30
0.0
 10
559.2286203942676
 20
544.3158302357898
 30
0.0
  0
SPLINE
  5
262
330
1F
100
AcDbEntity
  8
0
  6
Continuous
 62
     7
370
    25
100
AcDbSpline
210
0.0
220
0.0
230
1.0
 70
    24
 71
     3
 72
    10
 73
     6
 74
     0
 42
0.00000001
 43
0.00000001
 40
0.0
 40
0.0
 40
0.0
 40
0.0
 40
0.3660443672546458
 40
0.9281398187734756
 40
1.0
 40
1.0
 40
1.0
 40
1.0
 10
558.8895974797242
 20
563.3158302357897
 30
0.0
 10
559.2979165779233
 20
563.3158302357897
 30
0.0
 10
560.333247941295
 20
563.3158302357897
 30
0.0
 10
561.4101497303914
 20
563.3158302357897
 30
0.0
 10
562.0736532918853
 20
563.3158302357897
 30
0.0
 10
562.1488627919049
 20
563.3158302357897
 30
0.0
  0
ARC
  5
263
330
1F
100
AcDbEntity
  8
0
  6
Continuous
 62
     7
370
    25
100
AcDbCircle
 10
558.1689130435
 20
553.8158302358
 30
0.0
 40
10.30000000000002
100
AcDbArc
 50
52.7308609266
 51
67.2691390734
  0
SPLINE
  5
264
330
1F
100
AcDbEntity
  8
0
  6
Continuous
 62
     7
370
    25
100
AcDbSpline
210
0.0
220
0.0
230
1.0
 70
    24
 71
     3
 72
    11
 73
     7
 74
     0
 42
0.00000001
 43
0.00000001
 40
0.0
 40
0.0
 40
0.0
 40
0.0
 40
0.2431641197380913
 40
0.4936284730588932
 40
0.7421706076863291
 40
1.0
 40
1.0
 40
1.0
 40
1.0
 10
564.4061795052173
 20
562.0125678237125
 30
0.0
 10
564.719938506914
 20
561.4691212914418
 30
0.0
 10
565.356876131934
 20
560.3659129636549
 30
0.0
 10
566.3672651009405
 20
558.6158679339284
 30
0.0
 10
567.3989722287765
 20
556.8288987699855
 30
0.0
 10
568.0530779716748
 20
555.6959543897632
 30
0.0
 10
568.3861292536438
 20
555.1190926478669
 30
0.0
  0
ARC
  5
265
330
1F
100
AcDbEntity
  8
0
  6
Continuous
 62
     7
370
    25
100
AcDbCircle
 10
558.1689130435
 20
553.8158302358
 30
0.0
 40
10.30000000000007
100
AcDbArc
 50
352.7308609266
 51
7.2691390734
  0
SPLINE
  5
266
330
1F
100
AcDbEntity
  8
0
  6
Continuous
 62
     7
370
    25
100
AcDbSpline
210
0.0
220
0.0
230
1.0
 70
    24
 71
     3
 72
    11
 73
     7
 74
     0
 42
0.00000001
 43
0.00000001
 40
0.0
 40
0.0
 40
0.0
 40
0.0
 40
0.2431641197380911
 40
0.493628473058894
 40
0.742170607686329
 40
1.0
 40
1.0
 40
1.0
 40
1.0
 10
568.3861292536437
 20
552.5125678237126
 30
0.0
 10
568.0723702519471
 20
551.9691212914418
 30
0.0
 10
567.4354326269271
 20
550.865912963655
 30
0.0
 10
566.4250436579205
 20
549.1158679339283
 30
0.0
 10
565.3933365300845
 20
547.3288987699855
 30
0.0
 10
564.7392307871863
 20
546.1959543897632
 30
0.0
 10
564.4061795052173
 20
545.6190926478669
 30
0.0
  0
SPLINE
  5
267
330
1F
100
AcDbEntity
  8
0
  6
Continuous
 62
     7
370
    25
100
AcDbSpline
210
0.0
220
0.0
230
1.0
 70
    24
 71
     3
 72
    10
 73
     6
 74
     0
 42
0.00000001
 43
0.00000001
 40
0.0
 40
0.0
 40
0.0
 40
0.0
 40
0.4495381149805623
 40
0.9405086364753389
 40
1.0
 40
1.0
 40
1.0
 40
1.0
 10
761.2797133535771
 20
544.3158302357898
 30
0.0
 10
760.6823259854445
 20
544.3158302357898
 30
0.0
 10
759.4324920774246
 20
544.3158302357898
 30
0.0
 10
758.1480234815682
 20
544.3158302357898
 30
0.0
 10
757.4629976994935
 20
544.3158302357898
 30
0.0
 10
757.3889632950519
 20
544.3158302357898
 30
0.0
  0
ARC
  5
268
330
1F
100
AcDbEntity
  8
0
  6
Continuous
 62
     7
370
    25
100
AcDbCircle
 10
761.3689130435
 20
553.8158302358
 30
0.0
 40
10.30000000000002
100
AcDbArc
 50
232.7308609266
 51
247.2691390734
  0
SPLINE
  5
269
330
1F
100
AcDbEntity
  8
0
  6
Continuous
 62
     7
370
    25
100
AcDbSpline
210
0.0
220
0.0
230
1.0
 70
    24
 71
     3
 72
    11
 73
     7
 74
     0
 42
0.00000001
 43
0.00000001
 40
0.0
 40
0.0
 40
0.0
 40
0.0
 40
0.2431641197380911
 40
0.4936284730588937
 40
0.7421706076863289
 40
1.0
 40
1.0
 40
1.0
 40
1.0
 10
755.1316465817395
 20
545.6190926478669
 30
0.0
 10
754.8178875800428
 20
546.1625391801377
 30
0.0
 10
754.1809499550228
 20
547.2657475079245
 30
0.0
 10
753.1705609860162
 20
549.0157925376511
 30
0.0
 10
752.1388538581803
 20
550.802761701594
 30
0.0
 10
751.484748115282
 20
551.9357060818163
 30
0.0
 10
751.1516968333129
 20
552.5125678237125
 30
0.0
  0
ARC
  5
26A
330
1F
100
AcDbEntity
  8
0
  6
Continuous
 62
     7
370
    25
100
AcDbCircle
 10
761.3689130435
 20
553.8158302358
 30
0.0
 40
10.30000000000007
100
AcDbArc
 50
172.7308609266
 51
187.2691390734
  0
SPLINE
  5
26B
330
1F
100
AcDbEntity
  8
0
  6
Continuous
 62
     7
370
    25
100
AcDbSpline
210
0.0
220
0.0
230
1.0
 70
    24
 71
     3
 72
    11
 73
     7
 74
     0
 42
0.00000001
 43
0.00000001
 40
0.0
 40
0.0
 40
0.0
 40
0.0
 40
0.2431641197380909
 40
0.4936284730588934
 40
0.7421706076863288
 40
1.0
 40
1.0
 40
1.0
 40
1.0
 10
751.151696833313
 20
555.119092647867
 30
0.0
 10
751.4654558350098
 20
555.6625391801377
 30
0.0
 10
752.1023934600297
 20
556.7657475079245
 30
0.0
 10
753.1127824290362
 20
558.5157925376511
 30
0.0
 10
754.1444895568723
 20
560.302761701594
 30
0.0
 10
754.7985952997706
 20
561.4357060818163
 30
0.0
 10
755.1316465817395
 20
562.0125678237125
 30
0.0
  0
ARC
  5
26C
330
1F
100
AcDbEntity
  8
0
  6
Continuous
 62
     7
370
    25
100
AcDbCircle
 10
761.3689130435
 20
553.8158302358
 30
0.0
 40
10.30000000000002
100
AcDbArc
 50
112.7308609266
 51
127.2691390734
  0
SPLINE
  5
26D
330
1F
100
AcDbEntity
  8
0
  6
Continuous
 62
     7
370
    25
100
AcDbSpline
210
0.0
220
0.0
230
1.0
 70
    24
 71
     3
 72
    10
 73
     6
 74
     0
 42
0.00000001
 43
0.00000001
 40
0.0
 40
0.0
 40
0.0
 40
0.0
 40
0.0999876020636871
 40
0.9251656147994761
 40
1.0
 40
1.0
 40
1.0
 40
1.0
 10
757.3889632950519
 20
563.3158302357897
 30
0.0
 10
757.4630213243058
 20
563.3158302357897
 30
0.0
 10
758.1482657021228
 20
563.3158302357897
 30
0.0
 10
758.9061859261653
 20
563.3158302357897
 30
0.0
 10
759.6147442697488
 20
563.3158302357897
 30
0.0
 10
759.6736596004068
 20
563.3158302357897
 30
0.0
  0
ARC
  5
26E
330
1F
100
AcDbEntity
  8
0
  6
Continuous
 62
     7
370
    25
100
AcDbCircle
 10
558.1689130435
 20
553.8158302358
 30
0.0
 40
10.57500000000004
100
AcDbArc
 50
261.6509017607
 51
30.0
  0
ARC
  5
26F
330
1F
100
AcDbEntity
  8
0
  6
Continuous
 62
     7
370
    25
100
AcDbCircle
 10
558.1689130435
 20
553.8158302358
 30
0.0
 40
10.57500000000005
100
AcDbArc
 50
30.0
 51
98.3490982393
  0
ARC
  5
270
330
1F
100
AcDbEntity
  8
0
  6
Continuous
 62
     7
370
    25
100
AcDbCircle
 10
558.1689130435
 20
553.8158302358
 30
0.0
 40
14.87499999999999
100
AcDbArc
 50
233.3837470415
 51
30.0
  0
ARC
  5
271
330
1F
100
AcDbEntity
  8
0
  6
Continuous
 62
     7
370
    25
100
AcDbCircle
 10
558.1689130435
 20
553.8158302358
 30
0.0
 40
14.875
100
AcDbArc
 50
30.0
 51
126.6162529585
  0
SPLINE
  5
272
330
1F
100
AcDbEntity
  8
0
  6
Continuous
 62
     7
370
    25
100
AcDbSpline
210
0.0
220
0.0
230
1.0
 70
     8
 71
     3
 72
     9
 73
     5
 74
     0
 42
0.00000001
 43
0.00000001
 40
0.0
 40
0.0
 40
0.0
 40
0.0
 40
0.5850553834534097
 40
1.0
 40
1.0
 40
1.0
 40
1.0
 10
547.0425023955636
 20
540.5873387838535
 30
0.0
 10
547.3022773153724
 20
540.2007922582895
 30
0.0
 10
547.7462949710607
 20
539.5400915169643
 30
0.0
 10
548.4181461630936
 20
539.0619326848381
 30
0.0
 10
548.696927198348
 20
538.8635232515933
 30
0.0
  0
LINE
  5
273
330
1F
100
AcDbEntity
  8
0
  6
Continuous
 62
     7
370
    25
100
AcDbLine
 10
545.5524676097
 20
543.168154738
 30
0.0
 11
547.0425023956
 21
540.5873387839
 31
0.0
  0
SPLINE
  5
274
330
1F
100
AcDbEntity
  8
0
  6
Continuous
 62
     7
370
    25
100
AcDbSpline
210
0.0
220
0.0
230
1.0
 70
    24
 71
     3
 72
     9
 73
     5
 74
     0
 42
0.00000001
 43
0.00000001
 40
0.0
 40
0.0
 40
0.0
 40
0.0
 40
0.9574680184641476
 40
1.0
 40
1.0
 40
1.0
 40
1.0
 10
547.0425023955644
 20
567.0443216877273
 30
0.0
 10
546.5987322090771
 20
566.2756891778469
 30
0.0
 10
546.1352491705529
 20
565.4729130066768
 30
0.0
 10
545.6510182702464
 20
564.6342004847509
 30
0.0
 10
545.6304229705353
 20
564.5985283792544
 30
0.0
  0
SPLINE
  5
275
330
1F
100
AcDbEntity
  8
0
  6
Continuous
 62
     7
370
    25
100
AcDbSpline
210
0.0
220
0.0
230
1.0
 70
     8
 71
     3
 72
     9
 73
     5
 74
     0
 42
0.00000001
 43
0.00000001
 40
0.0
 40
0.0
 40
0.0
 40
0.0
 40
0.584191749740925
 40
1.0
 40
1.0
 40
1.0
 40
1.0
 10
548.696927198348
 20
568.7681372199862
 30
0.0
 10
548.3092709328974
 20
568.4788613164865
 30
0.0
 10
547.6456938357843
 20
567.983688449653
 30
0.0
 10
547.2196534873759
 20
567.3202039970417
 30
0.0
 10
547.0425023955644
 20
567.0443216877273
 30
0.0
  0
ARC
  5
276
330
1F
100
AcDbEntity
  8
0
  6
Continuous
 62
     7
370
    25
100
AcDbCircle
 10
558.1689130435
 20
553.8158302358
 30
0.0
 40
17.70000000000005
100
AcDbArc
 50
117.6465635726
 51
122.3534364274
  0
SPLINE
  5
277
330
1F
100
AcDbEntity
  8
0
  6
Continuous
 62
     7
370
    25
100
AcDbSpline
210
0.0
220
0.0
230
1.0
 70
     8
 71
     3
 72
     9
 73
     5
 74
     0
 42
0.00000001
 43
0.00000001
 40
0.0
 40
0.0
 40
0.0
 40
0.0
 40
0.5850553834536162
 40
1.0
 40
1.0
 40
1.0
 40
1.0
 10
552.2759087163122
 20
570.0658302357897
 30
0.0
 10
551.8112621455248
 20
570.0341318187511
 30
0.0
 10
551.0170696913943
 20
569.9799516198586
 30
0.0
 10
550.2670463997132
 20
569.6371908360585
 30
0.0
 10
549.9558282725459
 20
569.4949640940574
 30
0.0
  0
SPLINE
  5
278
330
1F
100
AcDbEntity
  8
0
  6
Continuous
 62
     7
370
    25
100
AcDbSpline
210
0.0
220
0.0
230
1.0
 70
    24
 71
     3
 72
    11
 73
     7
 74
     0
 42
0.00000001
 43
0.00000001
 40
0.0
 40
0.0
 40
0.0
 40
0.0
 40
0.2328716322111479
 40
0.4710265024313248
 40
0.7311421212560302
 40
0.9999999999999999
 40
0.9999999999999999
 40
0.9999999999999999
 40
0.9999999999999999
 10
564.0619173706446
 20
570.0658302357897
 30
0.0
 10
563.1680609403243
 20
570.0658302357897
 30
0.0
 10
561.3600688545048
 20
570.0658302357897
 30
0.0
 10
558.4323961139419
 20
570.0658302357897
 30
0.0
 10
555.3452972034639
 20
570.0658302357897
 30
0.0
 10
553.3102491824777
 20
570.0658302357897
 30
0.0
 10
552.2759087163122
 20
570.0658302357897
 30
0.0
  0
SPLINE
  5
279
330
1F
100
AcDbEntity
  8
0
  6
Continuous
 62
     7
370
    25
100
AcDbSpline
210
0.0
220
0.0
230
1.0
 70
     8
 71
     3
 72
     9
 73
     5
 74
     0
 42
0.00000001
 43
0.00000001
 40
0.0
 40
0.0
 40
0.0
 40
0.0
 40
0.5841917497409234
 40
1.0
 40
1.0
 40
1.0
 40
1.0
 10
566.3819978144109
 20
569.4949640940574
 30
0.0
 10
565.9376494005521
 20
569.6860463161239
 30
0.0
 10
565.1770285700529
 20
570.0131345061767
 30
0.0
 10
564.3894140048714
 20
570.05035404463
 30
0.0
 10
564.0619173706446
 20
570.0658302357897
 30
0.0
  0
ARC
  5
27A
330
1F
100
AcDbEntity
  8
0
  6
Continuous
 62
     7
370
    25
100
AcDbCircle
 10
558.1689130435
 20
553.8158302358
 30
0.0
 40
17.70000000000005
100
AcDbArc
 50
57.6465635726
 51
62.3534364274
  0
SPLINE
  5
27B
330
1F
100
AcDbEntity
  8
0
  6
Continuous
 62
     7
370
    25
100
AcDbSpline
210
0.0
220
0.0
230
1.0
 70
     8
 71
     3
 72
     9
 73
     5
 74
     0
 42
0.00000001
 43
0.00000001
 40
0.0
 40
0.0
 40
0.0
 40
0.0
 40
0.5850553834536193
 40
1.0
 40
1.0
 40
1.0
 40
1.0
 10
569.2953236913924
 20
567.0443216877273
 30
0.0
 10
569.0355487715834
 20
567.4308682132911
 30
0.0
 10
568.5915311158952
 20
568.0915689546159
 30
0.0
 10
567.9196799238629
 20
568.5697277867415
 30
0.0
 10
567.6408988886087
 20
568.7681372199862
 30
0.0
  0
SPLINE
  5
27C
330
1F
100
AcDbEntity
  8
0
  6
Continuous
 62
     7
370
    25
100
AcDbSpline
210
0.0
220
0.0
230
1.0
 70
    24
 71
     3
 72
    11
 73
     7
 74
     0
 42
0.00000001
 43
0.00000001
 40
0.0
 40
0.0
 40
0.0
 40
0.0
 40
0.2556279644380972
 40
0.5185037642963867
 40
0.7560467972580103
 40
1.0
 40
1.0
 40
1.0
 40
1.0
 10
575.1883280185585
 20
556.8373387838521
 30
0.0
 10
574.6970349402905
 20
557.6882833568196
 30
0.0
 10
573.7005191208464
 20
559.4142993866427
 30
0.0
 10
572.1803082143932
 20
562.04738191484
 30
0.0
 10
570.6885924928451
 20
564.6311093350107
 30
0.0
 10
569.7638503293387
 20
566.2328097461051
 30
0.0
 10
569.2953236913924
 20
567.0443216877273
 30
0.0
  0
SPLINE
  5
27D
330
1F
100
AcDbEntity
  8
0
  6
Continuous
 62
     7
370
    25
100
AcDbSpline
210
0.0
220
0.0
230
1.0
 70
     8
 71
     3
 72
     9
 73
     5
 74
     0
 42
0.00000001
 43
0.00000001
 40
0.0
 40
0.0
 40
0.0
 40
0.0
 40
0.5841917497409242
 40
1.0
 40
1.0
 40
1.0
 40
1.0
 10
575.8539836595412
 20
554.5426571098609
 30
0.0
 10
575.797291511133
 20
555.0230152354272
 30
0.0
 10
575.700247777747
 20
555.8452762923137
 30
0.0
 10
575.3386735609739
 20
556.5459802833781
 30
0.0
 10
575.1883280185585
 20
556.8373387838521
 30
0.0
  0
ARC
  5
27E
330
1F
100
AcDbEntity
  8
0
  6
Continuous
 62
     7
370
    25
100
AcDbCircle
 10
558.1689130435
 20
553.8158302358
 30
0.0
 40
17.70000000000003
100
AcDbArc
 50
357.6465635726
 51
2.3534364274
  0
SPLINE
  5
27F
330
1F
100
AcDbEntity
  8
0
  6
Continuous
 62
     7
370
    25
100
AcDbSpline
210
0.0
220
0.0
230
1.0
 70
     8
 71
     3
 72
     9
 73
     5
 74
     0
 42
0.00000001
 43
0.00000001
 40
0.0
 40
0.0
 40
0.0
 40
0.0
 40
0.5850553834536182
 40
0.9999999999999999
 40
0.9999999999999999
 40
0.9999999999999999
 40
0.9999999999999999
 10
575.1883280185585
 20
550.7943216877273
 30
0.0
 10
575.393199669537
 20
551.2125666303298
 30
0.0
 10
575.7433744679793
 20
551.927447570547
 30
0.0
 10
575.8215465676278
 20
552.7483671864728
 30
0.0
 10
575.8539836595412
 20
553.0890033617185
 30
0.0
  0
SPLINE
  5
280
330
1F
100
AcDbEntity
  8
0
  6
Continuous
 62
     7
370
    25
100
AcDbSpline
210
0.0
220
0.0
230
1.0
 70
    24
 71
     3
 72
    11
 73
     7
 74
     0
 42
0.00000001
 43
0.00000001
 40
0.0
 40
0.0
 40
0.0
 40
0.0
 40
0.2328716322111471
 40
0.471026502431323
 40
0.7311421212560296
 40
1.0
 40
1.0
 40
1.0
 40
1.0
 10
569.2953236913924
 20
540.5873387838521
 30
0.0
 10
569.7422519065526
 20
541.3614411598458
 30
0.0
 10
570.6462479494622
 20
542.9272082360064
 30
0.0
 10
572.1100843197438
 20
545.4626472033012
 30
0.0
 10
573.6536337749827
 20
548.1361532837703
 30
0.0
 10
574.6711577854759
 20
549.8985565678656
 30
0.0
 10
575.1883280185585
 20
550.7943216877273
 30
0.0
  0
SPLINE
  5
281
330
1F
100
AcDbEntity
  8
0
  6
Continuous
 62
     7
370
    25
100
AcDbSpline
210
0.0
220
0.0
230
1.0
 70
     8
 71
     3
 72
     9
 73
     5
 74
     0
 42
0.00000001
 43
0.00000001
 40
0.0
 40
0.0
 40
0.0
 40
0.0
 40
0.5841917497409237
 40
1.0
 40
1.0
 40
1.0
 40
1.0
 10
567.6408988886087
 20
538.8635232515933
 30
0.0
 10
568.0285551540593
 20
539.1527991550929
 30
0.0
 10
568.6921322511724
 20
539.6479720219265
 30
0.0
 10
569.1181725995808
 20
540.3114564745377
 30
0.0
 10
569.2953236913924
 20
540.5873387838521
 30
0.0
  0
ARC
  5
282
330
1F
100
AcDbEntity
  8
0
  6
Continuous
 62
     7
370
    25
100
AcDbCircle
 10
558.1689130435
 20
553.8158302358
 30
0.0
 40
17.69999999999996
100
AcDbArc
 50
297.6465635726
 51
302.3534364274
  0
SPLINE
  5
283
330
1F
100
AcDbEntity
  8
0
  6
Continuous
 62
     7
370
    25
100
AcDbSpline
210
0.0
220
0.0
230
1.0
 70
     8
 71
     3
 72
     9
 73
     5
 74
     0
 42
0.00000001
 43
0.00000001
 40
0.0
 40
0.0
 40
0.0
 40
0.0
 40
0.5850553834536171
 40
1.0
 40
1.0
 40
1.0
 40
1.0
 10
564.0619173706446
 20
537.5658302357897
 30
0.0
 10
564.526563941432
 20
537.5975286528284
 30
0.0
 10
565.3207563955624
 20
537.6517088517209
 30
0.0
 10
566.0707796872434
 20
537.994469635521
 30
0.0
 10
566.3819978144107
 20
538.1366963775221
 30
0.0
  0
SPLINE
  5
284
330
1F
100
AcDbEntity
  8
0
  6
Continuous
 62
     7
370
    25
100
AcDbSpline
210
0.0
220
0.0
230
1.0
 70
    24
 71
     3
 72
    11
 73
     7
 74
     0
 42
0.00000001
 43
0.00000001
 40
0.0
 40
0.0
 40
0.0
 40
0.0
 40
0.2328716322111485
 40
0.471026502431326
 40
0.7311421212560308
 40
1.0
 40
1.0
 40
1.0
 40
1.0
 10
552.2759087163122
 20
537.5658302357897
 30
0.0
 10
553.1697651466326
 20
537.5658302357897
 30
0.0
 10
554.977757232452
 20
537.5658302357897
 30
0.0
 10
557.9054299730149
 20
537.5658302357897
 30
0.0
 10
560.9925288834928
 20
537.5658302357897
 30
0.0
 10
563.027576904479
 20
537.5658302357897
 30
0.0
 10
564.0619173706446
 20
537.5658302357897
 30
0.0
  0
SPLINE
  5
285
330
1F
100
AcDbEntity
  8
0
  6
Continuous
 62
     7
370
    25
100
AcDbSpline
210
0.0
220
0.0
230
1.0
 70
     8
 71
     3
 72
     9
 73
     5
 74
     0
 42
0.00000001
 43
0.00000001
 40
0.0
 40
0.0
 40
0.0
 40
0.0
 40
0.5841917497409266
 40
1.0
 40
1.0
 40
1.0
 40
1.0
 10
549.9558282725459
 20
538.1366963775221
 30
0.0
 10
550.4001766864046
 20
537.9456141554555
 30
0.0
 10
551.1607975169038
 20
537.6185259654027
 30
0.0
 10
551.9484120820855
 20
537.5813064269495
 30
0.0
 10
552.2759087163122
 20
537.5658302357897
 30
0.0
  0
ARC
  5
286
330
1F
100
AcDbEntity
  8
0
  6
Continuous
 62
     7
370
    25
100
AcDbCircle
 10
558.1689130435
 20
553.8158302358
 30
0.0
 40
17.69999999999996
100
AcDbArc
 50
237.6465635726
 51
242.3534364274
  0
ARC
  5
287
330
1F
100
AcDbEntity
  8
0
  6
Continuous
 62
     7
370
    25
100
AcDbCircle
 10
558.1689130435
 20
553.8158302358
 30
0.0
 40
16.20000000000008
100
AcDbArc
 50
223.9250761661
 51
136.0749238339
  0
LINE
  5
288
330
1F
100
AcDbEntity
  8
0
  6
Continuous
 62
     7
370
    25
100
AcDbLine
 10
752.9251653566
 20
548.9408302358
 30
0.0
 11
752.2725799147
 21
550.3059550798
 31
0.0
  0
LWPOLYLINE
  5
289
330
1F
100
AcDbEntity
  8
0
  6
Continuous
 62
     7
370
    25
100
AcDbPolyline
 90
        3
 70
   128
 43
0.0
 10
759.6511899445
 20
544.218334346
 10
759.4498698642
 20
544.2565534182
 10
758.7175041209
 20
544.4332649829
  0
LWPOLYLINE
  5
28A
330
1F
100
AcDbEntity
  8
0
  6
Continuous
 62
     7
370
    25
100
AcDbPolyline
 90
        3
 70
   128
 43
0.0
 10
753.9385853381
 20
547.5029283523
 10
753.8704999794
 20
547.5839523872
 10
752.9251653566
 20
548.9408302358
  0
ARC
  5
28B
330
1F
100
AcDbEntity
  8
0
  6
Continuous
 62
     7
370
    25
100
AcDbCircle
 10
761.3689130435
 20
553.8158302358
 30
0.0
 40
14.87500000000008
100
AcDbArc
 50
55.1611835908
 51
308.4167037132
  0
ARC
  5
28C
330
1F
100
AcDbEntity
  8
0
  6
Continuous
 62
     7
370
    25
100
AcDbCircle
 10
761.3689130435
 20
553.8158302358
 30
0.0
 40
10.57500000000004
100
AcDbArc
 50
84.5490172093
 51
281.0490866707
  0
ARC
  5
28D
330
1F
100
AcDbEntity
  8
0
  6
Continuous
 62
     7
370
    25
100
AcDbCircle
 10
761.3689130435
 20
553.8158302358
 30
0.0
 40
16.20000000000002
100
AcDbArc
 50
210.0
 51
318.1420914366
  0
ARC
  5
28E
330
1F
100
AcDbEntity
  8
0
  6
Continuous
 62
     7
370
    25
100
AcDbCircle
 10
761.3689130435
 20
553.8158302358
 30
0.0
 40
16.20000000000007
100
AcDbArc
 50
45.9729863763
 51
210.0
  0
SPLINE
  5
28F
330
1F
100
AcDbEntity
  8
0
  6
Continuous
 62
     7
370
    25
100
AcDbSpline
210
0.0
220
0.0
230
1.0
 70
     8
 71
     3
 72
     9
 73
     5
 74
     0
 42
0.00000001
 43
0.00000001
 40
0.0
 40
0.0
 40
0.0
 40
0.0
 40
0.5850553834534097
 40
1.0
 40
1.0
 40
1.0
 40
1.0
 10
750.2425023955636
 20
540.5873387838535
 30
0.0
 10
750.5022773153725
 20
540.2007922582895
 30
0.0
 10
750.9462949710608
 20
539.5400915169643
 30
0.0
 10
751.6181461630937
 20
539.0619326848381
 30
0.0
 10
751.8969271983481
 20
538.8635232515933
 30
0.0
  0
SPLINE
  5
290
330
1F
100
AcDbEntity
  8
0
  6
Continuous
 62
     7
370
    25
100
AcDbSpline
210
0.0
220
0.0
230
1.0
 70
    24
 71
     3
 72
    11
 73
     7
 74
     0
 42
0.00000001
 43
0.00000001
 40
0.0
 40
0.0
 40
0.0
 40
0.0
 40
0.2379053903768482
 40
0.4814905141303176
 40
0.7366519444348056
 40
0.9999999999999999
 40
0.9999999999999999
 40
0.9999999999999999
 40
0.9999999999999999
 10
744.349498068398
 20
550.7943216877276
 30
0.0
 10
744.8062301791732
 20
550.0032384664166
 30
0.0
 10
745.7305983849069
 20
548.4021857691848
 30
0.0
 10
747.2069244774266
 20
545.845113968401
 30
0.0
 10
748.7390578618899
 20
543.191381102538
 30
0.0
 10
749.7361068265365
 20
541.4644416381362
 30
0.0
 10
750.2425023955636
 20
540.5873387838535
 30
0.0
  0
SPLINE
  5
291
330
1F
100
AcDbEntity
  8
0
  6
Continuous
 62
     7
370
    25
100
AcDbSpline
210
0.0
220
0.0
230
1.0
 70
     8
 71
     3
 72
     9
 73
     5
 74
     0
 42
0.00000001
 43
0.00000001
 40
0.0
 40
0.0
 40
0.0
 40
0.0
 40
0.5841917497409942
 40
1.0
 40
1.0
 40
1.0
 40
1.0
 10
743.6838424274156
 20
553.0890033617185
 30
0.0
 10
743.7405345758237
 20
552.6086452361523
 30
0.0
 10
743.8375783092098
 20
551.786384179266
 30
0.0
 10
744.1991525259829
 20
551.0856801882015
 30
0.0
 10
744.349498068398
 20
550.7943216877276
 30
0.0
  0
ARC
  5
292
330
1F
100
AcDbEntity
  8
0
  6
Continuous
 62
     7
370
    25
100
AcDbCircle
 10
761.3689130435
 20
553.8158302358
 30
0.0
 40
17.70000000000003
100
AcDbArc
 50
177.6465635726
 51
182.3534364274
  0
SPLINE
  5
293
330
1F
100
AcDbEntity
  8
0
  6
Continuous
 62
     7
370
    25
100
AcDbSpline
210
0.0
220
0.0
230
1.0
 70
     8
 71
     3
 72
     9
 73
     5
 74
     0
 42
0.00000001
 43
0.00000001
 40
0.0
 40
0.0
 40
0.0
 40
0.0
 40
0.5850553834536183
 40
1.0
 40
1.0
 40
1.0
 40
1.0
 10
744.3494980683982
 20
556.8373387838521
 30
0.0
 10
744.1446264174198
 20
556.4190938412496
 30
0.0
 10
743.7944516189775
 20
555.7042129010324
 30
0.0
 10
743.716279519329
 20
554.8832932851067
 30
0.0
 10
743.6838424274156
 20
554.5426571098609
 30
0.0
  0
SPLINE
  5
294
330
1F
100
AcDbEntity
  8
0
  6
Continuous
 62
     7
370
    25
100
AcDbSpline
210
0.0
220
0.0
230
1.0
 70
    24
 71
     3
 72
    11
 73
     7
 74
     0
 42
0.00000001
 43
0.00000001
 40
0.0
 40
0.0
 40
0.0
 40
0.0
 40
0.2328716322111468
 40
0.4710265024313225
 40
0.7311421212560294
 40
1.0
 40
1.0
 40
1.0
 40
1.0
 10
750.2425023955644
 20
567.0443216877273
 30
0.0
 10
749.7955741804042
 20
566.2702193117337
 30
0.0
 10
748.8915781374947
 20
564.704452235573
 30
0.0
 10
747.4277417672131
 20
562.1690132682783
 30
0.0
 10
745.8841923119741
 20
559.4955071878092
 30
0.0
 10
744.866668301481
 20
557.7331039037139
 30
0.0
 10
744.3494980683982
 20
556.8373387838521
 30
0.0
  0
SPLINE
  5
295
330
1F
100
AcDbEntity
  8
0
  6
Continuous
 62
     7
370
    25
100
AcDbSpline
210
0.0
220
0.0
230
1.0
 70
     8
 71
     3
 72
     9
 73
     5
 74
     0
 42
0.00000001
 43
0.00000001
 40
0.0
 40
0.0
 40
0.0
 40
0.0
 40
0.584191749740925
 40
1.0
 40
1.0
 40
1.0
 40
1.0
 10
751.8969271983481
 20
568.7681372199862
 30
0.0
 10
751.5092709328975
 20
568.4788613164865
 30
0.0
 10
750.8456938357843
 20
567.983688449653
 30
0.0
 10
750.419653487376
 20
567.3202039970417
 30
0.0
 10
750.2425023955644
 20
567.0443216877273
 30
0.0
  0
ARC
  5
296
330
1F
100
AcDbEntity
  8
0
  6
Continuous
 62
     7
370
    25
100
AcDbCircle
 10
761.3689130435
 20
553.8158302358
 30
0.0
 40
17.70000000000005
100
AcDbArc
 50
117.6465635726
 51
122.3534364274
  0
SPLINE
  5
297
330
1F
100
AcDbEntity
  8
0
  6
Continuous
 62
     7
370
    25
100
AcDbSpline
210
0.0
220
0.0
230
1.0
 70
     8
 71
     3
 72
     9
 73
     5
 74
     0
 42
0.00000001
 43
0.00000001
 40
0.0
 40
0.0
 40
0.0
 40
0.0
 40
0.5850553834536162
 40
1.0
 40
1.0
 40
1.0
 40
1.0
 10
755.4759087163122
 20
570.0658302357897
 30
0.0
 10
755.0112621455248
 20
570.0341318187511
 30
0.0
 10
754.2170696913944
 20
569.9799516198586
 30
0.0
 10
753.4670463997132
 20
569.6371908360585
 30
0.0
 10
753.1558282725459
 20
569.4949640940574
 30
0.0
  0
SPLINE
  5
298
330
1F
100
AcDbEntity
  8
0
  6
Continuous
 62
     7
370
    25
100
AcDbSpline
210
0.0
220
0.0
230
1.0
 70
    24
 71
     3
 72
    11
 73
     7
 74
     0
 42
0.00000001
 43
0.00000001
 40
0.0
 40
0.0
 40
0.0
 40
0.0
 40
0.2328716322111479
 40
0.4710265024313248
 40
0.7311421212560302
 40
0.9999999999999999
 40
0.9999999999999999
 40
0.9999999999999999
 40
0.9999999999999999
 10
767.2619173706446
 20
570.0658302357897
 30
0.0
 10
766.3680609403243
 20
570.0658302357897
 30
0.0
 10
764.560068854505
 20
570.0658302357897
 30
0.0
 10
761.6323961139419
 20
570.0658302357897
 30
0.0
 10
758.545297203464
 20
570.0658302357897
 30
0.0
 10
756.5102491824778
 20
570.0658302357897
 30
0.0
 10
755.4759087163122
 20
570.0658302357897
 30
0.0
  0
SPLINE
  5
299
330
1F
100
AcDbEntity
  8
0
  6
Continuous
 62
     7
370
    25
100
AcDbSpline
210
0.0
220
0.0
230
1.0
 70
     8
 71
     3
 72
     9
 73
     5
 74
     0
 42
0.00000001
 43
0.00000001
 40
0.0
 40
0.0
 40
0.0
 40
0.0
 40
0.5841917497409234
 40
1.0
 40
1.0
 40
1.0
 40
1.0
 10
769.5819978144109
 20
569.4949640940574
 30
0.0
 10
769.1376494005522
 20
569.6860463161239
 30
0.0
 10
768.377028570053
 20
570.0131345061767
 30
0.0
 10
767.5894140048714
 20
570.05035404463
 30
0.0
 10
767.2619173706446
 20
570.0658302357897
 30
0.0
  0
ARC
  5
29A
330
1F
100
AcDbEntity
  8
0
  6
Continuous
 62
     7
370
    25
100
AcDbCircle
 10
761.3689130435
 20
553.8158302358
 30
0.0
 40
17.70000000000005
100
AcDbArc
 50
57.6465635726
 51
62.3534364274
  0
SPLINE
  5
29B
330
1F
100
AcDbEntity
  8
0
  6
Continuous
 62
     7
370
    25
100
AcDbSpline
210
0.0
220
0.0
230
1.0
 70
     8
 71
     3
 72
     9
 73
     5
 74
     0
 42
0.00000001
 43
0.00000001
 40
0.0
 40
0.0
 40
0.0
 40
0.0
 40
0.5850553834536193
 40
1.0
 40
1.0
 40
1.0
 40
1.0
 10
772.4953236913924
 20
567.0443216877273
 30
0.0
 10
772.2355487715835
 20
567.4308682132911
 30
0.0
 10
771.7915311158953
 20
568.0915689546159
 30
0.0
 10
771.1196799238629
 20
568.5697277867415
 30
0.0
 10
770.8408988886088
 20
568.7681372199862
 30
0.0
  0
LINE
  5
29C
330
1F
100
AcDbEntity
  8
0
  6
Continuous
 62
     7
370
    25
100
AcDbLine
 10
773.7906907247
 20
564.8006801716
 30
0.0
 11
772.4953236914
 21
567.0443216877
 31
0.0
  0
SPLINE
  5
29D
330
1F
100
AcDbEntity
  8
0
  6
Continuous
 62
     7
370
    25
100
AcDbSpline
210
0.0
220
0.0
230
1.0
 70
    24
 71
     3
 72
     9
 73
     5
 74
     0
 42
0.00000001
 43
0.00000001
 40
0.0
 40
0.0
 40
0.0
 40
0.0
 40
0.7821913034532898
 40
1.0
 40
1.0
 40
1.0
 40
1.0
 10
772.4953236913924
 20
540.5873387838521
 30
0.0
 10
772.9402545260555
 20
541.3579815953426
 30
0.0
 10
773.5090806338105
 20
542.3432173146459
 30
0.0
 10
774.1033038714245
 20
543.3724421532314
 30
0.0
 10
774.232730860267
 20
543.5966162737772
 30
0.0
  0
SPLINE
  5
29E
330
1F
100
AcDbEntity
  8
0
  6
Continuous
 62
     7
370
    25
100
AcDbSpline
210
0.0
220
0.0
230
1.0
 70
     8
 71
     3
 72
     9
 73
     5
 74
     0
 42
0.00000001
 43
0.00000001
 40
0.0
 40
0.0
 40
0.0
 40
0.0
 40
0.5841917497409237
 40
1.0
 40
1.0
 40
1.0
 40
1.0
 10
770.8408988886088
 20
538.8635232515933
 30
0.0
 10
771.2285551540593
 20
539.1527991550929
 30
0.0
 10
771.8921322511725
 20
539.6479720219265
 30
0.0
 10
772.3181725995809
 20
540.3114564745377
 30
0.0
 10
772.4953236913924
 20
540.5873387838521
 30
0.0
  0
ARC
  5
29F
330
1F
100
AcDbEntity
  8
0
  6
Continuous
 62
     7
370
    25
100
AcDbCircle
 10
761.3689130435
 20
553.8158302358
 30
0.0
 40
17.69999999999996
100
AcDbArc
 50
297.6465635726
 51
302.3534364274
  0
SPLINE
  5
2A0
330
1F
100
AcDbEntity
  8
0
  6
Continuous
 62
     7
370
    25
100
AcDbSpline
210
0.0
220
0.0
230
1.0
 70
     8
 71
     3
 72
     9
 73
     5
 74
     0
 42
0.00000001
 43
0.00000001
 40
0.0
 40
0.0
 40
0.0
 40
0.0
 40
0.5850553834536171
 40
1.0
 40
1.0
 40
1.0
 40
1.0
 10
767.2619173706446
 20
537.5658302357897
 30
0.0
 10
767.726563941432
 20
537.5975286528284
 30
0.0
 10
768.5207563955624
 20
537.6517088517209
 30
0.0
 10
769.2707796872435
 20
537.994469635521
 30
0.0
 10
769.5819978144109
 20
538.1366963775221
 30
0.0
  0
SPLINE
  5
2A1
330
1F
100
AcDbEntity
  8
0
  6
Continuous
 62
     7
370
    25
100
AcDbSpline
210
0.0
220
0.0
230
1.0
 70
    24
 71
     3
 72
    11
 73
     7
 74
     0
 42
0.00000001
 43
0.00000001
 40
0.0
 40
0.0
 40
0.0
 40
0.0
 40
0.2328716322111485
 40
0.471026502431326
 40
0.7311421212560308
 40
1.0
 40
1.0
 40
1.0
 40
1.0
 10
755.4759087163122
 20
537.5658302357897
 30
0.0
 10
756.3697651466325
 20
537.5658302357897
 30
0.0
 10
758.177757232452
 20
537.5658302357897
 30
0.0
 10
761.1054299730149
 20
537.5658302357897
 30
0.0
 10
764.1925288834929
 20
537.5658302357897
 30
0.0
 10
766.227576904479
 20
537.5658302357897
 30
0.0
 10
767.2619173706446
 20
537.5658302357897
 30
0.0
  0
SPLINE
  5
2A2
330
1F
100
AcDbEntity
  8
0
  6
Continuous
 62
     7
370
    25
100
AcDbSpline
210
0.0
220
0.0
230
1.0
 70
     8
 71
     3
 72
     9
 73
     5
 74
     0
 42
0.00000001
 43
0.00000001
 40
0.0
 40
0.0
 40
0.0
 40
0.0
 40
0.5841917497409266
 40
1.0
 40
1.0
 40
1.0
 40
1.0
 10
753.1558282725459
 20
538.1366963775221
 30
0.0
 10
753.6001766864047
 20
537.9456141554555
 30
0.0
 10
754.360797516904
 20
537.6185259654027
 30
0.0
 10
755.1484120820855
 20
537.5813064269495
 30
0.0
 10
755.4759087163122
 20
537.5658302357897
 30
0.0
  0
ARC
  5
2A3
330
1F
100
AcDbEntity
  8
0
  6
Continuous
 62
     7
370
    25
100
AcDbCircle
 10
761.3689130435
 20
553.8158302358
 30
0.0
 40
17.69999999999996
100
AcDbArc
 50
237.6465635726
 51
242.3534364274
  0
SPLINE
  5
2A4
330
1F
100
AcDbEntity
  8
0
  6
Continuous
 62
     7
370
    25
100
AcDbSpline
210
0.0
220
0.0
230
1.0
 70
    24
 71
     3
 72
    10
 73
     6
 74
     0
 42
0.00000001
 43
0.00000001
 40
0.0
 40
0.0
 40
0.0
 40
0.0
 40
0.110135990929901
 40
0.5528457866761096
 40
1.0
 40
1.0
 40
1.0
 40
1.0
 10
775.5351232689421
 20
564.0934556067192
 30
0.0
 10
775.3812049948981
 20
564.360049877577
 30
0.0
 10
774.6085868109665
 20
565.6982638269982
 30
0.0
 10
773.2248042170013
 20
568.0950455863751
 30
0.0
 10
772.0228777714979
 20
570.1768432569478
 30
0.0
 10
771.4189130434785
 20
571.222940851857
 30
0.0
  0
SPLINE
  5
2A5
330
1F
100
AcDbEntity
  8
0
  6
Continuous
 62
     7
370
    25
100
AcDbSpline
210
0.0
220
0.0
230
1.0
 70
    24
 71
     3
 72
     9
 73
     5
 74
     0
 42
0.00000001
 43
0.00000001
 40
0.0
 40
0.0
 40
0.0
 40
0.0
 40
0.7103805279271733
 40
1.0
 40
1.0
 40
1.0
 40
1.0
 10
771.4189130434785
 20
536.4087196197224
 30
0.0
 10
772.2892602036349
 20
537.9162051213366
 30
0.0
 10
773.51444463077
 20
540.0382867977767
 30
0.0
 10
774.7815893283084
 20
542.2330457944549
 30
0.0
 10
775.1485791066494
 20
542.8686907364001
 30
0.0
  0
SPLINE
  5
2A6
330
1F
100
AcDbEntity
  8
0
  6
Continuous
 62
     7
370
    25
100
AcDbSpline
210
0.0
220
0.0
230
1.0
 70
    24
 71
     3
 72
     9
 73
     5
 74
     0
 42
0.00000001
 43
0.00000001
 40
0.0
 40
0.0
 40
0.0
 40
0.0
 40
0.671589381077599
 40
1.0
 40
1.0
 40
1.0
 40
1.0
 10
751.3189130434785
 20
536.4087196197224
 30
0.0
 10
753.06037821523
 20
536.4087196197224
 30
0.0
 10
755.6534287023554
 20
536.4087196197224
 30
0.0
 10
758.3352469987436
 20
536.4087196197224
 30
0.0
 10
759.215984605298
 20
536.4087196197224
 30
0.0
  0
SPLINE
  5
2A7
330
1F
100
AcDbEntity
  8
0
  6
Continuous
 62
     7
370
    25
100
AcDbSpline
210
0.0
220
0.0
230
1.0
 70
    24
 71
     3
 72
     9
 73
     5
 74
     0
 42
0.00000001
 43
0.00000001
 40
0.0
 40
0.0
 40
0.0
 40
0.0
 40
0.4110597481658859
 40
1.0
 40
1.0
 40
1.0
 40
1.0
 10
763.4354031847013
 20
536.4087196197224
 30
0.0
 10
764.5480075752575
 20
536.4087196197224
 30
0.0
 10
767.2546807426514
 20
536.4087196197224
 30
0.0
 10
769.8754415270927
 20
536.4087196197224
 30
0.0
 10
771.4189130434785
 20
536.4087196197224
 30
0.0
  0
SPLINE
  5
2A8
330
1F
100
AcDbEntity
  8
0
  6
Continuous
 62
     7
370
    25
100
AcDbSpline
210
0.0
220
0.0
230
1.0
 70
    24
 71
     3
 72
     9
 73
     5
 74
     0
 42
0.00000001
 43
0.00000001
 40
0.0
 40
0.0
 40
0.0
 40
0.0
 40
0.5289831445197531
 40
1.0
 40
1.0
 40
1.0
 40
1.0
 10
748.5861086379026
 20
541.1420756973279
 30
0.0
 10
749.0752772815505
 20
540.2948107530603
 30
0.0
 10
750.000011176601
 20
538.6931246633517
 30
0.0
 10
750.8966031238407
 20
537.1401818570755
 30
0.0
 10
751.3189130434785
 20
536.4087196197224
 30
0.0
  0
SPLINE
  5
2A9
330
1F
100
AcDbEntity
  8
0
  6
Continuous
 62
     7
370
    25
100
AcDbSpline
210
0.0
220
0.0
230
1.0
 70
    24
 71
     3
 72
     9
 73
     5
 74
     0
 42
0.00000001
 43
0.00000001
 40
0.0
 40
0.0
 40
0.0
 40
0.0
 40
0.9654557663954498
 40
1.0
 40
1.0
 40
1.0
 40
1.0
 10
751.3189130434785
 20
571.222940851857
 30
0.0
 10
750.451100290404
 20
569.7198450720757
 30
0.0
 10
749.5522369936272
 20
568.1629681729993
 30
0.0
 10
748.6224994092041
 20
566.5526154390724
 30
0.0
 10
748.5903823368969
 20
566.496987038046
 30
0.0
  0
SPLINE
  5
2AA
330
1F
100
AcDbEntity
  8
0
  6
Continuous
 62
     7
370
    25
100
AcDbSpline
210
0.0
220
0.0
230
1.0
 70
    24
 71
     3
 72
     9
 73
     5
 74
     0
 42
0.00000001
 43
0.00000001
 40
0.0
 40
0.0
 40
0.0
 40
0.0
 40
0.6286728144400244
 40
1.0
 40
1.0
 40
1.0
 40
1.0
 10
771.4189130434785
 20
571.222940851857
 30
0.0
 10
769.6765950406088
 20
571.222940851857
 30
0.0
 10
766.9051725091261
 20
571.222940851857
 30
0.0
 10
764.038922403247
 20
571.222940851857
 30
0.0
 10
762.9746058183199
 20
571.222940851857
 30
0.0
  0
SPLINE
  5
2AB
330
1F
100
AcDbEntity
  8
0
  6
Continuous
 62
     7
370
    25
100
AcDbSpline
210
0.0
220
0.0
230
1.0
 70
    24
 71
     3
 72
     9
 73
     5
 74
     0
 42
0.00000001
 43
0.00000001
 40
0.0
 40
0.0
 40
0.0
 40
0.0
 40
0.4497226732332474
 40
1.0
 40
1.0
 40
1.0
 40
1.0
 10
759.8704606977795
 20
571.222940851857
 30
0.0
 10
758.5671503638333
 20
571.222940851857
 30
0.0
 10
755.6691191736863
 20
571.222940851857
 30
0.0
 10
752.8630366392274
 20
571.222940851857
 30
0.0
 10
751.3189130434785
 20
571.222940851857
 30
0.0
  0
SPLINE
  5
2AC
330
1F
100
AcDbEntity
  8
0
  6
Continuous
 62
     7
370
    25
100
AcDbSpline
210
0.0
220
0.0
230
1.0
 70
    24
 71
     3
 72
    10
 73
     6
 74
     0
 42
0.00000001
 43
0.00000001
 40
0.0
 40
0.0
 40
0.0
 40
0.0
 40
0.0196957755341269
 40
0.5073998275678177
 40
1.0
 40
1.0
 40
1.0
 40
1.0
 10
544.3892469803073
 20
542.8686907364001
 30
0.0
 10
544.4142199140047
 20
542.8254363464223
 30
0.0
 10
545.057569155567
 20
541.7111227730257
 30
0.0
 10
546.3127414458774
 20
539.5371005939551
 30
0.0
 10
547.5148545300445
 20
537.4549796557343
 30
0.0
 10
548.1189130434784
 20
536.4087196197224
 30
0.0
  0
SPLINE
  5
2AD
330
1F
100
AcDbEntity
  8
0
  6
Continuous
 62
     7
370
    25
100
AcDbSpline
210
0.0
220
0.0
230
1.0
 70
    24
 71
     3
 72
     9
 73
     5
 74
     0
 42
0.00000001
 43
0.00000001
 40
0.0
 40
0.0
 40
0.0
 40
0.0
 40
0.6446226484224856
 40
1.0
 40
1.0
 40
1.0
 40
1.0
 10
548.1189130434784
 20
571.222940851857
 30
0.0
 10
547.2479125183129
 20
569.7143236888512
 30
0.0
 10
545.8967336118674
 20
567.3740131727723
 30
0.0
 10
544.4993140728377
 20
564.9536115316834
 30
0.0
 10
544.0027028180147
 20
564.0934556067192
 30
0.0
  0
SPLINE
  5
2AE
330
1F
100
AcDbEntity
  8
0
  6
Continuous
 62
     7
370
    25
100
AcDbSpline
210
0.0
220
0.0
230
1.0
 70
    24
 71
     3
 72
     9
 73
     5
 74
     0
 42
0.00000001
 43
0.00000001
 40
0.0
 40
0.0
 40
0.0
 40
0.0
 40
0.6208973717932271
 40
1.0
 40
1.0
 40
1.0
 40
1.0
 10
568.2189130434783
 20
571.222940851857
 30
0.0
 10
566.4764405282614
 20
571.222940851857
 30
0.0
 10
563.6700628652599
 20
571.222940851857
 30
0.0
 10
560.7676701105689
 20
571.222940851857
 30
0.0
 10
559.6673653891772
 20
571.222940851857
 30
0.0
  0
SPLINE
  5
2AF
330
1F
100
AcDbEntity
  8
0
  6
Continuous
 62
     7
370
    25
100
AcDbSpline
210
0.0
220
0.0
230
1.0
 70
    24
 71
     3
 72
     9
 73
     5
 74
     0
 42
0.00000001
 43
0.00000001
 40
0.0
 40
0.0
 40
0.0
 40
0.0
 40
0.442817054531925
 40
1.0
 40
1.0
 40
1.0
 40
1.0
 10
556.563220268637
 20
571.222940851857
 30
0.0
 10
555.2959201406177
 20
571.222940851857
 30
0.0
 10
552.4340156248604
 20
571.222940851857
 30
0.0
 10
549.6629201707646
 20
571.222940851857
 30
0.0
 10
548.1189130434784
 20
571.222940851857
 30
0.0
  0
SPLINE
  5
2B0
330
1F
100
AcDbEntity
  8
0
  6
Continuous
 62
     7
370
    25
100
AcDbSpline
210
0.0
220
0.0
230
1.0
 70
    24
 71
     3
 72
     9
 73
     5
 74
     0
 42
0.00000001
 43
0.00000001
 40
0.0
 40
0.0
 40
0.0
 40
0.0
 40
0.5298415366282089
 40
1.0
 40
1.0
 40
1.0
 40
1.0
 10
570.9567552702667
 20
566.4808590119519
 30
0.0
 10
570.4658940189125
 20
567.3310556387643
 30
0.0
 10
569.5394637233983
 20
568.9356799802662
 30
0.0
 10
568.6412267558735
 20
570.4914720452555
 30
0.0
 10
568.2189130434783
 20
571.222940851857
 30
0.0
  0
SPLINE
  5
2B1
330
1F
100
AcDbEntity
  8
0
  6
Continuous
 62
     7
370
    25
100
AcDbSpline
210
0.0
220
0.0
230
1.0
 70
    24
 71
     3
 72
     9
 73
     5
 74
     0
 42
0.00000001
 43
0.00000001
 40
0.0
 40
0.0
 40
0.0
 40
0.0
 40
0.9633988305488669
 40
1.0
 40
1.0
 40
1.0
 40
1.0
 10
568.2189130434783
 20
536.4087196197224
 30
0.0
 10
569.0867462341022
 20
537.9118507983776
 30
0.0
 10
569.9875498920528
 20
539.4720885015921
 30
0.0
 10
570.9192937567965
 20
541.0859162149686
 30
0.0
 10
570.9533966718751
 20
541.1449841965707
 30
0.0
  0
SPLINE
  5
2B2
330
1F
100
AcDbEntity
  8
0
  6
Continuous
 62
     7
370
    25
100
AcDbSpline
210
0.0
220
0.0
230
1.0
 70
    24
 71
     3
 72
     9
 73
     5
 74
     0
 42
0.00000001
 43
0.00000001
 40
0.0
 40
0.0
 40
0.0
 40
0.0
 40
0.6644250100199833
 40
1.0
 40
1.0
 40
1.0
 40
1.0
 10
548.1189130434784
 20
536.4087196197224
 30
0.0
 10
549.8605205844607
 20
536.4087196197224
 30
0.0
 10
552.4817457260759
 20
536.4087196197224
 30
0.0
 10
555.1926958436981
 20
536.4087196197224
 30
0.0
 10
556.1024229022553
 20
536.4087196197224
 30
0.0
  0
SPLINE
  5
2B3
330
1F
100
AcDbEntity
  8
0
  6
Continuous
 62
     7
370
    25
100
AcDbSpline
210
0.0
220
0.0
230
1.0
 70
    24
 71
     3
 72
     9
 73
     5
 74
     0
 42
0.00000001
 43
0.00000001
 40
0.0
 40
0.0
 40
0.0
 40
0.0
 40
0.4046949946240694
 40
1.0
 40
1.0
 40
1.0
 40
1.0
 10
560.321841481659
 20
536.4087196197224
 30
0.0
 10
561.4054342731038
 20
536.4087196197224
 30
0.0
 10
564.082988495022
 20
536.4087196197224
 30
0.0
 10
566.6755488734568
 20
536.4087196197224
 30
0.0
 10
568.2189130434783
 20
536.4087196197224
 30
0.0
  0
ARC
  5
2B4
330
1F
100
AcDbEntity
  8
0
  6
Continuous
 62
     7
370
    25
100
AcDbCircle
 10
558.1689130435
 20
553.8158302358
 30
0.0
 40
25.80000000000007
100
AcDbArc
 50
27.7177476896
 51
90.0
  0
ARC
  5
2B5
330
1F
100
AcDbEntity
  8
0
  6
Continuous
 62
     7
370
    25
100
AcDbCircle
 10
558.1689130435
 20
553.8158302358
 30
0.0
 40
25.79999999999996
100
AcDbArc
 50
191.6486469977
 51
332.2822523104
  0
ARC
  5
2B6
330
1F
100
AcDbEntity
  8
0
  6
Continuous
 62
     7
370
    25
100
AcDbCircle
 10
558.1689130435
 20
553.8158302358
 30
0.0
 40
25.80000000000007
100
AcDbArc
 50
90.0
 51
168.1200018588
  0
ARC
  5
2B7
330
1F
100
AcDbEntity
  8
0
  6
Continuous
 62
     7
370
    25
100
AcDbCircle
 10
761.3689130435
 20
553.8158302358
 30
0.0
 40
25.79999999999995
100
AcDbArc
 50
207.7177476896
 51
270.0
  0
ARC
  5
2B8
330
1F
100
AcDbEntity
  8
0
  6
Continuous
 62
     7
370
    25
100
AcDbCircle
 10
761.3689130435
 20
553.8158302358
 30
0.0
 40
25.80000000000004
100
AcDbArc
 50
12.4162886221
 51
152.2822523104
  0
ARC
  5
2B9
330
1F
100
AcDbEntity
  8
0
  6
Continuous
 62
     7
370
    25
100
AcDbCircle
 10
761.3689130435
 20
553.8158302358
 30
0.0
 40
25.80000000000001
100
AcDbArc
 50
270.0
 51
348.9141211324
  0
SPLINE
  5
2BA
330
1F
100
AcDbEntity
  8
0
  6
Continuous
 62
     8
370
    25
100
AcDbSpline
210
0.0
220
0.0
230
1.0
 70
     8
 71
     3
 72
     9
 73
     5
 74
     0
 42
0.00000001
 43
0.00000001
 40
0.0
 40
0.0
 40
0.0
 40
0.0
 40
0.5577710077954094
 40
1.0
 40
1.0
 40
1.0
 40
1.0
 10
673.9325280576273
 20
549.7177356121199
 30
0.0
 10
673.9725245353611
 20
550.1986533623434
 30
0.0
 10
674.0442322382982
 20
551.0608669652418
 30
0.0
 10
674.0594740418269
 20
551.2907144115587
 30
0.0
 10
674.0662144092408
 20
551.3923596161044
 30
0.0
  0
SPLINE
  5
2BB
330
1F
100
AcDbEntity
  8
0
  6
Continuous
 62
     8
370
    25
100
AcDbSpline
210
0.0
220
0.0
230
1.0
 70
     8
 71
     3
 72
     9
 73
     5
 74
     0
 42
0.00000001
 43
0.00000001
 40
0.0
 40
0.0
 40
0.0
 40
0.0
 40
0.2582795088483729
 40
0.9999999999999999
 40
0.9999999999999999
 40
0.9999999999999999
 40
0.9999999999999999
 10
674.0074313994181
 20
553.0980832880894
 30
0.0
 10
674.0204163501031
 20
553.422187234702
 30
0.0
 10
674.0706911502332
 20
554.6770446101775
 30
0.0
 10
673.9798078975301
 20
555.9308908397774
 30
0.0
 10
673.9123979266977
 20
556.8608942810247
 30
0.0
  0
LINE
  5
2BC
330
1F
100
AcDbEntity
  8
0
  6
Continuous
 62
     8
370
    25
100
AcDbLine
 10
645.662986434
 20
549.0831010283
 30
0.0
 11
645.3270171459
 21
549.0927731873
 31
0.0
  0
LINE
  5
2BD
330
1F
100
AcDbEntity
  8
0
  6
Continuous
 62
     8
370
    25
100
AcDbLine
 10
673.5966633948
 20
546.3572015847
 30
0.0
 11
673.8598944355
 21
546.349623474
 31
0.0
  0
LINE
  5
2BE
330
1F
100
AcDbEntity
  8
0
  6
Continuous
 62
     8
370
    25
100
AcDbLine
 10
673.5854432095
 20
546.2404608847
 30
0.0
 11
673.7985269401
 21
546.1236306861
 31
0.0
  0
SPLINE
  5
2BF
330
1F
100
AcDbEntity
  8
0
  6
Continuous
 62
     8
370
    25
100
AcDbSpline
210
0.0
220
0.0
230
1.0
 70
     8
 71
     3
 72
    16
 73
    12
 74
     0
 42
0.00000001
 43
0.00000001
 40
0.0
 40
0.0
 40
0.0
 40
0.0
 40
0.0855077182088371
 40
0.1688042806535672
 40
0.2523142731498814
 40
0.2613716482862281
 40
0.3814718037990015
 40
0.5018972080353301
 40
0.6690782362017521
 40
0.8365027373305417
 40
1.0
 40
1.0
 40
1.0
 40
1.0
 10
637.9885810726131
 20
553.8158302357897
 30
0.0
 10
638.023005171479
 20
554.3463969145122
 30
0.0
 10
638.0909631917366
 20
555.3938102757453
 30
0.0
 10
638.6038506595044
 20
556.8586776053095
 30
0.0
 10
639.1032486550133
 20
557.7826364095215
 30
0.0
 10
639.7926087077326
 20
558.8255765315392
 30
0.0
 10
640.7254049600101
 20
559.9390109655068
 30
0.0
 10
642.4726183502679
 20
561.4441979198363
 30
0.0
 10
644.6114099726439
 20
562.7758828872005
 30
0.0
 10
647.0762580963955
 20
563.9370966909289
 30
0.0
 10
648.7966194464942
 20
564.3827149674462
 30
0.0
 10
649.6465918638871
 20
564.6028799018097
 30
0.0
  0
SPLINE
  5
2C0
330
1F
100
AcDbEntity
  8
0
  6
Continuous
 62
     8
370
    25
100
AcDbSpline
210
0.0
220
0.0
230
1.0
 70
     8
 71
     3
 72
    23
 73
    19
 74
     0
 42
0.00000001
 43
0.00000001
 40
0.0
 40
0.0
 40
0.0
 40
0.0
 40
0.0651578909815488
 40
0.1723962593994241
 40
0.2794556057227147
 40
0.3504373537187601
 40
0.4212265152694936
 40
0.4672079607350344
 40
0.5130834409461756
 40
0.5783942043528688
 40
0.6032812310522193
 40
0.6788113173409006
 40
0.6955637065041037
 40
0.7559790914535769
 40
0.8165700454835513
 40
0.9051933494199587
 40
0.9944025813871281
 40
1.0
 40
1.0
 40
1.0
 40
1.0
 10
669.2179182344003
 20
564.7898799896972
 30
0.0
 10
669.8322916825463
 20
564.6570158532985
 30
0.0
 10
671.457815203016
 20
564.305480839221
 30
0.0
 10
673.9971799398196
 20
563.2557113713008
 30
0.0
 10
676.4697508572401
 20
561.8729215695366
 30
0.0
 10
678.4455039679372
 20
560.3006322645169
 30
0.0
 10
679.7619432082628
 20
558.8520390427989
 30
0.0
 10
680.6859996498121
 20
557.380030685249
 30
0.0
 10
681.3516237394163
 20
555.7954591378648
 30
0.0
 10
681.5922612308623
 20
554.2662101338832
 30
0.0
 10
681.48406850152
 20
552.4174246959618
 30
0.0
 10
681.0992788627851
 20
551.1480432762753
 30
0.0
 10
680.3540905981525
 20
549.6819384636755
 30
0.0
 10
679.5170402850067
 20
548.4764968468436
 30
0.0
 10
678.0018304569476
 20
546.9265466108901
 30
0.0
 10
676.0568820082133
 20
545.5145253832203
 30
0.0
 10
674.4710009287852
 20
544.6023479912453
 30
0.0
 10
673.6078717771292
 20
544.2677819055448
 30
0.0
 10
673.5569123228162
 20
544.2480290039933
 30
0.0
  0
SPLINE
  5
2C1
330
1F
100
AcDbEntity
  8
0
  6
Continuous
 62
     8
370
    25
100
AcDbSpline
210
0.0
220
0.0
230
1.0
 70
     8
 71
     3
 72
    14
 73
    10
 74
     0
 42
0.00000001
 43
0.00000001
 40
0.0
 40
0.0
 40
0.0
 40
0.0
 40
0.1053464691147458
 40
0.3755724846993611
 40
0.529498271960396
 40
0.6829781085573422
 40
0.7881547075125241
 40
0.8930812546216836
 40
1.0
 40
1.0
 40
1.0
 40
1.0
 10
646.1679975670903
 20
544.2233291861713
 30
0.0
 10
645.7583508901985
 20
544.3863328782611
 30
0.0
 10
644.2979125709843
 20
544.9674601069929
 30
0.0
 10
642.3909103944974
 20
546.2346359130788
 30
0.0
 10
640.5073715920782
 20
547.9158463573817
 30
0.0
 10
639.3485696161802
 20
549.3762220101802
 30
0.0
 10
638.5669684825255
 20
550.8615100809301
 30
0.0
 10
638.0842189714691
 20
552.2889559344488
 30
0.0
 10
638.0206596101569
 20
553.3036912701059
 30
0.0
 10
637.9885810726131
 20
553.8158302357897
 30
0.0
  0
SPLINE
  5
2C2
330
1F
100
AcDbEntity
  8
0
  6
Continuous
 62
     8
370
    25
100
AcDbSpline
210
0.0
220
0.0
230
1.0
 70
     8
 71
     3
 72
    14
 73
    10
 74
     0
 42
0.00000001
 43
0.00000001
 40
0.0
 40
0.0
 40
0.0
 40
0.0
 40
0.0031914580528477
 40
0.0660808305357779
 40
0.2407471856906644
 40
0.2840898474245286
 40
0.4898056805344059
 40
0.6963347463120937
 40
1.0
 40
1.0
 40
1.0
 40
1.0
 10
745.3820154144072
 20
541.8191987592052
 30
0.0
 10
745.3843951092014
 20
541.8180388694087
 30
0.0
 10
745.4336679512135
 20
541.7940227364044
 30
0.0
 10
745.2555947461018
 20
541.8801275912714
 30
0.0
 10
744.9025406522732
 20
542.0510832643562
 30
0.0
 10
744.041402002516
 20
542.5021218146402
 30
0.0
 10
742.9150218498609
 20
543.1486688558881
 30
0.0
 10
740.9219345528604
 20
544.4657336819445
 30
0.0
 10
739.5639240515155
 20
545.8135915732315
 30
0.0
 10
738.7556426033142
 20
546.6158302357898
 30
0.0
  0
SPLINE
  5
2C3
330
1F
100
AcDbEntity
  8
0
  6
Continuous
 62
     8
370
    25
100
AcDbSpline
210
0.0
220
0.0
230
1.0
 70
     8
 71
     3
 72
    13
 73
     9
 74
     0
 42
0.00000001
 43
0.00000001
 40
0.0
 40
0.0
 40
0.0
 40
0.0
 40
0.2467775106700484
 40
0.4412094359789634
 40
0.639567988417334
 40
0.7566778817025621
 40
0.8773930149635146
 40
1.0
 40
1.0
 40
1.0
 40
1.0
 10
738.7556426033142
 20
561.0158302357897
 30
0.0
 10
739.4064738121866
 20
561.6764460157486
 30
0.0
 10
740.5700841825337
 20
562.8575500591562
 30
0.0
 10
742.3458421565463
 20
564.122337541482
 30
0.0
 10
743.6850439412808
 20
564.9354555594895
 30
0.0
 10
744.6373563514472
 20
565.4457185255144
 30
0.0
 10
745.2622852387175
 20
565.7559152189959
 30
0.0
 10
745.3281688319402
 20
565.7868835929154
 30
0.0
 10
745.3613667540401
 20
565.802488170848
 30
0.0
  0
SPLINE
  5
2C4
330
1F
100
AcDbEntity
  8
0
  6
Continuous
 62
     8
370
    25
100
AcDbSpline
210
0.0
220
0.0
230
1.0
 70
     8
 71
     3
 72
    14
 73
    10
 74
     0
 42
0.00000001
 43
0.00000001
 40
0.0
 40
0.0
 40
0.0
 40
0.0
 40
0.0342028358709497
 40
0.1230354426743788
 40
0.2395824729654699
 40
0.360749472881139
 40
0.5547270553746905
 40
0.7533463792558451
 40
1.0
 40
1.0
 40
1.0
 40
1.0
 10
574.2012814122681
 20
565.7905567768521
 30
0.0
 10
574.1845126683032
 20
565.7986561354943
 30
0.0
 10
574.1241916515139
 20
565.8277913855561
 30
0.0
 10
574.3774576221764
 20
565.7061405180684
 30
0.0
 10
574.8780228530209
 20
565.4566621144921
 30
0.0
 10
575.8390797932121
 20
564.9439170631676
 30
0.0
 10
577.1777491300635
 20
564.1311658385004
 30
0.0
 10
578.9571019975517
 20
562.8684775423125
 30
0.0
 10
580.131589939137
 20
561.6762502702135
 30
0.0
 10
580.782183483634
 20
561.0158302357995
 30
0.0
  0
SPLINE
  5
2C5
330
1F
100
AcDbEntity
  8
0
  6
Continuous
 62
     8
370
    25
100
AcDbSpline
210
0.0
220
0.0
230
1.0
 70
     8
 71
     3
 72
    14
 73
    10
 74
     0
 42
0.00000001
 43
0.00000001
 40
0.0
 40
0.0
 40
0.0
 40
0.0
 40
0.3072458336453401
 40
0.5118950341369806
 40
0.7157498501654311
 40
0.8814942346245145
 40
0.9340054541658841
 40
0.9968816693993618
 40
0.9999999999999999
 40
0.9999999999999999
 40
0.9999999999999999
 40
0.9999999999999999
 10
580.7821834836426
 20
546.6158302357898
 30
0.0
 10
579.9638752847959
 20
545.8047607443349
 30
0.0
 10
578.6005113022374
 20
544.4534570013687
 30
0.0
 10
576.607895147797
 20
543.1397071156556
 30
0.0
 10
575.1934432575194
 20
542.329301504018
 30
0.0
 10
574.4171935521798
 20
541.9454818897506
 30
0.0
 10
574.2015409108179
 20
541.8411148790473
 30
0.0
 10
574.1040540433885
 20
541.7939722361162
 30
0.0
 10
574.1533256027434
 20
541.8179875094975
 30
0.0
 10
574.1556537498551
 20
541.8191222633006
 30
0.0
  0
ELLIPSE
  5
2C6
330
1F
100
AcDbEntity
  8
0
  6
Continuous
 62
     8
370
    25
100
AcDbEllipse
 10
502.707827596
 20
550.4765944578
 30
0.0
 11
1.499999304622861
 21
-0.08287263343856921
 31
0.0
210
0.0
220
0.0
230
1.0
 40
0.0174284859
 41
3.125102257565047
 42
3.628361469809859
  0
ELLIPSE
  5
2C7
330
1F
100
AcDbEntity
  8
0
  6
Continuous
 62
     8
370
    25
100
AcDbEllipse
 10
816.8299984909
 20
557.4004873026
 30
0.0
 11
1.499999304622861
 21
-0.08287263343879658
 31
0.0
210
0.0
220
0.0
230
1.0
 40
0.0174284859
 41
6.266694911155602
 42
6.76995412339993
  0
ARC
  5
2C8
330
1F
100
AcDbEntity
  8
0
  6
Continuous
 62
     8
370
    25
100
AcDbCircle
 10
558.1689130435
 20
553.8158302358
 30
0.0
 40
24.80000000000007
100
AcDbArc
 50
90.0
 51
167.1966606895
  0
ARC
  5
2C9
330
1F
100
AcDbEntity
  8
0
  6
Continuous
 62
     8
370
    25
100
AcDbCircle
 10
558.1689130435
 20
553.8158302358
 30
0.0
 40
24.80000000000005
100
AcDbArc
 50
192.7972138585
 51
331.0614722598
  0
ARC
  5
2CA
330
1F
100
AcDbEntity
  8
0
  6
Continuous
 62
     8
370
    25
100
AcDbCircle
 10
558.1689130435
 20
553.8158302358
 30
0.0
 40
24.80000000000007
100
AcDbArc
 50
28.9385277402
 51
90.0
  0
ARC
  5
2CB
330
1F
100
AcDbEntity
  8
0
  6
Continuous
 62
     8
370
    25
100
AcDbCircle
 10
761.3689130435
 20
553.8158302358
 30
0.0
 40
24.80000000000003
100
AcDbArc
 50
270.0
 51
347.809912856
  0
ARC
  5
2CC
330
1F
100
AcDbEntity
  8
0
  6
Continuous
 62
     8
370
    25
100
AcDbCircle
 10
761.3689130435
 20
553.8158302358
 30
0.0
 40
24.80000000000002
100
AcDbArc
 50
13.407526855
 51
151.0614722598
  0
ARC
  5
2CD
330
1F
100
AcDbEntity
  8
0
  6
Continuous
 62
     8
370
    25
100
AcDbCircle
 10
761.3689130435
 20
553.8158302358
 30
0.0
 40
24.80000000000001
100
AcDbArc
 50
208.9385277402
 51
270.0
  0
ENDSEC
  0
SECTION
  2
OBJECTS
  0
DICTIONARY
  5
C
330
0
100
AcDbDictionary
281
     1
  3
ACAD_GROUP
350
D
  3
ACAD_LAYOUT
350
1A
  3
ACAD_MLINESTYLE
350
17
  3
ACAD_PLOTSETTINGS
350
19
  3
ACAD_PLOTSTYLENAME
350
E
  3
ACAD_SCALELIST
350
47
  3
DWGPROPS
350
2CE
  0
DICTIONARY
  5
D
102
{ACAD_REACTORS
330
C
102
}
330
C
100
AcDbDictionary
281
     1
  0
DICTIONARY
  5
1A
102
{ACAD_REACTORS
330
C
102
}
330
C
100
AcDbDictionary
281
     1
  3
Layout1
350
1E
  3
Layout2
350
26
  3
Model
350
22
  0
DICTIONARY
  5
17
102
{ACAD_REACTORS
330
C
102
}
330
C
100
AcDbDictionary
281
     1
  3
Standard
350
18
  0
DICTIONARY
  5
19
102
{ACAD_REACTORS
330
C
102
}
330
C
100
AcDbDictionary
281
     1
  0
ACDBDICTIONARYWDFLT
  5
E
102
{ACAD_REACTORS
330
C
102
}
330
C
100
AcDbDictionary
281
     1
  3
Normal
350
F
100
AcDbDictionaryWithDefault
340
F
  0
DICTIONARY
  5
47
102
{ACAD_REACTORS
330
C
102
}
330
C
100
AcDbDictionary
281
     1
  3
A0
350
48
  3
A1
350
49
  3
A2
350
4A
  3
A3
350
4B
  3
A4
350
4C
  3
A5
350
4D
  3
A6
350
4E
  3
A7
350
4F
  3
A8
350
50
  3
A9
350
51
  3
B0
350
52
  3
B1
350
53
  3
B2
350
54
  3
B3
350
55
  3
B4
350
56
  3
B5
350
57
  3
B6
350
58
  3
B7
350
59
  3
B8
350
5A
  3
B9
350
5B
  3
C0
350
5C
  3
C1
350
5D
  3
C2
350
5E
  3
C3
350
5F
  3
C4
350
60
  3
C5
350
61
  3
C6
350
62
  3
C7
350
63
  3
C8
350
64
  3
C9
350
65
  3
D0
350
66
  3
D1
350
67
  3
D2
350
68
  0
XRECORD
  5
2CE
102
{ACAD_REACTORS
330
C
102
}
330
C
100
AcDbXrecord
280
     1
  1
DWGPROPS COOKIE
  2

  3

  4

  6

  7

  8
designer5
  9

300
=
301
=
302
=
303
=
304
=
305
=
306
=
307
=
308
=
309
=
 40
0.0
 41
2460383.266254699
 42
2460383.266255428
  1

 90
        0
  0
LAYOUT
  5
1E
102
{ACAD_REACTORS
330
1A
102
}
330
1A
100
AcDbPlotSettings
  1

  2
none_device
  4

  6

 40
0.0
 41
0.0
 42
0.0
 43
0.0
 44
0.0
 45
0.0
 46
0.0
 47
0.0
 48
0.0
 49
0.0
140
0.0
141
0.0
142
1.0
143
1.0
 70
   688
 72
     1
 73
     0
 74
     5
  7

 75
    16
147
1.0
148
0.0
149
0.0
100
AcDbLayout
  1
Layout1
 70
     1
 71
     1
 10
0.0
 20
0.0
 11
420.0
 21
297.0
 12
0.0
 22
0.0
 32
0.0
 14
1.0000000000E+20
 24
1.0000000000E+20
 34
1.0000000000E+20
 15
-1.0000000000E+20
 25
-1.0000000000E+20
 35
-1.0000000000E+20
146
0.0
 13
0.0
 23
0.0
 33
0.0
 16
1.0
 26
0.0
 36
0.0
 17
0.0
 27
1.0
 37
0.0
 76
     0
330
1B
  0
LAYOUT
  5
26
102
{ACAD_REACTORS
330
1A
102
}
330
1A
100
AcDbPlotSettings
  1

  2
none_device
  4

  6

 40
0.0
 41
0.0
 42
0.0
 43
0.0
 44
0.0
 45
0.0
 46
0.0
 47
0.0
 48
0.0
 49
0.0
140
0.0
141
0.0
142
1.0
143
1.0
 70
   688
 72
     1
 73
     0
 74
     5
  7

 75
    16
147
1.0
148
0.0
149
0.0
100
AcDbLayout
  1
Layout2
 70
     1
 71
     2
 10
0.0
 20
0.0
 11
0.0
 21
0.0
 12
0.0
 22
0.0
 32
0.0
 14
0.0
 24
0.0
 34
0.0
 15
0.0
 25
0.0
 35
0.0
146
0.0
 13
0.0
 23
0.0
 33
0.0
 16
1.0
 26
0.0
 36
0.0
 17
0.0
 27
1.0
 37
0.0
 76
     0
330
23
  0
LAYOUT
  5
22
102
{ACAD_REACTORS
330
1A
102
}
330
1A
100
AcDbPlotSettings
  1

  2
none_device
  4
Letter_(8.50_x_11.00_Inches)
  6

 40
6.35
 41
6.35
 42
6.35000508
 43
6.35000508
 44
215.9
 45
279.4
 46
0.0
 47
0.0
 48
0.0
 49
0.0
140
0.0
141
0.0
142
1.0
143
1.0
 70
  1712
 72
     1
 73
     0
 74
     0
  7

 75
     0
147
1.0
148
0.0
149
0.0
100
AcDbLayout
  1
Model
 70
     1
 71
     0
 10
0.0
 20
0.0
 11
1189.0
 21
841.0
 12
0.0
 22
0.0
 32
0.0
 14
0.0
 24
0.0
 34
0.0
 15
1189.0
 25
841.0
 35
0.0
146
0.0
 13
0.0
 23
0.0
 33
0.0
 16
1.0
 26
0.0
 36
0.0
 17
0.0
 27
1.0
 37
0.0
 76
     0
330
1F
331
29
  0
MLINESTYLE
  5
18
102
{ACAD_REACTORS
330
17
102
}
330
17
100
AcDbMlineStyle
  2
Standard
 70
     0
  3

 62
   256
 51
90.0
 52
90.0
 71
     2
 49
0.5
 62
   256
  6
BYLAYER
 49
-0.5
 62
   256
  6
BYLAYER
  0
ACDBPLACEHOLDER
  5
F
102
{ACAD_REACTORS
330
E
102
}
330
E
  0
SCALE
  5
48
102
{ACAD_REACTORS
330
47
102
}
330
47
100
AcDbScale
 70
     0
300
1:1
140
1.0
141
1.0
290
     1
  0
SCALE
  5
49
102
{ACAD_REACTORS
330
47
102
}
330
47
100
AcDbScale
 70
     0
300
1:2
140
1.0
141
2.0
290
     0
  0
SCALE
  5
4A
102
{ACAD_REACTORS
330
47
102
}
330
47
100
AcDbScale
 70
     0
300
1:4
140
1.0
141
4.0
290
     0
  0
SCALE
  5
4B
102
{ACAD_REACTORS
330
47
102
}
330
47
100
AcDbScale
 70
     0
300
1:5
140
1.0
141
5.0
290
     0
  0
SCALE
  5
4C
102
{ACAD_REACTORS
330
47
102
}
330
47
100
AcDbScale
 70
     0
300
1:8
140
1.0
141
8.0
290
     0
  0
SCALE
  5
4D
102
{ACAD_REACTORS
330
47
102
}
330
47
100
AcDbScale
 70
     0
300
1:10
140
1.0
141
10.0
290
     0
  0
SCALE
  5
4E
102
{ACAD_REACTORS
330
47
102
}
330
47
100
AcDbScale
 70
     0
300
1:16
140
1.0
141
16.0
290
     0
  0
SCALE
  5
4F
102
{ACAD_REACTORS
330
47
102
}
330
47
100
AcDbScale
 70
     0
300
1:20
140
1.0
141
20.0
290
     0
  0
SCALE
  5
50
102
{ACAD_REACTORS
330
47
102
}
330
47
100
AcDbScale
 70
     0
300
1:30
140
1.0
141
30.0
290
     0
  0
SCALE
  5
51
102
{ACAD_REACTORS
330
47
102
}
330
47
100
AcDbScale
 70
     0
300
1:40
140
1.0
141
40.0
290
     0
  0
SCALE
  5
52
102
{ACAD_REACTORS
330
47
102
}
330
47
100
AcDbScale
 70
     0
300
1:50
140
1.0
141
50.0
290
     0
  0
SCALE
  5
53
102
{ACAD_REACTORS
330
47
102
}
330
47
100
AcDbScale
 70
     0
300
1:100
140
1.0
141
100.0
290
     0
  0
SCALE
  5
54
102
{ACAD_REACTORS
330
47
102
}
330
47
100
AcDbScale
 70
     0
300
2:1
140
2.0
141
1.0
290
     0
  0
SCALE
  5
55
102
{ACAD_REACTORS
330
47
102
}
330
47
100
AcDbScale
 70
     0
300
4:1
140
4.0
141
1.0
290
     0
  0
SCALE
  5
56
102
{ACAD_REACTORS
330
47
102
}
330
47
100
AcDbScale
 70
     0
300
8:1
140
8.0
141
1.0
290
     0
  0
SCALE
  5
57
102
{ACAD_REACTORS
330
47
102
}
330
47
100
AcDbScale
 70
     0
300
10:1
140
10.0
141
1.0
290
     0
  0
SCALE
  5
58
102
{ACAD_REACTORS
330
47
102
}
330
47
100
AcDbScale
 70
     0
300
100:1
140
100.0
141
1.0
290
     0
  0
SCALE
  5
59
102
{ACAD_REACTORS
330
47
102
}
330
47
100
AcDbScale
 70
     0
300
1/128" = 1'-0"
140
0.0078125
141
12.0
290
     0
  0
SCALE
  5
5A
102
{ACAD_REACTORS
330
47
102
}
330
47
100
AcDbScale
 70
     0
300
1/64" = 1'-0"
140
0.015625
141
12.0
290
     0
  0
SCALE
  5
5B
102
{ACAD_REACTORS
330
47
102
}
330
47
100
AcDbScale
 70
     0
300
1/32" = 1'-0"
140
0.03125
141
12.0
290
     0
  0
SCALE
  5
5C
102
{ACAD_REACTORS
330
47
102
}
330
47
100
AcDbScale
 70
     0
300
1/16" = 1'-0"
140
0.0625
141
12.0
290
     0
  0
SCALE
  5
5D
102
{ACAD_REACTORS
330
47
102
}
330
47
100
AcDbScale
 70
     0
300
3/32" = 1'-0"
140
0.09375
141
12.0
290
     0
  0
SCALE
  5
5E
102
{ACAD_REACTORS
330
47
102
}
330
47
100
AcDbScale
 70
     0
300
1/8" = 1'-0"
140
0.125
141
12.0
290
     0
  0
SCALE
  5
5F
102
{ACAD_REACTORS
330
47
102
}
330
47
100
AcDbScale
 70
     0
300
3/16" = 1'-0"
140
0.1875
141
12.0
290
     0
  0
SCALE
  5
60
102
{ACAD_REACTORS
330
47
102
}
330
47
100
AcDbScale
 70
     0
300
1/4" = 1'-0"
140
0.25
141
12.0
290
     0
  0
SCALE
  5
61
102
{ACAD_REACTORS
330
47
102
}
330
47
100
AcDbScale
 70
     0
300
3/8" = 1'-0"
140
0.375
141
12.0
290
     0
  0
SCALE
  5
62
102
{ACAD_REACTORS
330
47
102
}
330
47
100
AcDbScale
 70
     0
300
1/2" = 1'-0"
140
0.5
141
12.0
290
     0
  0
SCALE
  5
63
102
{ACAD_REACTORS
330
47
102
}
330
47
100
AcDbScale
 70
     0
300
3/4" = 1'-0"
140
0.75
141
12.0
290
     0
  0
SCALE
  5
64
102
{ACAD_REACTORS
330
47
102
}
330
47
100
AcDbScale
 70
     0
300
1" = 1'-0"
140
1.0
141
12.0
290
     0
  0
SCALE
  5
65
102
{ACAD_REACTORS
330
47
102
}
330
47
100
AcDbScale
 70
     0
300
1-1/2" = 1'-0"
140
1.5
141
12.0
290
     0
  0
SCALE
  5
66
102
{ACAD_REACTORS
330
47
102
}
330
47
100
AcDbScale
 70
     0
300
3" = 1'-0"
140
3.0
141
12.0
290
     0
  0
SCALE
  5
67
102
{ACAD_REACTORS
330
47
102
}
330
47
100
AcDbScale
 70
     0
300
6" = 1'-0"
140
6.0
141
12.0
290
     0
  0
SCALE
  5
68
102
{ACAD_REACTORS
330
47
102
}
330
47
100
AcDbScale
 70
     0
300
1'-0" = 1'-0"
140
12.0
141
12.0
290
     0
  0
ENDSEC
  0
EOF
