  0
SECTION
  2
HEADER
  9
$ACADVER
  1
AC1015
  9
$ACADMAINTVER
 70
     6
  9
$DWGCODEPAGE
  3
ANSI_1252
  9
$INSBASE
 10
0.0
 20
0.0
 30
0.0
  9
$EXTMIN
 10
0.0
 20
0.0
 30
0.0
  9
$EXTMAX
 10
1189.0
 20
841.0
 30
0.0
  9
$LIMMIN
 10
0.0
 20
0.0
  9
$LIMMAX
 10
1189.0
 20
841.0
  9
$ORTHOMODE
 70
     0
  9
$REGENMODE
 70
     1
  9
$FILLMODE
 70
     1
  9
$QTEXTMODE
 70
     0
  9
$MIRRTEXT
 70
     1
  9
$LTSCALE
 40
1.0
  9
$ATTMODE
 70
     1
  9
$TEXTSIZE
 40
3.5
  9
$TRACEWID
 40
1.0
  9
$TEXTSTYLE
  7
Standard
  9
$CLAYER
  8
0
  9
$CELTYPE
  6
ByLayer
  9
$CECOLOR
 62
   256
  9
$CELTSCALE
 40
1.0
  9
$DISPSILH
 70
     0
  9
$DIMSCALE
 40
1.0
  9
$DIMASZ
 40
3.302
  9
$DIMEXO
 40
1.0
  9
$DIMDLI
 40
3.75
  9
$DIMRND
 40
0.0
  9
$DIMDLE
 40
0.0
  9
$DIMEXE
 40
1.0
  9
$DIMTP
 40
0.0
  9
$DIMTM
 40
0.0
  9
$DIMTXT
 40
3.5
  9
$DIMCEN
 40
2.5
  9
$DIMTSZ
 40
0.0
  9
$DIMTOL
 70
     0
  9
$DIMLIM
 70
     0
  9
$DIMTIH
 70
     1
  9
$DIMTOH
 70
     1
  9
$DIMSE1
 70
     0
  9
$DIMSE2
 70
     0
  9
$DIMTAD
 70
     1
  9
$DIMZIN
 70
     1
  9
$DIMBLK
  1

  9
$DIMASO
 70
     1
  9
$DIMSHO
 70
     1
  9
$DIMPOST
  1

  9
$DIMAPOST
  1

  9
$DIMALT
 70
     0
  9
$DIMALTD
 70
     3
  9
$DIMALTF
 40
0.0393700787
  9
$DIMLFAC
 40
1.0
  9
$DIMTOFL
 70
     1
  9
$DIMTVP
 40
0.0
  9
$DIMTIX
 70
     0
  9
$DIMSOXD
 70
     0
  9
$DIMSAH
 70
     0
  9
$DIMBLK1
  1

  9
$DIMBLK2
  1

  9
$DIMSTYLE
  2
ISO-25
  9
$DIMCLRD
 70
     0
  9
$DIMCLRE
 70
     0
  9
$DIMCLRT
 70
     0
  9
$DIMTFAC
 40
1.0
  9
$DIMGAP
 40
1.524
  9
$DIMJUST
 70
     0
  9
$DIMSD1
 70
     0
  9
$DIMSD2
 70
     0
  9
$DIMTOLJ
 70
     0
  9
$DIMTZIN
 70
     1
  9
$DIMALTZ
 70
     0
  9
$DIMALTTZ
 70
     0
  9
$DIMUPT
 70
     0
  9
$DIMDEC
 70
     2
  9
$DIMTDEC
 70
     2
  9
$DIMALTU
 70
     2
  9
$DIMALTTD
 70
     3
  9
$DIMTXSTY
  7
Standard
  9
$DIMAUNIT
 70
     0
  9
$DIMADEC
 70
     2
  9
$DIMALTRND
 40
0.0
  9
$DIMAZIN
 70
     0
  9
$DIMDSEP
 70
    44
  9
$DIMATFIT
 70
     3
  9
$DIMFRAC
 70
     0
  9
$DIMLDRBLK
  1

  9
$DIMLUNIT
 70
     2
  9
$DIMLWD
 70
    -2
  9
$DIMLWE
 70
    -2
  9
$DIMTMOVE
 70
     0
  9
$LUNITS
 70
     2
  9
$LUPREC
 70
     2
  9
$SKETCHINC
 40
1.0
  9
$FILLETRAD
 40
10.0
  9
$AUNITS
 70
     0
  9
$AUPREC
 70
     2
  9
$MENU
  1
.
  9
$ELEVATION
 40
0.0
  9
$PELEVATION
 40
0.0
  9
$THICKNESS
 40
0.0
  9
$LIMCHECK
 70
     0
  9
$CHAMFERA
 40
0.0
  9
$CHAMFERB
 40
0.0
  9
$CHAMFERC
 40
0.0
  9
$CHAMFERD
 40
0.0
  9
$SKPOLY
 70
     0
  9
$TDCREATE
 40
2460383.489787709
  9
$TDUCREATE
 40
2460383.260621042
  9
$TDUPDATE
 40
2460383.489788252
  9
$TDUUPDATE
 40
2460383.260621585
  9
$TDINDWG
 40
0.0000000116
  9
$TDUSRTIMER
 40
0.0000000116
  9
$USRTIMER
 70
     1
  9
$ANGBASE
 50
0.0
  9
$ANGDIR
 70
     0
  9
$PDMODE
 70
     0
  9
$PDSIZE
 40
-1.0
  9
$PLINEWID
 40
0.0
  9
$SPLFRAME
 70
     0
  9
$SPLINETYPE
 70
     6
  9
$SPLINESEGS
 70
     8
  9
$HANDSEED
  5
2C6
  9
$SURFTAB1
 70
     6
  9
$SURFTAB2
 70
     6
  9
$SURFTYPE
 70
     6
  9
$SURFU
 70
     6
  9
$SURFV
 70
     6
  9
$UCSBASE
  2

  9
$UCSNAME
  2

  9
$UCSORG
 10
0.0
 20
0.0
 30
0.0
  9
$UCSXDIR
 10
1.0
 20
0.0
 30
0.0
  9
$UCSYDIR
 10
0.0
 20
1.0
 30
0.0
  9
$UCSORTHOREF
  2

  9
$UCSORTHOVIEW
 70
     0
  9
$UCSORGTOP
 10
0.0
 20
0.0
 30
0.0
  9
$UCSORGBOTTOM
 10
0.0
 20
0.0
 30
0.0
  9
$UCSORGLEFT
 10
0.0
 20
0.0
 30
0.0
  9
$UCSORGRIGHT
 10
0.0
 20
0.0
 30
0.0
  9
$UCSORGFRONT
 10
0.0
 20
0.0
 30
0.0
  9
$UCSORGBACK
 10
0.0
 20
0.0
 30
0.0
  9
$PUCSBASE
  2

  9
$PUCSNAME
  2

  9
$PUCSORG
 10
0.0
 20
0.0
 30
0.0
  9
$PUCSXDIR
 10
1.0
 20
0.0
 30
0.0
  9
$PUCSYDIR
 10
0.0
 20
1.0
 30
0.0
  9
$PUCSORTHOREF
  2

  9
$PUCSORTHOVIEW
 70
     0
  9
$PUCSORGTOP
 10
0.0
 20
0.0
 30
0.0
  9
$PUCSORGBOTTOM
 10
0.0
 20
0.0
 30
0.0
  9
$PUCSORGLEFT
 10
0.0
 20
0.0
 30
0.0
  9
$PUCSORGRIGHT
 10
0.0
 20
0.0
 30
0.0
  9
$PUCSORGFRONT
 10
0.0
 20
0.0
 30
0.0
  9
$PUCSORGBACK
 10
0.0
 20
0.0
 30
0.0
  9
$USERI1
 70
     0
  9
$USERI2
 70
     0
  9
$USERI3
 70
     0
  9
$USERI4
 70
     0
  9
$USERI5
 70
     0
  9
$USERR1
 40
0.0
  9
$USERR2
 40
0.0
  9
$USERR3
 40
0.0
  9
$USERR4
 40
0.0
  9
$USERR5
 40
0.0
  9
$WORLDVIEW
 70
     1
  9
$SHADEDGE
 70
     3
  9
$SHADEDIF
 70
    70
  9
$TILEMODE
 70
     1
  9
$MAXACTVP
 70
    64
  9
$PINSBASE
 10
0.0
 20
0.0
 30
0.0
  9
$PLIMCHECK
 70
     0
  9
$PEXTMIN
 10
1.0000000000E+20
 20
1.0000000000E+20
 30
1.0000000000E+20
  9
$PEXTMAX
 10
-1.0000000000E+20
 20
-1.0000000000E+20
 30
-1.0000000000E+20
  9
$PLIMMIN
 10
0.0
 20
0.0
  9
$PLIMMAX
 10
420.0
 20
297.0
  9
$UNITMODE
 70
     0
  9
$VISRETAIN
 70
     1
  9
$PLINEGEN
 70
     0
  9
$PSLTSCALE
 70
     1
  9
$TREEDEPTH
 70
  3020
  9
$CMLSTYLE
  2
Standard
  9
$CMLJUST
 70
     0
  9
$CMLSCALE
 40
20.0
  9
$PROXYGRAPHICS
 70
     1
  9
$MEASUREMENT
 70
     1
  9
$CELWEIGHT
370
    -1
  9
$ENDCAPS
280
     0
  9
$JOINSTYLE
280
     0
  9
$LWDISPLAY
290
     1
  9
$INSUNITS
 70
     4
  9
$HYPERLINKBASE
  1

  9
$STYLESHEET
  1

  9
$XEDIT
290
     1
  9
$CEPSNTYPE
380
     0
  9
$PSTYLEMODE
290
     1
  9
$FINGERPRINTGUID
  2
{3274cc41-7a38-47c6-9f57-80ca90fa07f8}
  9
$VERSIONGUID
  2
{FAEB1C32-E019-11D5-929B-00C0DF256EC4}
  9
$EXTNAMES
290
     1
  9
$PSVPSCALE
 40
0.0
  9
$OLESTARTUP
290
     0
  0
ENDSEC
  0
SECTION
  2
CLASSES
  0
CLASS
  1
ACDBDICTIONARYWDFLT
  2
AcDbDictionaryWithDefault
  3
ObjectDBX Classes
 90
        0
280
     0
281
     0
  0
CLASS
  1
VISUALSTYLE
  2
AcDbVisualStyle
  3
ObjectDBX Classes
 90
     4095
280
     0
281
     0
  0
CLASS
  1
MATERIAL
  2
AcDbMaterial
  3
ObjectDBX Classes
 90
     1153
280
     0
281
     0
  0
CLASS
  1
SCALE
  2
AcDbScale
  3
ObjectDBX Classes
 90
     1153
280
     0
281
     0
  0
CLASS
  1
TABLESTYLE
  2
AcDbTableStyle
  3
ObjectDBX Classes
 90
     4095
280
     0
281
     0
  0
CLASS
  1
MLEADERSTYLE
  2
AcDbMLeaderStyle
  3
ACDB_MLEADERSTYLE_CLASS
 90
     4095
280
     0
281
     0
  0
CLASS
  1
SUN
  2
AcDbSun
  3
SCENEOE
 90
     1153
280
     0
281
     0
  0
CLASS
  1
ACDBPLACEHOLDER
  2
AcDbPlaceHolder
  3
ObjectDBX Classes
 90
        0
280
     0
281
     0
  0
CLASS
  1
LAYOUT
  2
AcDbLayout
  3
ObjectDBX Classes
 90
        0
280
     0
281
     0
  0
ENDSEC
  0
SECTION
  2
TABLES
  0
TABLE
  2
VPORT
  5
8
330
0
100
AcDbSymbolTable
 70
     1
  0
VPORT
  5
29
330
8
100
AcDbSymbolTableRecord
100
AcDbViewportTableRecord
  2
*Active
 70
     0
 10
0.0
 20
0.0
 11
1.0
 21
1.0
 12
594.5
 22
420.5
 13
0.0
 23
0.0
 14
10.0
 24
10.0
 15
10.0
 25
10.0
 16
0.0
 26
0.0
 36
1.0
 17
0.0
 27
0.0
 37
0.0
 40
841.0
 41
1.4137931034
 42
50.0
 43
0.0
 44
0.0
 50
0.0
 51
0.0
 71
     0
 72
  2000
 73
     1
 74
     3
 75
     0
 76
     0
 77
     0
 78
     0
281
     0
 65
     1
110
0.0
120
0.0
130
0.0
111
1.0
121
0.0
131
0.0
112
0.0
122
1.0
132
0.0
 79
     0
146
0.0
  0
ENDTAB
  0
TABLE
  2
LTYPE
  5
5
330
0
100
AcDbSymbolTable
 70
     6
  0
LTYPE
  5
14
330
5
100
AcDbSymbolTableRecord
100
AcDbLinetypeTableRecord
  2
ByBlock
 70
     0
  3

 72
    65
 73
     0
 40
0.0
  0
LTYPE
  5
15
330
5
100
AcDbSymbolTableRecord
100
AcDbLinetypeTableRecord
  2
ByLayer
 70
     0
  3

 72
    65
 73
     0
 40
0.0
  0
LTYPE
  5
16
330
5
100
AcDbSymbolTableRecord
100
AcDbLinetypeTableRecord
  2
Continuous
 70
     0
  3
Solid line
 72
    65
 73
     0
 40
0.0
  0
LTYPE
  5
6E
330
5
100
AcDbSymbolTableRecord
100
AcDbLinetypeTableRecord
  2
HIDDEN
 70
     0
  3
Hidden __ __ __ __ __ __ __ __ __ __ __ __ __ __
 72
    65
 73
     2
 40
1.905
 49
1.27
 74
     0
 49
-0.635
 74
     0
  0
LTYPE
  5
6F
330
5
100
AcDbSymbolTableRecord
100
AcDbLinetypeTableRecord
  2
PHANTOM
 70
     0
  3
Phantom ______  __  __  ______  __  __  ______
 72
    65
 73
     6
 40
12.7
 49
6.35
 74
     0
 49
-1.27
 74
     0
 49
1.27
 74
     0
 49
-1.27
 74
     0
 49
1.27
 74
     0
 49
-1.27
 74
     0
  0
LTYPE
  5
70
330
5
100
AcDbSymbolTableRecord
100
AcDbLinetypeTableRecord
  2
CENTER
 70
     0
  3
Center ____ _ ____ _ ____ _ ____ _ ____ _ ____
 72
    65
 73
     4
 40
10.16
 49
6.35
 74
     0
 49
-1.27
 74
     0
 49
1.27
 74
     0
 49
-1.27
 74
     0
  0
LTYPE
  5
71
330
5
100
AcDbSymbolTableRecord
100
AcDbLinetypeTableRecord
  2
CENTERX2
 70
     0
  3
Center (2x) ________  __  ________  __  _____
 72
    65
 73
     4
 40
20.32
 49
12.7
 74
     0
 49
-2.54
 74
     0
 49
2.54
 74
     0
 49
-2.54
 74
     0
  0
LTYPE
  5
72
330
5
100
AcDbSymbolTableRecord
100
AcDbLinetypeTableRecord
  2
DOT2
 70
     0
  3
Dot (.5x) ........................................
 72
    65
 73
     2
 40
0.635
 49
0.0
 74
     0
 49
-0.635
 74
     0
  0
ENDTAB
  0
TABLE
  2
LAYER
  5
2
330
0
100
AcDbSymbolTable
 70
     1
  0
LAYER
  5
10
330
2
100
AcDbSymbolTableRecord
100
AcDbLayerTableRecord
  2
0
 70
     0
 62
     7
  6
Continuous
370
    -3
390
F
  0
ENDTAB
  0
TABLE
  2
STYLE
  5
3
330
0
100
AcDbSymbolTable
 70
     1
  0
STYLE
  5
11
330
3
100
AcDbSymbolTableRecord
100
AcDbTextStyleTableRecord
  2
Standard
 70
     0
 40
0.0
 41
1.0
 50
0.0
 71
     0
 42
3.5
  3
txt
  4

  0
ENDTAB
  0
TABLE
  2
VIEW
  5
6
330
0
100
AcDbSymbolTable
 70
     0
  0
ENDTAB
  0
TABLE
  2
UCS
  5
7
330
0
100
AcDbSymbolTable
 70
     0
  0
ENDTAB
  0
TABLE
  2
APPID
  5
9
330
0
100
AcDbSymbolTable
 70
     1
  0
APPID
  5
12
330
9
100
AcDbSymbolTableRecord
100
AcDbRegAppTableRecord
  2
ACAD
 70
     0
  0
ENDTAB
  0
TABLE
  2
DIMSTYLE
  5
A
330
0
100
AcDbSymbolTable
 70
     1
100
AcDbDimStyleTable
  0
DIMSTYLE
105
27
330
A
100
AcDbSymbolTableRecord
100
AcDbDimStyleTableRecord
  2
ISO-25
 70
     0
 41
2.5
 42
0.625
 43
3.75
 44
1.25
 73
     0
 74
     0
 77
     1
 78
     8
140
2.5
141
2.5
143
0.0393700787
147
0.625
171
     3
172
     1
178
     0
271
     2
272
     2
274
     3
278
    44
283
     0
284
     8
340
11
  0
ENDTAB
  0
TABLE
  2
BLOCK_RECORD
  5
1
330
0
100
AcDbSymbolTable
 70
     1
  0
BLOCK_RECORD
  5
1F
330
1
100
AcDbSymbolTableRecord
100
AcDbBlockTableRecord
  2
*Model_Space
340
22
  0
BLOCK_RECORD
  5
1B
330
1
100
AcDbSymbolTableRecord
100
AcDbBlockTableRecord
  2
*Paper_Space
340
1E
  0
BLOCK_RECORD
  5
23
330
1
100
AcDbSymbolTableRecord
100
AcDbBlockTableRecord
  2
*Paper_Space0
340
26
  0
ENDTAB
  0
ENDSEC
  0
SECTION
  2
BLOCKS
  0
BLOCK
  5
20
330
1F
100
AcDbEntity
  8
0
100
AcDbBlockBegin
  2
*Model_Space
 70
     0
 10
0.0
 20
0.0
 30
0.0
  3
*Model_Space
  1

  0
ENDBLK
  5
21
330
1F
100
AcDbEntity
  8
0
100
AcDbBlockEnd
  0
BLOCK
  5
1C
330
1B
100
AcDbEntity
 67
     1
  8
0
100
AcDbBlockBegin
  2
*Paper_Space
 70
     0
 10
0.0
 20
0.0
 30
0.0
  3
*Paper_Space
  1

  0
ENDBLK
  5
1D
330
1B
100
AcDbEntity
 67
     1
  8
0
100
AcDbBlockEnd
  0
BLOCK
  5
24
330
23
100
AcDbEntity
  8
0
100
AcDbBlockBegin
  2
*Paper_Space0
 70
     0
 10
0.0
 20
0.0
 30
0.0
  3
*Paper_Space0
  1

  0
ENDBLK
  5
25
330
23
100
AcDbEntity
  8
0
100
AcDbBlockEnd
  0
ENDSEC
  0
SECTION
  2
ENTITIES
  0
SPLINE
  5
73
330
1F
100
AcDbEntity
  8
0
  6
Continuous
 62
     7
370
    25
100
AcDbSpline
210
0.0
220
0.0
230
1.0
 70
     8
 71
     3
 72
     9
 73
     5
 74
     0
 42
0.00000001
 43
0.00000001
 40
0.0
 40
0.0
 40
0.0
 40
0.0
 40
0.462245964764458
 40
1.0
 40
1.0
 40
1.0
 40
1.0
 10
572.3568307067129
 20
395.8773166563042
 30
0.0
 10
572.3590713328722
 20
395.9490698099872
 30
0.0
 10
572.3639185924052
 20
396.1042970248308
 30
0.0
 10
572.3647286957556
 20
396.2269074835106
 30
0.0
 10
572.3651643321011
 20
396.2928417524278
 30
0.0
  0
SPLINE
  5
74
330
1F
100
AcDbEntity
  8
0
  6
Continuous
 62
     7
370
    25
100
AcDbSpline
210
0.0
220
0.0
230
1.0
 70
     8
 71
     3
 72
     9
 73
     5
 74
     0
 42
0.00000001
 43
0.00000001
 40
0.0
 40
0.0
 40
0.0
 40
0.0
 40
0.4348740635582247
 40
0.9999999999999999
 40
0.9999999999999999
 40
0.9999999999999999
 40
0.9999999999999999
 10
548.9111780797323
 20
396.3126653874428
 30
0.0
 10
548.9114364628045
 20
396.2542675889036
 30
0.0
 10
548.9120306188919
 20
396.1199808989561
 30
0.0
 10
548.9172784764172
 20
395.9542891502713
 30
0.0
 10
548.9202441768155
 20
395.8606524456351
 30
0.0
  0
SPLINE
  5
75
330
1F
100
AcDbEntity
  8
0
  6
Continuous
 62
     7
370
    25
100
AcDbSpline
210
0.0
220
0.0
230
1.0
 70
     8
 71
     3
 72
    15
 73
    11
 74
     0
 42
0.00000001
 43
0.00000001
 40
0.0
 40
0.0
 40
0.0
 40
0.0
 40
0.0549839180651086
 40
0.0915040063269734
 40
0.1354719977012098
 40
0.2228216368609316
 40
0.3979188006391767
 40
0.5538295403211034
 40
0.8010115281435306
 40
1.0
 40
1.0
 40
1.0
 40
1.0
 10
600.2200061599228
 20
614.7985844532345
 30
0.0
 10
600.2016961033585
 20
614.7848537085554
 30
0.0
 10
600.1712245838547
 20
614.7620030607259
 30
0.0
 10
600.0510196819496
 20
614.6755116133664
 30
0.0
 10
599.8273812418886
 20
614.521805473978
 30
0.0
 10
599.353122618636
 20
614.2254848721328
 30
0.0
 10
598.673536497017
 20
613.8817045952413
 30
0.0
 10
597.6836285453386
 20
613.516833252376
 30
0.0
 10
596.6070253268645
 20
613.2662830307321
 30
0.0
 10
595.7929486299673
 20
613.2434739871491
 30
0.0
 10
595.4298769062004
 20
613.2333013353551
 30
0.0
  0
SPLINE
  5
76
330
1F
100
AcDbEntity
  8
0
  6
Continuous
 62
     7
370
    25
100
AcDbSpline
210
0.0
220
0.0
230
1.0
 70
     8
 71
     3
 72
    15
 73
    11
 74
     0
 42
0.00000001
 43
0.00000001
 40
0.0
 40
0.0
 40
0.0
 40
0.0
 40
0.002381652563754
 40
0.2072624263676419
 40
0.3982982622197612
 40
0.5735616578197126
 40
0.7303451710935652
 40
0.8647131470085483
 40
0.9691260265751478
 40
1.0
 40
1.0
 40
1.0
 40
1.0
 10
525.8692946708952
 20
613.226796683039
 30
0.0
 10
525.8655783908406
 20
613.2265387975029
 30
0.0
 10
525.5421705046843
 20
613.2040964048763
 30
0.0
 10
524.917324659423
 20
613.2674540439012
 30
0.0
 10
524.035603898962
 20
613.4095326513434
 30
0.0
 10
523.2480436527122
 20
613.6376050456107
 30
0.0
 10
522.5675609421517
 20
613.9058310029593
 30
0.0
 10
522.0173528086204
 20
614.1805729360939
 30
0.0
 10
521.6470717661117
 20
614.3958412228617
 30
0.0
 10
521.482562999152
 20
614.5047819104283
 30
0.0
 10
521.4450202580286
 20
614.5296433941456
 30
0.0
  0
SPLINE
  5
77
330
1F
100
AcDbEntity
  8
0
  6
Continuous
 62
     7
370
    25
100
AcDbSpline
210
0.0
220
0.0
230
1.0
 70
     8
 71
     3
 72
    15
 73
    11
 74
     0
 42
0.00000001
 43
0.00000001
 40
0.0
 40
0.0
 40
0.0
 40
0.0
 40
0.0161799254023484
 40
0.0643949996994698
 40
0.1335482400508071
 40
0.2322934471547057
 40
0.4016283108537985
 40
0.6108094398121433
 40
0.8529894353586753
 40
1.0
 40
1.0
 40
1.0
 40
1.0
 10
521.0408027866401
 20
587.636269517542
 30
0.0
 10
521.0475690248368
 20
587.6414645063439
 30
0.0
 10
521.0744981914307
 20
587.6621402074994
 30
0.0
 10
521.2159047793626
 20
587.7659043842306
 30
0.0
 10
521.5051624562195
 20
587.9641354973797
 30
0.0
 10
522.0154768172025
 20
588.2738208144866
 30
0.0
 10
522.7756649547154
 20
588.6472096206971
 30
0.0
 10
523.8222939165958
 20
589.0016662476836
 30
0.0
 10
524.8724898166994
 20
589.2077341195784
 30
0.0
 10
525.5645417377075
 20
589.2140516914944
 30
0.0
 10
525.8259533804242
 20
589.2164380541393
 30
0.0
  0
SPLINE
  5
78
330
1F
100
AcDbEntity
  8
0
  6
Continuous
 62
     7
370
    25
100
AcDbSpline
210
0.0
220
0.0
230
1.0
 70
     8
 71
     3
 72
    17
 73
    13
 74
     0
 42
0.00000001
 43
0.00000001
 40
0.0
 40
0.0
 40
0.0
 40
0.0
 40
0.0915003836053921
 40
0.2692184107263373
 40
0.434256519573854
 40
0.5846658480107979
 40
0.717459152782641
 40
0.8268391167830711
 40
0.9034663083250855
 40
0.9573170629867265
 40
0.9974705729652856
 40
1.0
 40
1.0
 40
1.0
 40
1.0
 10
595.451904991767
 20
589.2141840013858
 30
0.0
 10
595.6139315446942
 20
589.2173332833628
 30
0.0
 10
596.0906566616362
 20
589.2265993066881
 30
0.0
 10
596.8552978111601
 20
589.1188957853237
 30
0.0
 10
597.7058407316608
 20
588.9203903887485
 30
0.0
 10
598.4547122604886
 20
588.6554066799823
 30
0.0
 10
599.085817085823
 20
588.3638261582055
 30
0.0
 10
599.5736220643048
 20
588.0890811736739
 30
0.0
 10
599.9236565010206
 20
587.8621062176377
 30
0.0
 10
600.1273679533771
 20
587.717847445865
 30
0.0
 10
600.2151272523548
 20
587.6528648280034
 30
0.0
 10
600.2361754509096
 20
587.6368398294337
 30
0.0
 10
600.2374227850011
 20
587.6358901744322
 30
0.0
  0
LINE
  5
79
330
1F
100
AcDbEntity
  8
0
  6
Continuous
 62
     7
370
    25
100
AcDbLine
 10
550.0584075088
 20
613.2260911686
 30
0.0
 11
525.8702720061
 21
613.2260911686
 31
0.0
  0
LINE
  5
7A
330
1F
100
AcDbEntity
  8
0
  6
Continuous
 62
     7
370
    25
100
AcDbLine
 10
595.4298342606
 20
613.2260911686
 30
0.0
 11
568.8973760415
 21
613.2260911686
 31
0.0
  0
LINE
  5
7B
330
1F
100
AcDbEntity
  8
0
  6
Continuous
 62
     7
370
    25
100
AcDbLine
 10
574.3766658994
 20
589.2260911686
 30
0.0
 11
595.4586967262
 21
589.2260911686
 31
0.0
  0
LINE
  5
7C
330
1F
100
AcDbEntity
  8
0
  6
Continuous
 62
     7
370
    25
100
AcDbLine
 10
525.8186716949
 20
589.2260911686
 30
0.0
 11
546.8917205952
 21
589.2260911686
 31
0.0
  0
SPLINE
  5
7D
330
1F
100
AcDbEntity
  8
0
  6
Continuous
 62
     7
370
    25
100
AcDbSpline
210
0.0
220
0.0
230
1.0
 70
     8
 71
     3
 72
    17
 73
    13
 74
     0
 42
0.00000001
 43
0.00000001
 40
0.0
 40
0.0
 40
0.0
 40
0.0
 40
0.1536376177904467
 40
0.4511079750360548
 40
0.5803781342428227
 40
0.6279079571620314
 40
0.663003862937029
 40
0.7131664800973349
 40
0.7788792042092997
 40
0.8627753528346176
 40
0.953344165076549
 40
1.0
 40
1.0
 40
1.0
 40
1.0
 10
453.4211424918532
 20
604.5328282189456
 30
0.0
 10
453.3473460309029
 20
604.5275759097993
 30
0.0
 10
453.1306662063723
 20
604.5121541753487
 30
0.0
 10
452.9453130956102
 20
604.4954186143401
 30
0.0
 10
452.8583472872839
 20
604.4850728202745
 30
0.0
 10
452.7990391805569
 20
604.4739838258736
 30
0.0
 10
452.7366259875455
 20
604.456563011062
 30
0.0
 10
452.6500095260855
 20
604.4185566225633
 30
0.0
 10
452.5456862761363
 20
604.3414966349911
 30
0.0
 10
452.4530311322802
 20
604.2152438944199
 30
0.0
 10
452.4012948036109
 20
604.0753875130245
 30
0.0
 10
452.41091314033
 20
603.9864578984103
 30
0.0
 10
452.4141833366064
 20
603.9562221827065
 30
0.0
  0
SPLINE
  5
7E
330
1F
100
AcDbEntity
  8
0
  6
Continuous
 62
     7
370
    25
100
AcDbSpline
210
0.0
220
0.0
230
1.0
 70
     8
 71
     3
 72
    17
 73
    13
 74
     0
 42
0.00000001
 43
0.00000001
 40
0.0
 40
0.0
 40
0.0
 40
0.0
 40
0.0756488739405821
 40
0.1930849430950209
 40
0.2907259166993721
 40
0.3735836325334433
 40
0.441295415517364
 40
0.4910149664431444
 40
0.5346423151881604
 40
0.5965193944500347
 40
0.7394439675002783
 40
1.0
 40
1.0
 40
1.0
 40
1.0
 10
452.4168773915908
 20
598.4214595733853
 30
0.0
 10
452.4180866732516
 20
598.3889952269268
 30
0.0
 10
452.4211732238966
 20
598.3061337623468
 30
0.0
 10
452.4817302542319
 20
598.1933659254196
 30
0.0
 10
452.5639829598755
 20
598.0968047818777
 30
0.0
 10
452.6496428140608
 20
598.0352179788847
 30
0.0
 10
452.7243217469675
 20
598.0004406495299
 30
0.0
 10
452.7778800559755
 20
597.9837435182101
 30
0.0
 10
452.8152246882474
 20
597.9750823126597
 30
0.0
 10
452.8569446209102
 20
597.9677359257635
 30
0.0
 10
452.9121517578764
 20
597.9602591895753
 30
0.0
 10
453.0027433524386
 20
597.9526235056908
 30
0.0
 10
453.0612447677043
 20
597.9476926032607
 30
0.0
  0
LINE
  5
7F
330
1F
100
AcDbEntity
  8
0
  6
Continuous
 62
     7
370
    25
100
AcDbLine
 10
453.4211424919
 20
597.9193541183
 30
0.0
 11
456.9044631827
 21
597.6771865899
 31
0.0
  0
LINE
  5
80
330
1F
100
AcDbEntity
  8
0
  6
Continuous
 62
     7
370
    25
100
AcDbLine
 10
456.9044631827
 20
604.7749957473
 30
0.0
 11
453.4211424919
 21
604.5328282189
 31
0.0
  0
ARC
  5
81
330
1F
100
AcDbEntity
  8
0
  6
Continuous
 62
     7
370
    25
100
AcDbCircle
 10
501.7296690053
 20
604.1979856444
 30
0.0
 40
8.999995138923055
100
AcDbArc
 50
77.1419190681
 51
90.0
  0
ARC
  5
82
330
1F
100
AcDbEntity
  8
0
  6
Continuous
 62
     7
370
    25
100
AcDbCircle
 10
501.7296690053
 20
604.1979856444
 30
0.0
 40
8.999995138923055
100
AcDbArc
 50
90.0
 51
125.1719294169
  0
SPLINE
  5
83
330
1F
100
AcDbEntity
  8
0
  6
Continuous
 62
     7
370
    25
100
AcDbSpline
210
0.0
220
0.0
230
1.0
 70
     8
 71
     3
 72
    17
 73
    13
 74
     0
 42
0.00000001
 43
0.00000001
 40
0.0
 40
0.0
 40
0.0
 40
0.0
 40
0.1536376177904556
 40
0.451107975036054
 40
0.5803781342428208
 40
0.6279079571620292
 40
0.6630038629370365
 40
0.7131664800973422
 40
0.7788792042093093
 40
0.8627753528346246
 40
0.9533441650765612
 40
1.0
 40
1.0
 40
1.0
 40
1.0
 10
667.8562259291996
 20
598.1647754070825
 30
0.0
 10
667.9300223901499
 20
598.1700277162288
 30
0.0
 10
668.1467022146805
 20
598.1854494506795
 30
0.0
 10
668.3320553254425
 20
598.202185011688
 30
0.0
 10
668.419021133769
 20
598.2125308057537
 30
0.0
 10
668.4783292404959
 20
598.2236198001544
 30
0.0
 10
668.5407424335074
 20
598.2410406149661
 30
0.0
 10
668.6273588949673
 20
598.2790470034649
 30
0.0
 10
668.7316821449165
 20
598.3561069910369
 30
0.0
 10
668.8243372887727
 20
598.4823597316082
 30
0.0
 10
668.876073617442
 20
598.6222161130036
 30
0.0
 10
668.8664552807229
 20
598.7111457276177
 30
0.0
 10
668.8631850844464
 20
598.7413814433215
 30
0.0
  0
SPLINE
  5
84
330
1F
100
AcDbEntity
  8
0
  6
Continuous
 62
     7
370
    25
100
AcDbSpline
210
0.0
220
0.0
230
1.0
 70
     8
 71
     3
 72
    17
 73
    13
 74
     0
 42
0.00000001
 43
0.00000001
 40
0.0
 40
0.0
 40
0.0
 40
0.0
 40
0.075648873940594
 40
0.1930849430950189
 40
0.2907259166993725
 40
0.3735836325334413
 40
0.4412954155173564
 40
0.4910149664431452
 40
0.5346423151881613
 40
0.5965193944500357
 40
0.739443967500283
 40
1.0
 40
1.0
 40
1.0
 40
1.0
 10
668.860491029462
 20
604.2761440526428
 30
0.0
 10
668.8592817478013
 20
604.3086083991013
 30
0.0
 10
668.8561951971562
 20
604.3914698636813
 30
0.0
 10
668.7956381668208
 20
604.5042377006084
 30
0.0
 10
668.7133854611773
 20
604.6007988441503
 30
0.0
 10
668.627725606992
 20
604.6623856471433
 30
0.0
 10
668.5530466740853
 20
604.6971629764982
 30
0.0
 10
668.4994883650772
 20
604.713860107818
 30
0.0
 10
668.4621437328055
 20
604.7225213133685
 30
0.0
 10
668.4204238001427
 20
604.7298677002645
 30
0.0
 10
668.3652166631764
 20
604.7373444364528
 30
0.0
 10
668.2746250686142
 20
604.7449801203372
 30
0.0
 10
668.2161236533485
 20
604.7499110227673
 30
0.0
  0
LINE
  5
85
330
1F
100
AcDbEntity
  8
0
  6
Continuous
 62
     7
370
    25
100
AcDbLine
 10
664.3729052383
 20
597.9226078787
 30
0.0
 11
667.8562259292
 21
598.1647754071
 31
0.0
  0
LINE
  5
86
330
1F
100
AcDbEntity
  8
0
  6
Continuous
 62
     7
370
    25
100
AcDbLine
 10
667.8562259292
 20
604.7782495078
 30
0.0
 11
664.3729052383
 21
605.0204170362
 31
0.0
  0
ARC
  5
87
330
1F
100
AcDbEntity
  8
0
  6
Continuous
 62
     7
370
    25
100
AcDbCircle
 10
619.5476994158
 20
598.4996179816
 30
0.0
 40
8.999995138923012
100
AcDbArc
 50
257.1419190681
 51
270.0
  0
ARC
  5
88
330
1F
100
AcDbEntity
  8
0
  6
Continuous
 62
     7
370
    25
100
AcDbCircle
 10
619.5476994158
 20
598.4996179816
 30
0.0
 40
8.999995138922941
100
AcDbArc
 50
270.0
 51
305.1719294169
  0
SPLINE
  5
89
330
1F
100
AcDbEntity
  8
0
  6
Continuous
 62
     7
370
    25
100
AcDbSpline
210
0.0
220
0.0
230
1.0
 70
     8
 71
     3
 72
    16
 73
    12
 74
     0
 42
0.00000001
 43
0.00000001
 40
0.0
 40
0.0
 40
0.0
 40
0.0
 40
0.0962609359999919
 40
0.1959421162028152
 40
0.2938006509495217
 40
0.3945959697367962
 40
0.4987223162605979
 40
0.6057407305130916
 40
0.7149663963104298
 40
0.8273380647830928
 40
1.0
 40
1.0
 40
1.0
 40
1.0
 10
573.17189765253
 20
599.2611234326854
 30
0.0
 10
573.1814911658138
 20
599.9082645879475
 30
0.0
 10
573.2010190591915
 20
601.2255404499235
 30
0.0
 10
572.7906597770324
 20
603.161478430118
 30
0.0
 10
572.0707644328654
 20
605.0153920782135
 30
0.0
 10
571.0330477916652
 20
606.7379953791391
 30
0.0
 10
569.688639888459
 20
608.3049694713246
 30
0.0
 10
568.0581384493819
 20
609.6662104651763
 30
0.0
 10
566.1712672709518
 20
610.7653905669462
 30
0.0
 10
563.7090103007309
 20
611.7374455966344
 30
0.0
 10
561.7969398617574
 20
611.9359685881706
 30
0.0
 10
560.6386842105264
 20
612.0562258612077
 30
0.0
  0
SPLINE
  5
8A
330
1F
100
AcDbEntity
  8
0
  6
Continuous
 62
     7
370
    25
100
AcDbSpline
210
0.0
220
0.0
230
1.0
 70
    24
 71
     3
 72
    13
 73
     9
 74
     0
 42
0.00000001
 43
0.00000001
 40
0.0
 40
0.0
 40
0.0
 40
0.0
 40
0.0088769305891356
 40
0.1568018335478669
 40
0.3676799660841052
 40
0.5784774725819156
 40
0.7892380841704545
 40
1.0
 40
1.0
 40
1.0
 40
1.0
 10
560.6386842105264
 20
612.0562258612077
 30
0.0
 10
560.6386842105281
 20
612.0703620731684
 30
0.0
 10
560.6386842105568
 20
612.3200636938578
 30
0.0
 10
560.6386842105063
 20
612.9074302676825
 30
0.0
 10
560.6386842105331
 20
613.7604220288625
 30
0.0
 10
560.6386842105243
 20
614.5141191645516
 30
0.0
 10
560.6386842105271
 20
615.0212746207719
 30
0.0
 10
560.6386842105265
 20
615.080160392627
 30
0.0
 10
560.6386842105263
 20
615.1096033696545
 30
0.0
  0
SPLINE
  5
8B
330
1F
100
AcDbEntity
  8
0
  6
Continuous
 62
     7
370
    25
100
AcDbSpline
210
0.0
220
0.0
230
1.0
 70
     8
 71
     3
 72
    17
 73
    13
 74
     0
 42
0.00000001
 43
0.00000001
 40
0.0
 40
0.0
 40
0.0
 40
0.0
 40
0.084498659021284
 40
0.1707523992472066
 40
0.2766477565163949
 40
0.3858653819358106
 40
0.4890481164110217
 40
0.5951098677618352
 40
0.6947410048160338
 40
0.7970236474831212
 40
0.89706606564905
 40
1.0
 40
1.0
 40
1.0
 40
1.0
 10
560.6386842105263
 20
615.1096033696545
 30
0.0
 10
561.319539883083
 20
615.0628313462611
 30
0.0
 10
562.6953929555068
 20
614.9683158201619
 30
0.0
 10
564.8678686457389
 20
614.429762033756
 30
0.0
 10
567.116670976414
 20
613.5089824150865
 30
0.0
 10
569.2801518007091
 20
612.1390041589679
 30
0.0
 10
571.1765007184462
 20
610.4291432478263
 30
0.0
 10
572.7145313169311
 20
608.4874978325647
 30
0.0
 10
573.9156546365452
 20
606.3246907357396
 30
0.0
 10
574.7337505710574
 20
604.0353334665563
 30
0.0
 10
575.207335839179
 20
601.607797526713
 30
0.0
 10
575.1834760140372
 20
599.9672912297043
 30
0.0
 10
575.1713761529237
 20
599.135353098071
 30
0.0
  0
LWPOLYLINE
  5
8C
330
1F
100
AcDbEntity
  8
0
  6
Continuous
 62
     7
370
    25
100
AcDbPolyline
 90
        9
 70
   128
 43
0.0
 10
573.1718976525
 20
599.2611234327
 10
573.5935553712
 20
599.2346886026
 10
573.9816512587
 20
599.2103412274
 10
574.3269887885
 20
599.1886582553
 10
574.6213846585
 20
599.1701534976
 10
574.8578627077
 20
599.1552654529
 10
575.0308192264
 20
599.1443469162
 10
575.1361557449
 20
599.137656619
 10
575.1713761529
 20
599.1353530981
  0
SPLINE
  5
8D
330
1F
100
AcDbEntity
  8
0
  6
Continuous
 62
     7
370
    25
100
AcDbSpline
210
0.0
220
0.0
230
1.0
 70
     8
 71
     3
 72
    16
 73
    12
 74
     0
 42
0.00000001
 43
0.00000001
 40
0.0
 40
0.0
 40
0.0
 40
0.0
 40
0.1726622413664958
 40
0.2818848601443013
 40
0.3942600249464304
 40
0.4984159758268114
 40
0.6054047847486057
 40
0.7033215749073309
 40
0.8040581654821956
 40
0.9003567674661676
 40
1.0
 40
1.0
 40
1.0
 40
1.0
 10
560.6386842105264
 20
612.0562258612077
 30
0.0
 10
559.4803818145153
 20
611.9360830500585
 30
0.0
 10
557.5893609038615
 20
611.7399403424805
 30
0.0
 10
555.1255029676246
 20
610.7745724253207
 30
0.0
 10
553.2516159123234
 20
609.6890613909769
 30
0.0
 10
551.6025792174668
 20
608.3185226383264
 30
0.0
 10
550.266501964356
 20
606.7686011755295
 30
0.0
 10
549.2153540102514
 20
605.0329564923098
 30
0.0
 10
548.4989250537747
 20
603.20130103746
 30
0.0
 10
548.0791714950885
 20
601.2487852091338
 30
0.0
 10
548.0966051494155
 20
599.9311743475199
 30
0.0
 10
548.1054707685227
 20
599.261123432686
 30
0.0
  0
LWPOLYLINE
  5
8E
330
1F
100
AcDbEntity
  8
0
  6
Continuous
 62
     7
370
    25
100
AcDbPolyline
 90
        9
 70
   128
 43
0.0
 10
546.1059922681
 20
599.1353530981
 10
546.1412126762
 20
599.137656619
 10
546.2465491946
 20
599.1443469162
 10
546.4195057133
 20
599.1552654529
 10
546.6559837625
 20
599.1701534976
 10
546.9503796326
 20
599.1886582553
 10
547.2957171623
 20
599.2103412274
 10
547.6838130498
 20
599.2346886026
 10
548.1054707685
 20
599.2611234327
  0
SPLINE
  5
8F
330
1F
100
AcDbEntity
  8
0
  6
Continuous
 62
     7
370
    25
100
AcDbSpline
210
0.0
220
0.0
230
1.0
 70
     8
 71
     3
 72
    17
 73
    13
 74
     0
 42
0.00000001
 43
0.00000001
 40
0.0
 40
0.0
 40
0.0
 40
0.0
 40
0.1000301760603105
 40
0.2029765358723074
 40
0.3025920435428723
 40
0.4048905291350463
 40
0.5080766894938471
 40
0.6141349813330068
 40
0.7200529301392609
 40
0.829247640427698
 40
0.9137512522894782
 40
1.0
 40
1.0
 40
1.0
 40
1.0
 10
546.105992268129
 20
599.1353530980714
 30
0.0
 10
546.0932661284415
 20
599.9436710397232
 30
0.0
 10
546.0674428434039
 20
601.5838718485373
 30
0.0
 10
546.5316882153412
 20
603.9922255928278
 30
0.0
 10
547.3526512841369
 20
606.3047070276127
 30
0.0
 10
548.538463011104
 20
608.450630210436
 30
0.0
 10
550.084748963785
 20
610.4119173561934
 30
0.0
 10
551.9582012338124
 20
612.108964624091
 30
0.0
 10
554.1365210443932
 20
613.4963846935312
 30
0.0
 10
556.3706438161746
 20
614.4180179760573
 30
0.0
 10
558.5677920270407
 20
614.965830122334
 30
0.0
 10
559.9436994326103
 20
615.0613535287616
 30
0.0
 10
560.6386842105263
 20
615.1096033696545
 30
0.0
  0
SPLINE
  5
90
330
1F
100
AcDbEntity
  8
0
  6
Continuous
 62
     7
370
    25
100
AcDbSpline
210
0.0
220
0.0
230
1.0
 70
     8
 71
     3
 72
    16
 73
    12
 74
     0
 42
0.00000001
 43
0.00000001
 40
0.0
 40
0.0
 40
0.0
 40
0.0
 40
0.098640344848299
 40
0.1973451184529487
 40
0.2984849550463971
 40
0.3997162815975193
 40
0.5112170933634073
 40
0.6227668911731818
 40
0.7429953860048752
 40
0.8632240990171007
 40
1.0
 40
1.0
 40
1.0
 40
1.0
 10
550.7669151242619
 20
396.206104460333
 30
0.0
 10
550.790420861695
 20
395.7322084256396
 30
0.0
 10
550.8374476897663
 20
394.7841068223373
 30
0.0
 10
551.2303887422116
 20
393.4007891329634
 30
0.0
 10
551.8466208911707
 20
392.1084901586064
 30
0.0
 10
552.7000918478109
 20
390.8956625325479
 30
0.0
 10
553.7756725665982
 20
389.8128463651714
 30
0.0
 10
555.0853353952182
 20
388.8628856940433
 30
0.0
 10
556.5794282527778
 20
388.1213086216004
 30
0.0
 10
558.2974974480535
 20
387.563724187956
 30
0.0
 10
559.5264673024235
 20
387.4401197986272
 30
0.0
 10
560.1805157122917
 20
387.3743384826693
 30
0.0
  0
LINE
  5
91
330
1F
100
AcDbEntity
  8
0
  6
Continuous
 62
     7
370
    25
100
AcDbLine
 10
551.2245283617
 20
407.8032057204
 30
0.0
 11
550.7669151243
 21
396.2061044603
 31
0.0
  0
SPLINE
  5
92
330
1F
100
AcDbEntity
  8
0
  6
Continuous
 62
     7
370
    25
100
AcDbSpline
210
0.0
220
0.0
230
1.0
 70
     8
 71
     3
 72
    17
 73
    13
 74
     0
 42
0.00000001
 43
0.00000001
 40
0.0
 40
0.0
 40
0.0
 40
0.0
 40
0.124050947112026
 40
0.2481614352877117
 40
0.3419043525855875
 40
0.4356472693735384
 40
0.5294882255574204
 40
0.6233290621174095
 40
0.717435962999523
 40
0.8115424928857023
 40
0.9057719634105869
 40
1.0
 40
1.0
 40
1.0
 40
1.0
 10
548.5718901984889
 20
593.5575731038224
 30
0.0
 10
549.2763415017102
 20
585.8970306047444
 30
0.0
 10
550.6855822255224
 20
570.572268755591
 30
0.0
 10
552.0871611256359
 20
549.4133275674171
 30
0.0
 10
553.04691028212
 20
530.113950104656
 30
0.0
 10
553.6366499035505
 20
512.6781061734422
 30
0.0
 10
553.9539649698419
 20
495.2300049734124
 30
0.0
 10
553.9926766497174
 20
477.7575555570363
 30
0.0
 10
553.7506861170833
 20
460.2714346340132
 30
0.0
 10
553.2152093530226
 20
442.7704784117599
 30
0.0
 10
552.4090505607082
 20
425.274276901043
 30
0.0
 10
551.6193670918798
 20
413.6268665729987
 30
0.0
 10
551.2245283617373
 20
407.8032057203841
 30
0.0
  0
LINE
  5
93
330
1F
100
AcDbEntity
  8
0
  6
Continuous
 62
     7
370
    25
100
AcDbLine
 10
548.1054707685
 20
599.2611234327
 30
0.0
 11
548.5718901985
 21
593.5575731038
 31
0.0
  0
LINE
  5
94
330
1F
100
AcDbEntity
  8
0
  6
Continuous
 62
     7
370
    25
100
AcDbLine
 10
572.7054782226
 20
593.5575731038
 30
0.0
 11
573.1718976525
 21
599.2611234327
 31
0.0
  0
SPLINE
  5
95
330
1F
100
AcDbEntity
  8
0
  6
Continuous
 62
     7
370
    25
100
AcDbSpline
210
0.0
220
0.0
230
1.0
 70
     8
 71
     3
 72
    17
 73
    13
 74
     0
 42
0.00000001
 43
0.00000001
 40
0.0
 40
0.0
 40
0.0
 40
0.0
 40
0.1175912744314823
 40
0.2352544953891715
 40
0.3306092539664666
 40
0.4259643023163858
 40
0.521427984646408
 40
0.6168917583122016
 40
0.7126161308224634
 40
0.8083404621932818
 40
0.9041703404535814
 40
1.0
 40
1.0
 40
1.0
 40
1.0
 10
570.0528400593156
 20
407.8032057203815
 30
0.0
 10
569.5690294135304
 20
415.0719106317518
 30
0.0
 10
568.6011121093907
 20
429.6137677068156
 30
0.0
 10
567.7919267043753
 20
450.0936896715992
 30
0.0
 10
567.3653518858148
 20
469.2067578451288
 30
0.0
 10
567.2688926002218
 20
486.9505214220947
 30
0.0
 10
567.459534869451
 20
504.7012279207047
 30
0.0
 10
567.9372350807649
 20
522.4704300404234
 30
0.0
 10
568.6970226720028
 20
540.2467980472632
 30
0.0
 10
569.7438613021246
 20
558.031639232359
 30
0.0
 10
571.049955593625
 20
575.8067173627289
 30
0.0
 10
572.1536377660765
 20
587.6406256915807
 30
0.0
 10
572.7054782225642
 20
593.557573103825
 30
0.0
  0
LINE
  5
96
330
1F
100
AcDbEntity
  8
0
  6
Continuous
 62
     7
370
    25
100
AcDbLine
 10
570.5104532968
 20
396.2061044603
 30
0.0
 11
570.0528400593
 21
407.8032057204
 31
0.0
  0
SPLINE
  5
97
330
1F
100
AcDbEntity
  8
0
  6
Continuous
 62
     7
370
    25
100
AcDbSpline
210
0.0
220
0.0
230
1.0
 70
     8
 71
     3
 72
    16
 73
    12
 74
     0
 42
0.00000001
 43
0.00000001
 40
0.0
 40
0.0
 40
0.0
 40
0.0
 40
0.1367759009829179
 40
0.2570046139951414
 40
0.3772331088268354
 40
0.4887829066366031
 40
0.6002837184024815
 40
0.7015150449536055
 40
0.8026548815470552
 40
0.9013596551516996
 40
1.0
 40
1.0
 40
1.0
 40
1.0
 10
561.096852708761
 20
387.3743384826693
 30
0.0
 10
561.7509011186294
 20
387.4401197986273
 30
0.0
 10
562.9798709729995
 20
387.563724187956
 30
0.0
 10
564.6979401682752
 20
388.1213086216005
 30
0.0
 10
566.1920330258348
 20
388.8628856940436
 30
0.0
 10
567.5016958544547
 20
389.8128463651714
 30
0.0
 10
568.5772765732422
 20
390.8956625325479
 30
0.0
 10
569.4307475298822
 20
392.1084901586066
 30
0.0
 10
570.0469796788412
 20
393.4007891329636
 30
0.0
 10
570.4399207312865
 20
394.7841068223375
 30
0.0
 10
570.4869475593576
 20
395.7322084256398
 30
0.0
 10
570.5104532967908
 20
396.2061044603333
 30
0.0
  0
LINE
  5
98
330
1F
100
AcDbEntity
  8
0
  6
Continuous
 62
     7
370
    25
100
AcDbLine
 10
561.0968527088
 20
387.3743384827
 30
0.0
 11
560.1805157123
 21
387.3743384827
 31
0.0
  0
ARC
  5
99
330
1F
100
AcDbEntity
  8
0
  6
Continuous
 62
     7
370
    25
100
AcDbCircle
 10
569.0308913178
 20
549.0979014267
 30
0.0
 40
44.61126533244462
100
AcDbArc
 50
82.6676368741
 51
85.2752489515
  0
SPLINE
  5
9A
330
1F
100
AcDbEntity
  8
0
  6
Continuous
 62
     7
370
    25
100
AcDbSpline
210
0.0
220
0.0
230
1.0
 70
     8
 71
     3
 72
    17
 73
    13
 74
     0
 42
0.00000001
 43
0.00000001
 40
0.0
 40
0.0
 40
0.0
 40
0.0
 40
0.0957332006181084
 40
0.1914666626186343
 40
0.2872937780871115
 40
0.3831209994834881
 40
0.4785058697472735
 40
0.5738907506760395
 40
0.6693616536447672
 40
0.7648324358912425
 40
0.8823919961686066
 40
1.0
 40
1.0
 40
1.0
 40
1.0
 10
574.7243974996729
 20
593.3443587076562
 30
0.0
 10
574.2080258574816
 20
587.446260023748
 30
0.0
 10
573.1752811632384
 20
575.6500465522263
 30
0.0
 10
571.9539287260485
 20
557.9230151871905
 30
0.0
 10
570.9732550486723
 20
540.1760731902708
 30
0.0
 10
570.258381619065
 20
522.4383928881513
 30
0.0
 10
569.8020423091642
 20
504.7203260756672
 30
0.0
 10
569.6049603700538
 20
487.0204245129807
 30
0.0
 10
569.6645173058032
 20
469.315094478178
 30
0.0
 10
570.0128252993713
 20
450.2438668519926
 30
0.0
 10
570.6925098102317
 20
429.8127504369555
 30
0.0
 10
571.5068872857863
 20
415.3041069892566
 30
0.0
 10
571.9141599027741
 20
408.0482909048744
 30
0.0
  0
ARC
  5
9B
330
1F
100
AcDbEntity
  8
0
  6
Continuous
 62
     7
370
    25
100
AcDbCircle
 10
569.8921842756
 20
416.2138363183
 30
0.0
 40
8.412164842421653
100
AcDbArc
 50
271.0943030934
 51
283.907983084
  0
SPLINE
  5
9C
330
1F
100
AcDbEntity
  8
0
  6
Continuous
 62
     7
370
    25
100
AcDbSpline
210
0.0
220
0.0
230
1.0
 70
     8
 71
     3
 72
    17
 73
    13
 74
     0
 42
0.00000001
 43
0.00000001
 40
0.0
 40
0.0
 40
0.0
 40
0.0
 40
0.0941011890930002
 40
0.1882033052366398
 40
0.2824021014499764
 40
0.376601077254145
 40
0.4703720236815201
 40
0.5641429828668791
 40
0.6579955000176901
 40
0.7518479480208067
 40
0.8758982641338979
 40
1.0
 40
1.0
 40
1.0
 40
1.0
 10
549.3632085182787
 20
408.048290904877
 30
0.0
 10
549.6950391909998
 20
413.8532035887499
 30
0.0
 10
550.3587038055166
 20
425.4630861443811
 30
0.0
 10
551.0371611860994
 20
442.9079311536476
 30
0.0
 10
551.4826680325988
 20
460.3680355924594
 30
0.0
 10
551.6717900668565
 20
477.8146108497181
 30
0.0
 10
551.6117495423194
 20
495.2367038792048
 30
0.0
 10
551.3017431877857
 20
512.6356751360146
 30
0.0
 10
550.7436728226077
 20
530.0343510965622
 30
0.0
 10
549.8432527356847
 20
549.2939042641503
 30
0.0
 10
548.5324133464317
 20
570.4069960596628
 30
0.0
 10
547.2128762037893
 20
585.6975150387614
 30
0.0
 10
546.5529709213802
 20
593.3443587076534
 30
0.0
  0
ARC
  5
9D
330
1F
100
AcDbEntity
  8
0
  6
Continuous
 62
     7
370
    25
100
AcDbCircle
 10
552.2464771032
 20
549.0979014269
 30
0.0
 40
44.61126533220777
100
AcDbArc
 50
94.7247510485
 51
97.3323631259
  0
ARC
  5
9E
330
1F
100
AcDbEntity
  8
0
  6
Continuous
 62
     7
370
    25
100
AcDbCircle
 10
551.3851841454
 20
416.2138363183
 30
0.0
 40
8.412164842418472
100
AcDbArc
 50
256.092016916
 51
268.9056969066
  0
LINE
  5
9F
330
1F
100
AcDbEntity
  8
0
  6
Continuous
 62
     7
370
    25
100
AcDbLine
 10
546.5529709214
 20
593.3443587077
 30
0.0
 11
546.1059922681
 21
599.1353530981
 31
0.0
  0
LINE
  5
A0
330
1F
100
AcDbEntity
  8
0
  6
Continuous
 62
     7
370
    25
100
AcDbLine
 10
575.1713761529
 20
599.1353530981
 30
0.0
 11
574.7243974997
 21
593.3443587077
 31
0.0
  0
LINE
  5
A1
330
1F
100
AcDbEntity
  8
0
  6
Continuous
 62
     7
370
    25
100
AcDbLine
 10
549.3632085183
 20
408.1193046326
 30
0.0
 11
549.3632085183
 21
408.0482909049
 31
0.0
  0
LINE
  5
A2
330
1F
100
AcDbEntity
  8
0
  6
Continuous
 62
     7
370
    25
100
AcDbLine
 10
571.9141599028
 20
408.0482909049
 30
0.0
 11
571.9141599028
 21
408.1193046326
 31
0.0
  0
ARC
  5
A3
330
1F
100
AcDbEntity
  8
0
  6
Continuous
 62
     7
370
    25
100
AcDbCircle
 10
550.470848921
 20
411.3339139568
 30
0.0
 40
15.13070637335233
100
AcDbArc
 50
264.3793844061
 51
271.1211919754
  0
ARC
  5
A4
330
1F
100
AcDbEntity
  8
0
  6
Continuous
 62
     7
370
    25
100
AcDbCircle
 10
596.745436935
 20
384.4893775619
 30
0.0
 40
36.67855590853409
100
AcDbArc
 50
175.4887264481
 51
180.0877343053
  0
SPLINE
  5
A5
330
1F
100
AcDbEntity
  8
0
  6
Continuous
 62
     7
370
    25
100
AcDbSpline
210
0.0
220
0.0
230
1.0
 70
     8
 71
     3
 72
    16
 73
    12
 74
     0
 42
0.00000001
 43
0.00000001
 40
0.0
 40
0.0
 40
0.0
 40
0.0
 40
0.1289418392257834
 40
0.2439400911840278
 40
0.3589702137075988
 40
0.4693438180688108
 40
0.5797228950311709
 40
0.6843248890190604
 40
0.788906798746852
 40
0.8944616416092039
 40
1.0
 40
1.0
 40
1.0
 40
1.0
 10
560.0669240271633
 20
384.4332134536115
 30
0.0
 10
559.2984803712015
 20
384.52180879357
 30
0.0
 10
557.8446914642755
 20
384.6894188993178
 30
0.0
 10
555.8258399586291
 20
385.4431083784062
 30
0.0
 10
554.0633323413648
 20
386.4449306069745
 30
0.0
 10
552.5279726142961
 20
387.7220126624557
 30
0.0
 10
551.2602228430902
 20
389.1823380289498
 30
0.0
 10
550.2615019056367
 20
390.8039599069284
 30
0.0
 10
549.5370120014343
 20
392.5388345310583
 30
0.0
 10
549.0749209150528
 20
394.3804676182831
 30
0.0
 10
549.0175938907522
 20
395.6441571846493
 30
0.0
 10
548.9889326169632
 20
396.2759526264641
 30
0.0
  0
ARC
  5
A6
330
1F
100
AcDbEntity
  8
0
  6
Continuous
 62
     7
370
    25
100
AcDbCircle
 10
570.8065195
 20
411.3339139569
 30
0.0
 40
15.1307063734884
100
AcDbArc
 50
268.8788080246
 51
275.6206155938
  0
SPLINE
  5
A7
330
1F
100
AcDbEntity
  8
0
  6
Continuous
 62
     7
370
    25
100
AcDbSpline
210
0.0
220
0.0
230
1.0
 70
     8
 71
     3
 72
    16
 73
    12
 74
     0
 42
0.00000001
 43
0.00000001
 40
0.0
 40
0.0
 40
0.0
 40
0.0
 40
0.1040419239026736
 40
0.2110962820894851
 40
0.3143508318419102
 40
0.4202791470204338
 40
0.5291618722915319
 40
0.6410309509559917
 40
0.7542368876038535
 40
0.87106366361228
 40
1.0
 40
1.0
 40
1.0
 40
1.0
 10
572.2884358040897
 20
396.2759526264638
 30
0.0
 10
572.2611636777225
 20
395.6530423845559
 30
0.0
 10
572.2058297866831
 20
394.3891861311361
 30
0.0
 10
571.744900555278
 20
392.5551100093251
 30
0.0
 10
571.0210392072396
 20
390.8103230858766
 30
0.0
 10
570.0262435133092
 20
389.1963914082129
 30
0.0
 10
568.7572463980925
 20
387.7269944266714
 30
0.0
 10
567.2294071572379
 20
386.4571411218149
 30
0.0
 10
565.4628782211744
 20
385.4455304442683
 30
0.0
 10
563.4432492509737
 20
384.6914396405886
 30
0.0
 10
561.978765988907
 20
384.5220706393275
 30
0.0
 10
561.2104443938921
 20
384.4332134536118
 30
0.0
  0
ARC
  5
A8
330
1F
100
AcDbEntity
  8
0
  6
Continuous
 62
     7
370
    25
100
AcDbCircle
 10
524.5319314851
 20
384.4893775618
 30
0.0
 40
36.67855590951306
100
AcDbArc
 50
359.9122656948
 51
4.5112735519
  0
LINE
  5
A9
330
1F
100
AcDbEntity
  8
0
  6
Continuous
 62
     7
370
    25
100
AcDbLine
 10
560.0669240272
 20
384.4332134536
 30
0.0
 11
561.2104443939
 21
384.4332134536
 31
0.0
  0
LINE
  5
AA
330
1F
100
AcDbEntity
  8
0
  6
Continuous
 62
     7
370
    25
100
AcDbLine
 10
548.988932617
 20
396.2759526265
 30
0.0
 11
549.3632085183
 21
408.0482909049
 31
0.0
  0
LINE
  5
AB
330
1F
100
AcDbEntity
  8
0
  6
Continuous
 62
     7
370
    25
100
AcDbLine
 10
571.9141599028
 20
408.0482909049
 30
0.0
 11
572.2884358041
 21
396.2759526265
 31
0.0
  0
SPLINE
  5
AC
330
1F
100
AcDbEntity
  8
0
  6
Continuous
 62
     7
370
    25
100
AcDbSpline
210
0.0
220
0.0
230
1.0
 70
     8
 71
     3
 72
     9
 73
     5
 74
     0
 42
0.00000001
 43
0.00000001
 40
0.0
 40
0.0
 40
0.0
 40
0.0
 40
0.5173759112325205
 40
1.0
 40
1.0
 40
1.0
 40
1.0
 10
572.2884358040897
 20
396.2759526264638
 30
0.0
 10
572.2882094123746
 20
396.4558636084121
 30
0.0
 10
572.287771835537
 20
396.8036010620553
 30
0.0
 10
572.281182358926
 20
397.625978346626
 30
0.0
 10
572.2780021187812
 20
398.022877434215
 30
0.0
  0
SPLINE
  5
AD
330
1F
100
AcDbEntity
  8
0
  6
Continuous
 62
     7
370
    25
100
AcDbSpline
210
0.0
220
0.0
230
1.0
 70
     8
 71
     3
 72
     9
 73
     5
 74
     0
 42
0.00000001
 43
0.00000001
 40
0.0
 40
0.0
 40
0.0
 40
0.0
 40
0.5697240273731504
 40
1.0
 40
1.0
 40
1.0
 40
1.0
 10
572.2780021187812
 20
398.022877434215
 30
0.0
 10
572.2779854135291
 20
398.0246749217815
 30
0.0
 10
572.2779560918732
 20
398.0278299362797
 30
0.0
 10
572.2779176568138
 20
398.0310394152012
 30
0.0
 10
572.2779011191312
 20
398.0324203768658
 30
0.0
  0
SPLINE
  5
AE
330
1F
100
AcDbEntity
  8
0
  6
Continuous
 62
     7
370
    25
100
AcDbSpline
210
0.0
220
0.0
230
1.0
 70
     8
 71
     3
 72
     9
 73
     5
 74
     0
 42
0.00000001
 43
0.00000001
 40
0.0
 40
0.0
 40
0.0
 40
0.0
 40
0.430275971560599
 40
0.9999999999999999
 40
0.9999999999999999
 40
0.9999999999999999
 40
0.9999999999999999
 10
548.9994673019213
 20
398.0324203768443
 30
0.0
 10
548.9994507642389
 20
398.0310394151857
 30
0.0
 10
548.9994123291794
 20
398.0278299362701
 30
0.0
 10
548.9993830075236
 20
398.0246749217799
 30
0.0
 10
548.9993663022716
 20
398.0228774342148
 30
0.0
  0
SPLINE
  5
AF
330
1F
100
AcDbEntity
  8
0
  6
Continuous
 62
     7
370
    25
100
AcDbSpline
210
0.0
220
0.0
230
1.0
 70
     8
 71
     3
 72
     9
 73
     5
 74
     0
 42
0.00000001
 43
0.00000001
 40
0.0
 40
0.0
 40
0.0
 40
0.0
 40
0.4826240887677676
 40
0.9999999999999999
 40
0.9999999999999999
 40
0.9999999999999999
 40
0.9999999999999999
 10
548.9993663022716
 20
398.0228774342148
 30
0.0
 10
548.9961860621268
 20
397.6259783466259
 30
0.0
 10
548.9895965855158
 20
396.8036010620558
 30
0.0
 10
548.9891590086783
 20
396.4558636084125
 30
0.0
 10
548.9889326169632
 20
396.2759526264641
 30
0.0
  0
LINE
  5
B0
330
1F
100
AcDbEntity
  8
0
  6
Continuous
 62
     7
370
    25
100
AcDbLine
 10
548.9993663023
 20
398.0228765698
 30
0.0
 11
548.9993663023
 21
398.0228774342
 31
0.0
  0
SPLINE
  5
B1
330
1F
100
AcDbEntity
  8
0
  6
Continuous
 62
     7
370
    25
100
AcDbSpline
210
0.0
220
0.0
230
1.0
 70
     8
 71
     3
 72
    12
 73
     8
 74
     0
 42
0.00000001
 43
0.00000001
 40
0.0
 40
0.0
 40
0.0
 40
0.0
 40
0.2462814734948115
 40
0.4982835695466276
 40
0.7478612441217937
 40
0.9981631206918242
 40
1.0
 40
1.0
 40
1.0
 40
1.0
 10
549.3632085182787
 20
408.119304632555
 30
0.0
 10
549.3111306324582
 20
407.2113832036668
 30
0.0
 10
549.2057651964273
 20
405.3744511598776
 30
0.0
 10
549.1036232877576
 20
402.8255490430302
 30
0.0
 10
549.0336084697412
 20
400.3909948233872
 30
0.0
 10
549.007778883263
 20
398.818880886242
 30
0.0
 10
548.9994271462812
 20
398.0286336726793
 30
0.0
 10
548.9993663022716
 20
398.02287656981
 30
0.0
  0
SPLINE
  5
B2
330
1F
100
AcDbEntity
  8
0
  6
Continuous
 62
     7
370
    25
100
AcDbSpline
210
0.0
220
0.0
230
1.0
 70
     8
 71
     3
 72
    12
 73
     8
 74
     0
 42
0.00000001
 43
0.00000001
 40
0.0
 40
0.0
 40
0.0
 40
0.0
 40
0.0018368910680121
 40
0.2515916397908313
 40
0.5017194507754607
 40
0.7486305910858623
 40
1.0
 40
1.0
 40
1.0
 40
1.0
 10
572.2780021187812
 20
398.0228765698101
 30
0.0
 10
572.2779412747573
 20
398.0286336729003
 30
0.0
 10
572.2696077115985
 20
398.8171611104353
 30
0.0
 10
572.2437997886926
 20
400.389250701628
 30
0.0
 10
572.1742869948068
 20
402.8072622096311
 30
0.0
 10
572.0724355142427
 20
405.3563800056601
 30
0.0
 10
571.9672322020099
 20
407.1928525961104
 30
0.0
 10
571.9141599027741
 20
408.1193046325523
 30
0.0
  0
LINE
  5
B3
330
1F
100
AcDbEntity
  8
0
  6
Continuous
 62
     7
370
    25
100
AcDbLine
 10
572.2780021188
 20
398.0228774342
 30
0.0
 11
572.2780021188
 21
398.0228765698
 31
0.0
  0
ARC
  5
B4
330
1F
100
AcDbEntity
  8
0
  6
Continuous
 62
     7
370
    25
100
AcDbCircle
 10
611.4386842105
 20
601.2260911686
 30
0.0
 40
17.60000000000009
100
AcDbArc
 50
152.0468131166
 51
172.6223604454
  0
ARC
  5
B5
330
1F
100
AcDbEntity
  8
0
  6
Continuous
 62
     7
370
    25
100
AcDbCircle
 10
611.4386842105
 20
601.2260911686
 30
0.0
 40
17.60000000000004
100
AcDbArc
 50
187.66296635
 51
207.9531868834
  0
ARC
  5
B6
330
1F
100
AcDbEntity
  8
0
  6
Continuous
 62
     7
370
    25
100
AcDbCircle
 10
611.4386842105
 20
601.2260911686
 30
0.0
 40
17.60000000000004
100
AcDbArc
 50
207.9531868834
 51
233.5326133383
  0
ARC
  5
B7
330
1F
100
AcDbEntity
  8
0
  6
Continuous
 62
     7
370
    25
100
AcDbCircle
 10
611.4386842105
 20
601.2260911686
 30
0.0
 40
17.60000000000004
100
AcDbArc
 50
246.970187694
 51
292.9009540235
  0
ARC
  5
B8
330
1F
100
AcDbEntity
  8
0
  6
Continuous
 62
     7
370
    25
100
AcDbCircle
 10
611.4386842105
 20
601.2260911686
 30
0.0
 40
17.60000000000015
100
AcDbArc
 50
307.7088399305
 51
329.914091969
  0
ARC
  5
B9
330
1F
100
AcDbEntity
  8
0
  6
Continuous
 62
     7
370
    25
100
AcDbCircle
 10
611.4386842105
 20
601.2260911686
 30
0.0
 40
17.60000000000006
100
AcDbArc
 50
33.0957362986
 51
53.189296463
  0
ARC
  5
BA
330
1F
100
AcDbEntity
  8
0
  6
Continuous
 62
     7
370
    25
100
AcDbCircle
 10
611.4386842105
 20
601.2260911686
 30
0.0
 40
17.60000000000011
100
AcDbArc
 50
67.4569095915
 51
112.6764595981
  0
ARC
  5
BB
330
1F
100
AcDbEntity
  8
0
  6
Continuous
 62
     7
370
    25
100
AcDbCircle
 10
611.4386842105
 20
601.2260911686
 30
0.0
 40
17.60000000000009
100
AcDbArc
 50
127.5443943396
 51
152.0468131166
  0
ARC
  5
BC
330
1F
100
AcDbEntity
  8
0
  6
Continuous
 62
     7
370
    25
100
AcDbCircle
 10
509.8386842105
 20
601.2260911686
 30
0.0
 40
17.60000000000005
100
AcDbArc
 50
359.6644866073
 51
27.9531868834
  0
ARC
  5
BD
330
1F
100
AcDbEntity
  8
0
  6
Continuous
 62
     7
370
    25
100
AcDbCircle
 10
509.8386842105
 20
601.2260911686
 30
0.0
 40
17.59999999999994
100
AcDbArc
 50
332.0468131166
 51
346.724860368
  0
ARC
  5
BE
330
1F
100
AcDbEntity
  8
0
  6
Continuous
 62
     7
370
    25
100
AcDbCircle
 10
509.8386842105
 20
601.2260911686
 30
0.0
 40
17.60000000000001
100
AcDbArc
 50
300.5452850878
 51
332.0468131166
  0
ARC
  5
BF
330
1F
100
AcDbEntity
  8
0
  6
Continuous
 62
     7
370
    25
100
AcDbCircle
 10
509.8386842105
 20
601.2260911686
 30
0.0
 40
17.60000000000002
100
AcDbArc
 50
240.2505556675
 51
285.5715056651
  0
ARC
  5
C0
330
1F
100
AcDbEntity
  8
0
  6
Continuous
 62
     7
370
    25
100
AcDbCircle
 10
509.8386842105
 20
601.2260911686
 30
0.0
 40
17.60000000000007
100
AcDbArc
 50
211.5427743269
 51
226.2360083548
  0
ARC
  5
C1
330
1F
100
AcDbEntity
  8
0
  6
Continuous
 62
     7
370
    25
100
AcDbCircle
 10
509.8386842105
 20
601.2260911686
 30
0.0
 40
17.60000000000009
100
AcDbArc
 50
120.5815160919
 51
148.4572256731
  0
ARC
  5
C2
330
1F
100
AcDbEntity
  8
0
  6
Continuous
 62
     7
370
    25
100
AcDbCircle
 10
509.8386842105
 20
601.2260911686
 30
0.0
 40
17.60000000000009
100
AcDbArc
 50
60.0179903123
 51
105.9227595374
  0
ARC
  5
C3
330
1F
100
AcDbEntity
  8
0
  6
Continuous
 62
     7
370
    25
100
AcDbCircle
 10
509.8386842105
 20
601.2260911686
 30
0.0
 40
17.60000000000006
100
AcDbArc
 50
27.9531868834
 51
46.2242043549
  0
LWPOLYLINE
  5
C4
330
1F
100
AcDbEntity
  8
0
  6
Continuous
 62
     7
370
    25
100
AcDbPolyline
 90
        9
 70
   128
 43
0.0
 10
588.8254137704
 20
608.4260911686
 10
590.0037955188
 20
608.0877400333
 10
591.1518068836
 20
607.8818194077
 10
592.2398602157
 20
607.8136364753
 10
593.2399131619
 20
607.884948512
 10
594.1261913994
 20
608.0939175958
 10
594.875852916
 20
608.435157975
 10
595.4695767167
 20
608.8998748757
 10
595.8920607829
 20
609.4760911686
  0
LWPOLYLINE
  5
C5
330
1F
100
AcDbEntity
  8
0
  6
Continuous
 62
     7
370
    25
100
AcDbPolyline
 90
        9
 70
   128
 43
0.0
 10
532.4519546507
 20
608.4260911686
 10
531.2735729022
 20
608.0877400334
 10
530.1255615374
 20
607.8818194077
 10
529.0375082053
 20
607.8136364753
 10
528.0374552591
 20
607.884948512
 10
527.1511770217
 20
608.0939175958
 10
526.4015155051
 20
608.435157975
 10
525.8077917043
 20
608.8998748758
 10
525.3853076381
 20
609.4760911686
  0
LWPOLYLINE
  5
C6
330
1F
100
AcDbEntity
  8
0
  6
Continuous
 62
     7
370
    25
100
AcDbPolyline
 90
        9
 70
   128
 43
0.0
 10
595.8920607829
 20
592.9760911686
 10
595.4695767167
 20
593.5523074615
 10
594.875852916
 20
594.0170243622
 10
594.1261913994
 20
594.3582647414
 10
593.2399131619
 20
594.5672338252
 10
592.2398602157
 20
594.6385458619
 10
591.1518068836
 20
594.5703629295
 10
590.0037955188
 20
594.3644423039
 10
588.8254137704
 20
594.0260911686
  0
SPLINE
  5
C7
330
1F
100
AcDbEntity
  8
0
  6
Continuous
 62
     7
370
    25
100
AcDbSpline
210
0.0
220
0.0
230
1.0
 70
     8
 71
     3
 72
    30
 73
    26
 74
     0
 42
0.00000001
 43
0.00000001
 40
0.0
 40
0.0
 40
0.0
 40
0.0
 40
0.1249999999999998
 40
0.1249999999999998
 40
0.1874999999999996
 40
0.1874999999999996
 40
0.2499999999999994
 40
0.2499999999999994
 40
0.3749999999999993
 40
0.3749999999999993
 40
0.4999999999999992
 40
0.4999999999999992
 40
0.5624999999999991
 40
0.5624999999999991
 40
0.624999999999999
 40
0.624999999999999
 40
0.7499999999999991
 40
0.7499999999999991
 40
0.8124999999999994
 40
0.8124999999999994
 40
0.8749999999999997
 40
0.8749999999999997
 40
0.9374999999999999
 40
0.9374999999999999
 40
1.0
 40
1.0
 40
1.0
 40
1.0
 10
588.8254137703623
 20
594.0260911685999
 30
0.0
 10
588.4323011422812
 20
594.470569277212
 30
0.0
 10
588.1071455831998
 20
594.9651778088571
 30
0.0
 10
587.7145388625703
 20
595.7917430154815
 30
0.0
 10
587.6008580051167
 20
596.0789528200695
 30
0.0
 10
587.4065007479693
 20
596.666706604426
 30
0.0
 10
587.3251422159476
 20
596.9686449151543
 30
0.0
 10
587.1201511745096
 20
597.8975947992434
 30
0.0
 10
587.0350993016976
 20
598.5523538261447
 30
0.0
 10
586.9308153825798
 20
599.8869786919452
 30
0.0
 10
586.9104526722119
 20
600.5575662010773
 30
0.0
 10
586.9104951748681
 20
601.5622730052957
 30
0.0
 10
586.9159466976919
 20
601.8973057030215
 30
0.0
 10
586.939251944332
 20
602.5676403005232
 30
0.0
 10
586.9572637039537
 20
602.9046563202085
 30
0.0
 10
587.0354045455188
 20
603.9017806941154
 30
0.0
 10
587.1186887828756
 20
604.5464048802756
 30
0.0
 10
587.3240997342909
 20
605.4795810243971
 30
0.0
 10
587.4067628643703
 20
605.7867847205781
 30
0.0
 10
587.6032804115976
 20
606.3800316611756
 30
0.0
 10
587.7163657742976
 20
606.6643672293304
 30
0.0
 10
587.9751353539943
 20
607.2089980578293
 30
0.0
 10
588.1208120970444
 20
607.4692946856088
 30
0.0
 10
588.4473070363515
 20
607.9664267715685
 30
0.0
 10
588.6287708296913
 20
608.2037541687238
 30
0.0
 10
588.8254137703617
 20
608.4260911686001
 30
0.0
  0
SPLINE
  5
C8
330
1F
100
AcDbEntity
  8
0
  6
Continuous
 62
     7
370
    25
100
AcDbSpline
210
0.0
220
0.0
230
1.0
 70
     8
 71
     3
 72
    26
 73
    22
 74
     0
 42
0.00000001
 43
0.00000001
 40
0.0
 40
0.0
 40
0.0
 40
0.0
 40
0.1249999999999996
 40
0.1249999999999996
 40
0.1874999999999994
 40
0.1874999999999994
 40
0.2499999999999992
 40
0.2499999999999992
 40
0.3749999999999991
 40
0.3749999999999991
 40
0.4374999999999992
 40
0.4374999999999992
 40
0.4999999999999992
 40
0.4999999999999992
 40
0.6249999999999993
 40
0.6249999999999993
 40
0.7499999999999994
 40
0.7499999999999994
 40
0.8749999999999998
 40
0.8749999999999998
 40
1.0
 40
1.0
 40
1.0
 40
1.0
 10
532.4519546506816
 20
608.4260911686099
 30
0.0
 10
532.844729808283
 20
607.981994625561
 30
0.0
 10
533.1686665658808
 20
607.4889739392383
 30
0.0
 10
533.5595392583756
 20
606.6680098424825
 30
0.0
 10
533.6742154053533
 20
606.3797796087482
 30
0.0
 10
533.87116316637
 20
605.7849684172656
 30
0.0
 10
533.9535041485809
 20
605.4786200515781
 30
0.0
 10
534.1587062592749
 20
604.5460660983938
 30
0.0
 10
534.2419357107719
 20
603.901889143152
 30
0.0
 10
534.3200502452846
 20
602.9054767235352
 30
0.0
 10
534.3380635825426
 20
602.5686952898617
 30
0.0
 10
534.3613849986883
 20
601.8988266528941
 30
0.0
 10
534.3668511285938
 20
601.5640267592808
 30
0.0
 10
534.3669595362586
 20
600.5600178273543
 30
0.0
 10
534.3466191573434
 20
599.8893067116499
 30
0.0
 10
534.2427373967231
 20
598.5568726022074
 30
0.0
 10
534.1595798572424
 20
597.9115555840895
 30
0.0
 10
533.8864564547289
 20
596.6674025005789
 30
0.0
 10
533.6927388570618
 20
596.0648505256918
 30
0.0
 10
533.1695455946165
 20
594.9641471625018
 30
0.0
 10
532.8446576416361
 20
594.4701061154454
 30
0.0
 10
532.4519546506906
 20
594.0260911685998
 30
0.0
  0
LWPOLYLINE
  5
C9
330
1F
100
AcDbEntity
  8
0
  6
Continuous
 62
     7
370
    25
100
AcDbPolyline
 90
        9
 70
   128
 43
0.0
 10
525.3853076381
 20
592.9760911686
 10
525.8077917043
 20
593.5523074615
 10
526.4015155051
 20
594.0170243622
 10
527.1511770217
 20
594.3582647414
 10
528.0374552591
 20
594.5672338252
 10
529.0375082053
 20
594.6385458619
 10
530.1255615374
 20
594.5703629295
 10
531.2735729022
 20
594.3644423039
 10
532.4519546507
 20
594.0260911686
  0
ARC
  5
CA
330
1F
100
AcDbEntity
  8
0
  6
Continuous
 62
     7
370
    25
100
AcDbCircle
 10
560.6386842105
 20
601.2260911686
 30
0.0
 40
14.22500000000006
100
AcDbArc
 50
22.64447348
 51
157.4330263742
  0
LINE
  5
CB
330
1F
100
AcDbEntity
  8
0
  6
Continuous
 62
     7
370
    25
100
AcDbLine
 10
568.1199068349
 20
613.3249313214
 30
0.0
 11
568.2474793937
 21
613.5312451921
 31
0.0
  0
SPLINE
  5
CC
330
1F
100
AcDbEntity
  8
0
  6
Continuous
 62
     7
370
    25
100
AcDbSpline
210
0.0
220
0.0
230
1.0
 70
     8
 71
     3
 72
    11
 73
     7
 74
     0
 42
0.00000001
 43
0.00000001
 40
0.0
 40
0.0
 40
0.0
 40
0.0
 40
0.1446702591042529
 40
0.3907520209323639
 40
0.5962314811354595
 40
1.0
 40
1.0
 40
1.0
 40
1.0
 10
573.0823542365509
 20
608.6061762605807
 30
0.0
 10
572.8774621637051
 20
608.8692776360983
 30
0.0
 10
572.3240520016353
 20
609.5799101795814
 30
0.0
 10
571.411838938253
 20
610.6100965417888
 30
0.0
 10
570.0378675289916
 20
612.0271774117425
 30
0.0
 10
568.9610930091434
 20
612.9317532576673
 30
0.0
 10
568.2474793937229
 20
613.5312451920825
 30
0.0
  0
LINE
  5
CD
330
1F
100
AcDbEntity
  8
0
  6
Continuous
 62
     7
370
    25
100
AcDbLine
 10
572.8737179429
 20
608.4824383603
 30
0.0
 11
573.0823542366
 21
608.6061762606
 31
0.0
  0
SPLINE
  5
CE
330
1F
100
AcDbEntity
  8
0
  6
Continuous
 62
     7
370
    25
100
AcDbSpline
210
0.0
220
0.0
230
1.0
 70
     8
 71
     3
 72
    11
 73
     7
 74
     0
 42
0.00000001
 43
0.00000001
 40
0.0
 40
0.0
 40
0.0
 40
0.0
 40
0.1446702591042556
 40
0.3907520209323692
 40
0.596231481135486
 40
0.9999999999999999
 40
0.9999999999999999
 40
0.9999999999999999
 40
0.9999999999999999
 10
548.0255080257679
 20
608.3125829814577
 30
0.0
 10
547.900101587222
 20
608.0035905535804
 30
0.0
 10
547.5613808328446
 20
607.1690070227738
 30
0.0
 10
547.1253198042317
 20
605.863914155117
 30
0.0
 10
546.5850774762658
 20
603.9654795756463
 30
0.0
 10
546.340079073969
 20
602.5806775643476
 30
0.0
 10
546.177710637112
 20
601.6629240776994
 30
0.0
  0
LINE
  5
CF
330
1F
100
AcDbEntity
  8
0
  6
Continuous
 62
     7
370
    25
100
AcDbLine
 10
548.2369863376
 20
608.1937676011
 30
0.0
 11
548.0255080258
 21
608.3125829815
 31
0.0
  0
LINE
  5
D0
330
1F
100
AcDbEntity
  8
0
  6
Continuous
 62
     7
370
    25
100
AcDbLine
 10
553.901392594
 20
613.7544400891
 30
0.0
 11
553.7865058203
 21
613.9680781012
 31
0.0
  0
SPLINE
  5
D1
330
1F
100
AcDbEntity
  8
0
  6
Continuous
 62
     7
370
    25
100
AcDbSpline
210
0.0
220
0.0
230
1.0
 70
     8
 71
     3
 72
    11
 73
     7
 74
     0
 42
0.00000001
 43
0.00000001
 40
0.0
 40
0.0
 40
0.0
 40
0.0
 40
0.1446702591042546
 40
0.3907520209323574
 40
0.5962314811354746
 40
1.0
 40
1.0
 40
1.0
 40
1.0
 10
560.4691780517925
 20
615.6926680734384
 30
0.0
 10
560.1388795404007
 20
615.6467770210787
 30
0.0
 10
559.2467486239535
 20
615.5228260337553
 30
0.0
 10
557.8984745319583
 20
615.247919528306
 30
0.0
 10
555.9842607947309
 20
614.7665658187889
 30
0.0
 10
554.662487872586
 20
614.2863396534151
 30
0.0
 10
553.7865058203084
 20
613.968078101182
 30
0.0
  0
LINE
  5
D2
330
1F
100
AcDbEntity
  8
0
  6
Continuous
 62
     7
370
    25
100
AcDbLine
 10
560.47202007
 20
615.4501147929
 30
0.0
 11
560.4691780518
 21
615.6926680734
 31
0.0
  0
SPLINE
  5
D3
330
1F
100
AcDbEntity
  8
0
  6
Continuous
 62
     7
370
    25
100
AcDbSpline
210
0.0
220
0.0
230
1.0
 70
     8
 71
     3
 72
     9
 73
     5
 74
     0
 42
0.00000001
 43
0.00000001
 40
0.0
 40
0.0
 40
0.0
 40
0.0
 40
0.5862283062032932
 40
1.0
 40
1.0
 40
1.0
 40
1.0
 10
568.2474793937229
 20
613.5312451920825
 30
0.0
 10
567.9857330793699
 20
613.7367447848892
 30
0.0
 10
567.5392409677073
 20
614.0872901110566
 30
0.0
 10
567.0786302681944
 20
614.4210679420063
 30
0.0
 10
566.8880425988759
 20
614.55917576047
 30
0.0
  0
SPLINE
  5
D4
330
1F
100
AcDbEntity
  8
0
  6
Continuous
 62
     7
370
    25
100
AcDbSpline
210
0.0
220
0.0
230
1.0
 70
     8
 71
     3
 72
     9
 73
     5
 74
     0
 42
0.00000001
 43
0.00000001
 40
0.0
 40
0.0
 40
0.0
 40
0.0
 40
0.5863847898283574
 40
1.0
 40
1.0
 40
1.0
 40
1.0
 10
562.1640514409753
 20
615.8718714418483
 30
0.0
 10
561.8317544822366
 20
615.8428690927143
 30
0.0
 10
561.265066934226
 20
615.793409506386
 30
0.0
 10
560.7020502966667
 20
615.722144403816
 30
0.0
 10
560.4691780517925
 20
615.6926680734384
 30
0.0
  0
ARC
  5
D5
330
1F
100
AcDbEntity
  8
0
  6
Continuous
 62
     7
370
    25
100
AcDbCircle
 10
560.6386842105
 20
601.2260911686
 30
0.0
 40
14.72499999999999
100
AcDbArc
 50
64.8870148383
 51
84.0540459638
  0
SPLINE
  5
D6
330
1F
100
AcDbEntity
  8
0
  6
Continuous
 62
     7
370
    25
100
AcDbSpline
210
0.0
220
0.0
230
1.0
 70
     8
 71
     3
 72
     9
 73
     5
 74
     0
 42
0.00000001
 43
0.00000001
 40
0.0
 40
0.0
 40
0.0
 40
0.0
 40
0.5863847898283631
 40
1.0
 40
1.0
 40
1.0
 40
1.0
 10
574.084985600629
 20
607.2279745335551
 30
0.0
 10
573.8937203501401
 20
607.5012509668559
 30
0.0
 10
573.567543317914
 20
607.9672869862775
 30
0.0
 10
573.2243176099054
 20
608.419241145872
 30
0.0
 10
573.0823542365509
 20
608.6061762605807
 30
0.0
  0
ARC
  5
D7
330
1F
100
AcDbEntity
  8
0
  6
Continuous
 62
     7
370
    25
100
AcDbCircle
 10
560.6386842105
 20
601.2260911686
 30
0.0
 40
14.72500000000003
100
AcDbArc
 50
4.8870148383
 51
24.0540459638
  0
SPLINE
  5
D8
330
1F
100
AcDbEntity
  8
0
  6
Continuous
 62
     7
370
    25
100
AcDbSpline
210
0.0
220
0.0
230
1.0
 70
     8
 71
     3
 72
     9
 73
     5
 74
     0
 42
0.00000001
 43
0.00000001
 40
0.0
 40
0.0
 40
0.0
 40
0.0
 40
0.5862283062032898
 40
1.0
 40
1.0
 40
1.0
 40
1.0
 10
575.0996577839409
 20
600.7892582595003
 30
0.0
 10
575.1467524946023
 20
601.1186870134803
 30
0.0
 10
575.22708759641
 20
601.6806331878532
 30
0.0
 10
575.285842327476
 20
602.2464226703612
 30
0.0
 10
575.3101533720676
 20
602.4805303428709
 30
0.0
  0
SPLINE
  5
D9
330
1F
100
AcDbEntity
  8
0
  6
Continuous
 62
     7
370
    25
100
AcDbSpline
210
0.0
220
0.0
230
1.0
 70
     8
 71
     3
 72
     9
 73
     5
 74
     0
 42
0.00000001
 43
0.00000001
 40
0.0
 40
0.0
 40
0.0
 40
0.0
 40
0.586228306203287
 40
1.0
 40
1.0
 40
1.0
 40
1.0
 10
553.7865058203084
 20
613.968078101182
 30
0.0
 10
553.477664795294
 20
613.8441489400086
 30
0.0
 10
552.9508375818237
 20
613.6327480918034
 30
0.0
 10
552.4314721512449
 20
613.4007364402449
 30
0.0
 10
552.2165734373348
 20
613.3047365861989
 30
0.0
  0
SPLINE
  5
DA
330
1F
100
AcDbEntity
  8
0
  6
Continuous
 62
     7
370
    25
100
AcDbSpline
210
0.0
220
0.0
230
1.0
 70
     8
 71
     3
 72
     9
 73
     5
 74
     0
 42
0.00000001
 43
0.00000001
 40
0.0
 40
0.0
 40
0.0
 40
0.0
 40
0.5863847898283611
 40
0.9999999999999999
 40
0.9999999999999999
 40
0.9999999999999999
 40
0.9999999999999999
 10
548.7177500508727
 20
609.8699880768932
 30
0.0
 10
548.5767183426229
 20
609.5677092944582
 30
0.0
 10
548.3362078268384
 20
609.0522136887084
 30
0.0
 10
548.1164168972879
 20
608.5289944265437
 30
0.0
 10
548.0255080257679
 20
608.3125829814577
 30
0.0
  0
ARC
  5
DB
330
1F
100
AcDbEntity
  8
0
  6
Continuous
 62
     7
370
    25
100
AcDbCircle
 10
560.6386842105
 20
601.2260911686
 30
0.0
 40
14.72500000000004
100
AcDbArc
 50
124.8870148383
 51
144.0540459638
  0
SPLINE
  5
DC
330
1F
100
AcDbEntity
  8
0
  6
Continuous
 62
     7
370
    25
100
AcDbSpline
210
0.0
220
0.0
230
1.0
 70
    24
 71
     3
 72
    12
 73
     8
 74
     0
 42
0.00000001
 43
0.00000001
 40
0.0
 40
0.0
 40
0.0
 40
0.0
 40
0.3013828945620926
 40
0.4108442493795682
 40
0.6247185195336458
 40
0.6986171054378634
 40
1.0
 40
1.0
 40
1.0
 40
1.0
 10
568.4688970098442
 20
613.6625634321534
 30
0.0
 10
568.9446599055315
 20
613.1779252289979
 30
0.0
 10
569.5932184444799
 20
612.5172678977799
 30
0.0
 10
570.5841358477988
 20
611.5078650330896
 30
0.0
 10
571.2154041882949
 20
610.8648204471829
 30
0.0
 10
572.1495846819818
 20
609.9132129132884
 30
0.0
 10
572.7419901545973
 20
609.3097561780312
 30
0.0
 10
573.2177420511988
 20
608.825129179148
 30
0.0
  0
ARC
  5
DD
330
1F
100
AcDbEntity
  8
0
  6
Continuous
 62
     7
370
    25
100
AcDbCircle
 10
572.8376651056
 20
608.908812314
 30
0.0
 40
0.3891803587960419
100
AcDbArc
 50
308.9564415909
 51
347.5830620402
  0
ARC
  5
DE
330
1F
100
AcDbEntity
  8
0
  6
Continuous
 62
     7
370
    25
100
AcDbCircle
 10
568.5455416798
 20
613.281004857
 30
0.0
 40
0.3891803587997926
100
AcDbArc
 50
101.3579987621
 51
139.984619211
  0
ARC
  5
DF
330
1F
100
AcDbEntity
  8
0
  6
Continuous
 62
     7
370
    25
100
AcDbCircle
 10
575.0319744398
 20
600.4060085803
 30
0.0
 40
0.389180358837184
100
AcDbArc
 50
41.357998764
 51
79.984619209
  0
LINE
  5
E0
330
1F
100
AcDbEntity
  8
0
  6
Continuous
 62
     7
370
    25
100
AcDbLine
 10
575.3240915239
 20
600.6631640991
 30
0.0
 11
575.1527697779
 21
600.0466294181
 31
0.0
  0
SPLINE
  5
E1
330
1F
100
AcDbEntity
  8
0
  6
Continuous
 62
     7
370
    25
100
AcDbSpline
210
0.0
220
0.0
230
1.0
 70
    24
 71
     3
 72
    12
 73
     8
 74
     0
 42
0.00000001
 43
0.00000001
 40
0.0
 40
0.0
 40
0.0
 40
0.0
 40
0.3013828945620992
 40
0.4108442493795574
 40
0.6247185195336494
 40
0.6986171054378604
 40
0.9999999999999999
 40
0.9999999999999999
 40
0.9999999999999999
 40
0.9999999999999999
 10
553.7834896964875
 20
614.225490501624
 30
0.0
 10
554.4410801399082
 20
614.3951941538893
 30
0.0
 10
555.3375054414136
 20
614.6265336588511
 30
0.0
 10
556.7071326665477
 20
614.9799918708322
 30
0.0
 10
557.5796597839569
 20
615.2051639973531
 30
0.0
 10
558.8708663295857
 20
615.5383842696586
 30
0.0
 10
559.6896779287109
 20
615.749694090656
 30
0.0
 10
560.3472531694042
 20
615.91939381957
 30
0.0
  0
ARC
  5
E2
330
1F
100
AcDbEntity
  8
0
  6
Continuous
 62
     7
370
    25
100
AcDbCircle
 10
560.0847429759
 20
615.6320790967
 30
0.0
 40
0.3891803587953809
100
AcDbArc
 50
8.9564415909
 51
47.5830620403
  0
ARC
  5
E3
330
1F
100
AcDbEntity
  8
0
  6
Continuous
 62
     7
370
    25
100
AcDbCircle
 10
554.1522514506
 20
614.1010874453
 30
0.0
 40
0.3891803587977635
100
AcDbArc
 50
161.357998762
 51
199.984619211
  0
SPLINE
  5
E4
330
1F
100
AcDbEntity
  8
0
  6
Continuous
 62
     7
370
    25
100
AcDbSpline
210
0.0
220
0.0
230
1.0
 70
    24
 71
     3
 72
    12
 73
     8
 74
     0
 42
0.00000001
 43
0.00000001
 40
0.0
 40
0.0
 40
0.0
 40
0.0
 40
0.3013828945621526
 40
0.4108442493795541
 40
0.6247185195336458
 40
0.6986171054378584
 40
0.9999999999999999
 40
0.9999999999999999
 40
0.9999999999999999
 40
0.9999999999999999
 10
545.9532768971696
 20
601.7890182380705
 30
0.0
 10
546.1351044449032
 20
602.4433600934916
 30
0.0
 10
546.3829712074601
 20
603.3353569296712
 30
0.0
 10
546.7616810292752
 20
604.6982180063426
 30
0.0
 10
547.0029398061886
 20
605.5664347187702
 30
0.0
 10
547.3599658581304
 20
606.8512625249703
 30
0.0
 10
547.5863719846401
 20
607.6660290812247
 30
0.0
 10
547.768195328732
 20
608.3203558090217
 30
0.0
  0
ARC
  5
E5
330
1F
100
AcDbEntity
  8
0
  6
Continuous
 62
     7
370
    25
100
AcDbCircle
 10
547.8857620809
 20
607.9493579513
 30
0.0
 40
0.3891803587948872
100
AcDbArc
 50
68.9564415909
 51
107.5830620403
  0
ARC
  5
E6
330
1F
100
AcDbEntity
  8
0
  6
Continuous
 62
     7
370
    25
100
AcDbCircle
 10
546.2453939813
 20
602.0461737569
 30
0.0
 40
0.3891803587983876
100
AcDbArc
 50
221.357998762
 51
259.984619211
  0
LINE
  5
E7
330
1F
100
AcDbEntity
  8
0
  6
Continuous
 62
     7
370
    25
100
AcDbLine
 10
560.3472531694
 20
615.9193938196
 30
0.0
 11
562.0391104348
 21
616.3560095884
 31
0.0
  0
LINE
  5
E8
330
1F
100
AcDbEntity
  8
0
  6
Continuous
 62
     7
370
    25
100
AcDbLine
 10
562.0391104348
 20
616.3560095884
 30
0.0
 11
562.164051441
 21
615.8718714418
 31
0.0
  0
LINE
  5
E9
330
1F
100
AcDbEntity
  8
0
  6
Continuous
 62
     7
370
    25
100
AcDbLine
 10
573.2177420512
 20
608.8251291791
 30
0.0
 11
574.4417910314
 21
607.5782456922
 31
0.0
  0
LINE
  5
EA
330
1F
100
AcDbEntity
  8
0
  6
Continuous
 62
     7
370
    25
100
AcDbLine
 10
574.4417910314
 20
607.5782456922
 30
0.0
 11
574.0849856006
 21
607.2279745336
 31
0.0
  0
LINE
  5
EB
330
1F
100
AcDbEntity
  8
0
  6
Continuous
 62
     7
370
    25
100
AcDbLine
 10
547.7681953287
 20
608.320355809
 30
0.0
 11
548.2360036139
 21
610.0038550648
 31
0.0
  0
LINE
  5
EC
330
1F
100
AcDbEntity
  8
0
  6
Continuous
 62
     7
370
    25
100
AcDbLine
 10
548.2360036139
 20
610.0038550648
 30
0.0
 11
548.7177500509
 21
609.8699880769
 31
0.0
  0
LINE
  5
ED
330
1F
100
AcDbEntity
  8
0
  6
Continuous
 62
     7
370
    25
100
AcDbLine
 10
575.3101533721
 20
602.4805303429
 30
0.0
 11
575.791899809
 21
602.3466633549
 31
0.0
  0
LINE
  5
EE
330
1F
100
AcDbEntity
  8
0
  6
Continuous
 62
     7
370
    25
100
AcDbLine
 10
575.791899809
 20
602.3466633549
 30
0.0
 11
575.3240915239
 21
600.6631640991
 31
0.0
  0
LINE
  5
EF
330
1F
100
AcDbEntity
  8
0
  6
Continuous
 62
     7
370
    25
100
AcDbLine
 10
545.485468612
 20
600.1055189823
 30
0.0
 11
545.9532768972
 21
601.7890182381
 31
0.0
  0
LINE
  5
F0
330
1F
100
AcDbEntity
  8
0
  6
Continuous
 62
     7
370
    25
100
AcDbLine
 10
545.967215049
 20
599.9716519943
 30
0.0
 11
545.485468612
 21
600.1055189823
 31
0.0
  0
LINE
  5
F1
330
1F
100
AcDbEntity
  8
0
  6
Continuous
 62
     7
370
    25
100
AcDbLine
 10
552.0916324311
 20
613.7888747328
 30
0.0
 11
553.7834896965
 21
614.2254905016
 31
0.0
  0
LINE
  5
F2
330
1F
100
AcDbEntity
  8
0
  6
Continuous
 62
     7
370
    25
100
AcDbLine
 10
552.2165734373
 20
613.3047365862
 30
0.0
 11
552.0916324311
 21
613.7888747328
 31
0.0
  0
LINE
  5
F3
330
1F
100
AcDbEntity
  8
0
  6
Continuous
 62
     7
370
    25
100
AcDbLine
 10
567.2448480296
 20
614.9094469191
 30
0.0
 11
568.4688970098
 21
613.6625634322
 31
0.0
  0
LINE
  5
F4
330
1F
100
AcDbEntity
  8
0
  6
Continuous
 62
     7
370
    25
100
AcDbLine
 10
567.2448480296
 20
614.9094469191
 30
0.0
 11
566.8880425989
 21
614.5591757605
 31
0.0
  0
LINE
  5
F5
330
1F
100
AcDbEntity
  8
0
  6
Continuous
 62
     7
370
    25
100
AcDbLine
 10
565.8991580645
 20
616.280240591
 30
0.0
 11
567.2448480296
 21
614.9094469191
 31
0.0
  0
LINE
  5
F6
330
1F
100
AcDbEntity
  8
0
  6
Continuous
 62
     7
370
    25
100
AcDbLine
 10
566.8880425989
 20
614.5591757605
 30
0.0
 11
565.5423526337
 21
615.9299694324
 31
0.0
  0
LINE
  5
F7
330
1F
100
AcDbEntity
  8
0
  6
Continuous
 62
     7
370
    25
100
AcDbLine
 10
565.8991580645
 20
616.280240591
 30
0.0
 11
565.5423526337
 21
615.9299694324
 31
0.0
  0
LINE
  5
F8
330
1F
100
AcDbEntity
  8
0
  6
Continuous
 62
     7
370
    25
100
AcDbLine
 10
564.0240385668
 20
616.3518763014
 30
0.0
 11
562.164051441
 21
615.8718714418
 31
0.0
  0
ARC
  5
F9
330
1F
100
AcDbEntity
  8
0
  6
Continuous
 62
     7
370
    25
100
AcDbCircle
 10
560.6386842105
 20
601.2260911686
 30
0.0
 40
15.50000000000007
100
AcDbArc
 50
71.5567201596
 51
77.3843406425
  0
ARC
  5
FA
330
1F
100
AcDbEntity
  8
0
  6
Continuous
 62
     7
370
    25
100
AcDbCircle
 10
560.6386842105
 20
601.2260911686
 30
0.0
 40
16.00000000000006
100
AcDbArc
 50
71.5567201596
 51
77.3843406425
  0
LINE
  5
FB
330
1F
100
AcDbEntity
  8
0
  6
Continuous
 62
     7
370
    25
100
AcDbLine
 10
565.7005354861
 20
616.404288086
 30
0.0
 11
565.5423526337
 21
615.9299694324
 31
0.0
  0
LINE
  5
FC
330
1F
100
AcDbEntity
  8
0
  6
Continuous
 62
     7
370
    25
100
AcDbLine
 10
564.133243546
 20
616.839804854
 30
0.0
 11
564.0240385668
 21
616.3518763014
 31
0.0
  0
ARC
  5
FD
330
1F
100
AcDbEntity
  8
0
  6
Continuous
 62
     7
370
    25
100
AcDbCircle
 10
565.5423526337
 20
615.9299694324
 30
0.0
 40
0.5000000000000636
100
AcDbArc
 50
44.470530401
 51
71.5567201596
  0
LINE
  5
FE
330
1F
100
AcDbEntity
  8
0
  6
Continuous
 62
     7
370
    25
100
AcDbLine
 10
575.9078365773
 20
606.0065708518
 30
0.0
 11
575.4306755658
 21
605.8571808617
 31
0.0
  0
LINE
  5
FF
330
1F
100
AcDbEntity
  8
0
  6
Continuous
 62
     7
370
    25
100
AcDbLine
 10
575.7874809966
 20
606.2074520203
 30
0.0
 11
575.4306755658
 21
605.8571808617
 31
0.0
  0
ARC
  5
100
330
1F
100
AcDbEntity
  8
0
  6
Continuous
 62
     7
370
    25
100
AcDbCircle
 10
575.4306755658
 20
605.8571808617
 30
0.0
 40
0.5000000000000555
100
AcDbArc
 50
17.3843406425
 51
44.470530401
  0
LINE
  5
101
330
1F
100
AcDbEntity
  8
0
  6
Continuous
 62
     7
370
    25
100
AcDbLine
 10
562.0391104348
 20
616.3560095884
 30
0.0
 11
563.8990975606
 21
616.8360144479
 31
0.0
  0
LINE
  5
102
330
1F
100
AcDbEntity
  8
0
  6
Continuous
 62
     7
370
    25
100
AcDbLine
 10
563.8990975606
 20
616.8360144479
 30
0.0
 11
564.0240385668
 21
616.3518763014
 31
0.0
  0
LINE
  5
103
330
1F
100
AcDbEntity
  8
0
  6
Continuous
 62
     7
370
    25
100
AcDbLine
 10
575.8244505327
 20
604.3313288743
 30
0.0
 11
576.3143139624
 21
604.4314978325
 31
0.0
  0
ARC
  5
104
330
1F
100
AcDbEntity
  8
0
  6
Continuous
 62
     7
370
    25
100
AcDbCircle
 10
575.8244505327
 20
604.3313288743
 30
0.0
 40
0.5000000000000185
100
AcDbArc
 50
344.470530401
 51
11.5567201596
  0
LINE
  5
105
330
1F
100
AcDbEntity
  8
0
  6
Continuous
 62
     7
370
    25
100
AcDbLine
 10
575.8244505327
 20
604.3313288743
 30
0.0
 11
576.3061969697
 21
604.1974618863
 31
0.0
  0
ARC
  5
106
330
1F
100
AcDbEntity
  8
0
  6
Continuous
 62
     7
370
    25
100
AcDbCircle
 10
560.6386842105
 20
601.2260911686
 30
0.0
 40
15.50000000000002
100
AcDbArc
 50
11.5567201596
 51
17.3843406425
  0
ARC
  5
107
330
1F
100
AcDbEntity
  8
0
  6
Continuous
 62
     7
370
    25
100
AcDbCircle
 10
560.6386842105
 20
601.2260911686
 30
0.0
 40
16.00000000000004
100
AcDbArc
 50
11.5567201596
 51
17.3843406425
  0
LINE
  5
108
330
1F
100
AcDbEntity
  8
0
  6
Continuous
 62
     7
370
    25
100
AcDbLine
 10
548.2360036139
 20
610.0038550648
 30
0.0
 11
548.7503007745
 21
611.8546535962
 31
0.0
  0
LINE
  5
109
330
1F
100
AcDbEntity
  8
0
  6
Continuous
 62
     7
370
    25
100
AcDbLine
 10
548.7503007745
 20
611.8546535962
 30
0.0
 11
549.2320472115
 21
611.7207866083
 31
0.0
  0
LINE
  5
10A
330
1F
100
AcDbEntity
  8
0
  6
Continuous
 62
     7
370
    25
100
AcDbLine
 10
549.2320472115
 20
611.7207866083
 30
0.0
 11
548.7177500509
 21
609.8699880769
 31
0.0
  0
LINE
  5
10B
330
1F
100
AcDbEntity
  8
0
  6
Continuous
 62
     7
370
    25
100
AcDbLine
 10
545.967215049
 20
599.9716519943
 30
0.0
 11
545.4529178884
 21
598.1208534629
 31
0.0
  0
LINE
  5
10C
330
1F
100
AcDbEntity
  8
0
  6
Continuous
 62
     7
370
    25
100
AcDbLine
 10
545.4529178884
 20
598.1208534629
 30
0.0
 11
544.9711714514
 21
598.2547204509
 31
0.0
  0
LINE
  5
10D
330
1F
100
AcDbEntity
  8
0
  6
Continuous
 62
     7
370
    25
100
AcDbLine
 10
544.9711714514
 20
598.2547204509
 30
0.0
 11
545.485468612
 21
600.1055189823
 31
0.0
  0
LINE
  5
10E
330
1F
100
AcDbEntity
  8
0
  6
Continuous
 62
     7
370
    25
100
AcDbLine
 10
575.4306755658
 20
605.8571808617
 30
0.0
 11
574.0849856006
 21
607.2279745336
 31
0.0
  0
LINE
  5
10F
330
1F
100
AcDbEntity
  8
0
  6
Continuous
 62
     7
370
    25
100
AcDbLine
 10
575.3101533721
 20
602.4805303429
 30
0.0
 11
575.8244505327
 21
604.3313288743
 31
0.0
  0
LINE
  5
110
330
1F
100
AcDbEntity
  8
0
  6
Continuous
 62
     7
370
    25
100
AcDbLine
 10
548.8640911793
 20
612.0593251709
 30
0.0
 11
549.2320472115
 21
611.7207866083
 31
0.0
  0
ARC
  5
111
330
1F
100
AcDbEntity
  8
0
  6
Continuous
 62
     7
370
    25
100
AcDbCircle
 10
549.2320472115
 20
611.7207866083
 30
0.0
 40
0.5000000000000844
100
AcDbArc
 50
137.3843406425
 51
164.4705304011
  0
LINE
  5
112
330
1F
100
AcDbEntity
  8
0
  6
Continuous
 62
     7
370
    25
100
AcDbLine
 10
546.4007195475
 20
595.3169067151
 30
0.0
 11
545.4898874245
 21
596.2447303169
 31
0.0
  0
LINE
  5
113
330
1F
100
AcDbEntity
  8
0
  6
Continuous
 62
     7
370
    25
100
AcDbLine
 10
545.4898874245
 20
596.2447303169
 30
0.0
 11
545.8466928552
 21
596.5950014755
 31
0.0
  0
LINE
  5
114
330
1F
100
AcDbEntity
  8
0
  6
Continuous
 62
     7
370
    25
100
AcDbLine
 10
576.3061969697
 20
604.1974618863
 30
0.0
 11
575.791899809
 21
602.3466633549
 31
0.0
  0
ARC
  5
115
330
1F
100
AcDbEntity
  8
0
  6
Continuous
 62
     7
370
    25
100
AcDbCircle
 10
545.8466928552
 20
596.5950014755
 30
0.0
 40
0.5000000000000555
100
AcDbArc
 50
197.3843406425
 51
224.4705304011
  0
LINE
  5
116
330
1F
100
AcDbEntity
  8
0
  6
Continuous
 62
     7
370
    25
100
AcDbLine
 10
545.8466928552
 20
596.5950014755
 30
0.0
 11
545.3695318438
 21
596.4456114854
 31
0.0
  0
ARC
  5
117
330
1F
100
AcDbEntity
  8
0
  6
Continuous
 62
     7
370
    25
100
AcDbCircle
 10
564.0240385668
 20
616.3518763014
 30
0.0
 40
0.4999999999999734
100
AcDbArc
 50
77.3843406425
 51
104.4705304011
  0
LINE
  5
118
330
1F
100
AcDbEntity
  8
0
  6
Continuous
 62
     7
370
    25
100
AcDbLine
 10
552.2165734373
 20
613.3047365862
 30
0.0
 11
550.3565863115
 21
612.8247317267
 31
0.0
  0
LINE
  5
119
330
1F
100
AcDbEntity
  8
0
  6
Continuous
 62
     7
370
    25
100
AcDbLine
 10
550.3565863115
 20
612.8247317267
 30
0.0
 11
550.2316453053
 21
613.3088698733
 31
0.0
  0
LINE
  5
11A
330
1F
100
AcDbEntity
  8
0
  6
Continuous
 62
     7
370
    25
100
AcDbLine
 10
550.2316453053
 20
613.3088698733
 30
0.0
 11
552.0916324311
 21
613.7888747328
 31
0.0
  0
ARC
  5
11B
330
1F
100
AcDbEntity
  8
0
  6
Continuous
 62
     7
370
    25
100
AcDbCircle
 10
550.3565863115
 20
612.8247317267
 30
0.0
 40
0.4999999999999603
100
AcDbArc
 50
104.470530401
 51
131.5567201596
  0
LINE
  5
11C
330
1F
100
AcDbEntity
  8
0
  6
Continuous
 62
     7
370
    25
100
AcDbLine
 10
550.0249057341
 20
613.1988814221
 30
0.0
 11
550.3565863115
 21
612.8247317267
 31
0.0
  0
ARC
  5
11D
330
1F
100
AcDbEntity
  8
0
  6
Continuous
 62
     7
370
    25
100
AcDbCircle
 10
560.6386842105
 20
601.2260911686
 30
0.0
 40
16.00000000000006
100
AcDbArc
 50
131.5567201596
 51
137.3843406425
  0
ARC
  5
11E
330
1F
100
AcDbEntity
  8
0
  6
Continuous
 62
     7
370
    25
100
AcDbCircle
 10
560.6386842105
 20
601.2260911686
 30
0.0
 40
15.50000000000009
100
AcDbArc
 50
131.5567201596
 51
137.3843406425
  0
ARC
  5
11F
330
1F
100
AcDbEntity
  8
0
  6
Continuous
 62
     7
370
    25
100
AcDbCircle
 10
560.6386842105
 20
601.2260911686
 30
0.0
 40
15.50000000000002
100
AcDbArc
 50
191.5567201596
 51
197.3843406425
  0
ARC
  5
120
330
1F
100
AcDbEntity
  8
0
  6
Continuous
 62
     7
370
    25
100
AcDbCircle
 10
545.4529178884
 20
598.1208534629
 30
0.0
 40
0.5000000000000139
100
AcDbArc
 50
164.470530401
 51
191.5567201596
  0
LINE
  5
121
330
1F
100
AcDbEntity
  8
0
  6
Continuous
 62
     7
370
    25
100
AcDbLine
 10
544.9630544586
 20
598.0206845047
 30
0.0
 11
545.4529178884
 21
598.1208534629
 31
0.0
  0
LINE
  5
122
330
1F
100
AcDbEntity
  8
0
  6
Continuous
 62
     7
370
    25
100
AcDbLine
 10
574.4417910314
 20
607.5782456922
 30
0.0
 11
575.7874809966
 21
606.2074520203
 31
0.0
  0
ARC
  5
123
330
1F
100
AcDbEntity
  8
0
  6
Continuous
 62
     7
370
    25
100
AcDbCircle
 10
560.6386842105
 20
601.2260911686
 30
0.0
 40
16.00000000000002
100
AcDbArc
 50
191.5567201596
 51
197.3843406425
  0
CIRCLE
  5
124
330
1F
100
AcDbEntity
  8
0
  6
Continuous
 62
     7
370
    25
100
AcDbCircle
 10
611.4386842105
 20
601.2260911686
 30
0.0
 40
5.074569253689106
  0
CIRCLE
  5
125
330
1F
100
AcDbEntity
  8
0
  6
Continuous
 62
     7
370
    25
100
AcDbCircle
 10
611.4386842105
 20
601.2260911686
 30
0.0
 40
5.328914336627577
  0
CIRCLE
  5
126
330
1F
100
AcDbEntity
  8
0
  6
Continuous
 62
     7
370
    25
100
AcDbCircle
 10
611.4386842105
 20
601.2260911686
 30
0.0
 40
5.925127771161442
  0
CIRCLE
  5
127
330
1F
100
AcDbEntity
  8
0
  6
Continuous
 62
     7
370
    25
100
AcDbCircle
 10
611.4386842105
 20
601.2260911686
 30
0.0
 40
7.150000000000091
  0
LINE
  5
128
330
1F
100
AcDbEntity
  8
0
  6
Continuous
 62
     7
370
    25
100
AcDbLine
 10
507.4786464873
 20
599.9810120768
 30
0.0
 11
507.1717055314
 21
601.1410927851
 31
0.0
  0
LINE
  5
129
330
1F
100
AcDbEntity
  8
0
  6
Continuous
 62
     7
370
    25
100
AcDbLine
 10
508.6870638917
 20
600.3007422392
 30
0.0
 11
507.4786464873
 21
599.9810120768
 31
0.0
  0
LINE
  5
12A
330
1F
100
AcDbEntity
  8
0
  6
Continuous
 62
     7
370
    25
100
AcDbLine
 10
509.923682594
 20
598.5591124895
 30
0.0
 11
509.6039524317
 21
599.7675298939
 31
0.0
  0
LINE
  5
12B
330
1F
100
AcDbEntity
  8
0
  6
Continuous
 62
     7
370
    25
100
AcDbLine
 10
511.0837633023
 20
598.8660534453
 30
0.0
 11
509.923682594
 21
598.5591124895
 31
0.0
  0
LINE
  5
12C
330
1F
100
AcDbEntity
  8
0
  6
Continuous
 62
     7
370
    25
100
AcDbLine
 10
510.76403314
 20
600.0744708497
 30
0.0
 11
511.0837633023
 21
598.8660534453
 31
0.0
  0
LINE
  5
12D
330
1F
100
AcDbEntity
  8
0
  6
Continuous
 62
     7
370
    25
100
AcDbLine
 10
512.5056628896
 20
601.3110895521
 30
0.0
 11
511.2972454852
 21
600.9913593898
 31
0.0
  0
LINE
  5
12E
330
1F
100
AcDbEntity
  8
0
  6
Continuous
 62
     7
370
    25
100
AcDbLine
 10
512.1987219338
 20
602.4711702604
 30
0.0
 11
512.5056628896
 21
601.3110895521
 31
0.0
  0
LINE
  5
12F
330
1F
100
AcDbEntity
  8
0
  6
Continuous
 62
     7
370
    25
100
AcDbLine
 10
510.9903045294
 20
602.151440098
 30
0.0
 11
512.1987219338
 21
602.4711702604
 31
0.0
  0
SPLINE
  5
130
330
1F
100
AcDbEntity
  8
0
  6
Continuous
 62
     7
370
    25
100
AcDbSpline
210
0.0
220
0.0
230
1.0
 70
     8
 71
     3
 72
    12
 73
     8
 74
     0
 42
0.00000001
 43
0.00000001
 40
0.0
 40
0.0
 40
0.0
 40
0.0
 40
0.2133534395476133
 40
0.4267919313634492
 40
0.6383539739091546
 40
0.8490950351927566
 40
1.0
 40
1.0
 40
1.0
 40
1.0
 10
510.0734159893394
 20
602.6846524432864
 30
0.0
 10
510.1026044282895
 20
602.6060084163753
 30
0.0
 10
510.1609929420128
 20
602.4486890115098
 30
0.0
 10
510.3414098227577
 20
602.2648856066444
 30
0.0
 10
510.565819418987
 20
602.1493571195859
 30
0.0
 10
510.7934784628886
 20
602.1137423398382
 30
0.0
 10
510.9323551132962
 20
602.140341145975
 30
0.0
 10
510.9903045293838
 20
602.1514400980286
 30
0.0
  0
LINE
  5
131
330
1F
100
AcDbEntity
  8
0
  6
Continuous
 62
     7
370
    25
100
AcDbLine
 10
509.753685827
 20
603.8930698477
 30
0.0
 11
510.0734159893
 21
602.6846524433
 31
0.0
  0
LINE
  5
132
330
1F
100
AcDbEntity
  8
0
  6
Continuous
 62
     7
370
    25
100
AcDbLine
 10
508.5936051188
 20
603.5861288919
 30
0.0
 11
509.753685827
 21
603.8930698477
 31
0.0
  0
LINE
  5
133
330
1F
100
AcDbEntity
  8
0
  6
Continuous
 62
     7
370
    25
100
AcDbLine
 10
508.9133352811
 20
602.3777114875
 30
0.0
 11
508.5936051188
 21
603.5861288919
 31
0.0
  0
LINE
  5
134
330
1F
100
AcDbEntity
  8
0
  6
Continuous
 62
     7
370
    25
100
AcDbLine
 10
507.1717055314
 20
601.1410927851
 30
0.0
 11
508.3801229358
 21
601.4608229474
 31
0.0
  0
CIRCLE
  5
135
330
1F
100
AcDbEntity
  8
0
  6
Continuous
 62
     7
370
    25
100
AcDbCircle
 10
509.8386842105
 20
601.2260911686
 30
0.0
 40
4.197433366238807
  0
SPLINE
  5
136
330
1F
100
AcDbEntity
  8
0
  6
Continuous
 62
     7
370
    25
100
AcDbSpline
210
0.0
220
0.0
230
1.0
 70
     8
 71
     3
 72
    12
 73
     8
 74
     0
 42
0.00000001
 43
0.00000001
 40
0.0
 40
0.0
 40
0.0
 40
0.0
 40
0.2133534395476105
 40
0.4267919313634458
 40
0.6383539739091507
 40
0.8490950351927564
 40
1.0
 40
1.0
 40
1.0
 40
1.0
 10
511.297245485213
 20
600.9913593897869
 30
0.0
 10
511.2186014583018
 20
600.9621709508368
 30
0.0
 10
511.0612820534363
 20
600.9037824371135
 30
0.0
 10
510.8774786485709
 20
600.7233655563687
 30
0.0
 10
510.7619501615126
 20
600.4989559601393
 30
0.0
 10
510.7263353817647
 20
600.2712969162377
 30
0.0
 10
510.7529341879015
 20
600.13242026583
 30
0.0
 10
510.7640331399551
 20
600.0744708497425
 30
0.0
  0
SPLINE
  5
137
330
1F
100
AcDbEntity
  8
0
  6
Continuous
 62
     7
370
    25
100
AcDbSpline
210
0.0
220
0.0
230
1.0
 70
     8
 71
     3
 72
    12
 73
     8
 74
     0
 42
0.00000001
 43
0.00000001
 40
0.0
 40
0.0
 40
0.0
 40
0.0
 40
0.2133534395476129
 40
0.4267919313634445
 40
0.6383539739091494
 40
0.8490950351927571
 40
1.0
 40
1.0
 40
1.0
 40
1.0
 10
509.6039524317133
 20
599.7675298939133
 30
0.0
 10
509.5747639927633
 20
599.8461739208245
 30
0.0
 10
509.5163754790399
 20
600.0034933256899
 30
0.0
 10
509.3359585982952
 20
600.1872967305554
 30
0.0
 10
509.1115490020658
 20
600.3028252176136
 30
0.0
 10
508.8838899581643
 20
600.3384399973615
 30
0.0
 10
508.7450133077564
 20
600.3118411912249
 30
0.0
 10
508.6870638916691
 20
600.3007422391712
 30
0.0
  0
SPLINE
  5
138
330
1F
100
AcDbEntity
  8
0
  6
Continuous
 62
     7
370
    25
100
AcDbSpline
210
0.0
220
0.0
230
1.0
 70
     8
 71
     3
 72
    12
 73
     8
 74
     0
 42
0.00000001
 43
0.00000001
 40
0.0
 40
0.0
 40
0.0
 40
0.0
 40
0.2133534395476105
 40
0.4267919313634458
 40
0.6383539739091508
 40
0.8490950351927568
 40
1.0
 40
1.0
 40
1.0
 40
1.0
 10
508.3801229358399
 20
601.460822947413
 30
0.0
 10
508.458766962751
 20
601.4900113863629
 30
0.0
 10
508.6160863676164
 20
601.5483999000863
 30
0.0
 10
508.7998897724819
 20
601.7288167808312
 30
0.0
 10
508.9154182595403
 20
601.9532263770604
 30
0.0
 10
508.951033039288
 20
602.180885420962
 30
0.0
 10
508.9244342331514
 20
602.3197620713698
 30
0.0
 10
508.9133352810977
 20
602.3777114874572
 30
0.0
  0
CIRCLE
  5
139
330
1F
100
AcDbEntity
  8
0
  6
Continuous
 62
     7
370
    25
100
AcDbCircle
 10
509.8386842105
 20
601.2260911686
 30
0.0
 40
4.50000000000006
  0
LINE
  5
13A
330
1F
100
AcDbEntity
  8
0
  6
Continuous
 62
     7
370
    25
100
AcDbLine
 10
608.7717055314
 20
601.3110895521
 30
0.0
 11
609.0786464873
 21
602.4711702604
 31
0.0
  0
LINE
  5
13B
330
1F
100
AcDbEntity
  8
0
  6
Continuous
 62
     7
370
    25
100
AcDbLine
 10
609.9801229358
 20
600.9913593898
 30
0.0
 11
608.7717055314
 21
601.3110895521
 31
0.0
  0
SPLINE
  5
13C
330
1F
100
AcDbEntity
  8
0
  6
Continuous
 62
     7
370
    25
100
AcDbSpline
210
0.0
220
0.0
230
1.0
 70
     8
 71
     3
 72
    12
 73
     8
 74
     0
 42
0.00000001
 43
0.00000001
 40
0.0
 40
0.0
 40
0.0
 40
0.0
 40
0.2133534395476124
 40
0.4267919313634466
 40
0.6383539739091505
 40
0.8490950351927581
 40
1.0
 40
1.0
 40
1.0
 40
1.0
 10
610.5133352810977
 20
600.0744708497425
 30
0.0
 10
610.5268596140523
 20
600.1572593776632
 30
0.0
 10
610.5539136713684
 20
600.3228694367319
 30
0.0
 10
610.4880045732144
 20
600.5718472134076
 30
0.0
 10
610.3500938649569
 20
600.7832405310639
 30
0.0
 10
610.1698375474551
 20
600.9267839489116
 30
0.0
 10
610.0359786015154
 20
600.9723471260204
 30
0.0
 10
609.98012293584
 20
600.9913593897869
 30
0.0
  0
LINE
  5
13D
330
1F
100
AcDbEntity
  8
0
  6
Continuous
 62
     7
370
    25
100
AcDbLine
 10
610.1936051188
 20
598.8660534453
 30
0.0
 11
610.5133352811
 21
600.0744708497
 31
0.0
  0
LINE
  5
13E
330
1F
100
AcDbEntity
  8
0
  6
Continuous
 62
     7
370
    25
100
AcDbLine
 10
611.353685827
 20
598.5591124895
 30
0.0
 11
610.1936051188
 21
598.8660534453
 31
0.0
  0
LINE
  5
13F
330
1F
100
AcDbEntity
  8
0
  6
Continuous
 62
     7
370
    25
100
AcDbLine
 10
611.6734159893
 20
599.7675298939
 30
0.0
 11
611.353685827
 21
598.5591124895
 31
0.0
  0
LINE
  5
140
330
1F
100
AcDbEntity
  8
0
  6
Continuous
 62
     7
370
    25
100
AcDbLine
 10
613.7987219338
 20
599.9810120768
 30
0.0
 11
612.5903045294
 21
600.3007422392
 31
0.0
  0
LINE
  5
141
330
1F
100
AcDbEntity
  8
0
  6
Continuous
 62
     7
370
    25
100
AcDbLine
 10
614.1056628896
 20
601.1410927851
 30
0.0
 11
613.7987219338
 21
599.9810120768
 31
0.0
  0
LINE
  5
142
330
1F
100
AcDbEntity
  8
0
  6
Continuous
 62
     7
370
    25
100
AcDbLine
 10
612.8972454852
 20
601.4608229474
 30
0.0
 11
614.1056628896
 21
601.1410927851
 31
0.0
  0
SPLINE
  5
143
330
1F
100
AcDbEntity
  8
0
  6
Continuous
 62
     7
370
    25
100
AcDbSpline
210
0.0
220
0.0
230
1.0
 70
     8
 71
     3
 72
    12
 73
     8
 74
     0
 42
0.00000001
 43
0.00000001
 40
0.0
 40
0.0
 40
0.0
 40
0.0
 40
0.2133534395476122
 40
0.4267919313634442
 40
0.6383539739091508
 40
0.8490950351927531
 40
0.9999999999999999
 40
0.9999999999999999
 40
0.9999999999999999
 40
0.9999999999999999
 10
612.3640331399552
 20
602.3777114874572
 30
0.0
 10
612.3505088070006
 20
602.2949229595366
 30
0.0
 10
612.3234547496845
 20
602.1293129004678
 30
0.0
 10
612.3893638478385
 20
601.8803351237922
 30
0.0
 10
612.527274556096
 20
601.6689418061359
 30
0.0
 10
612.7075308735978
 20
601.5253983882881
 30
0.0
 10
612.8413898195375
 20
601.4798352111793
 30
0.0
 10
612.8972454852129
 20
601.460822947413
 30
0.0
  0
LINE
  5
144
330
1F
100
AcDbEntity
  8
0
  6
Continuous
 62
     7
370
    25
100
AcDbLine
 10
612.6837633023
 20
603.5861288919
 30
0.0
 11
612.36403314
 21
602.3777114875
 31
0.0
  0
LINE
  5
145
330
1F
100
AcDbEntity
  8
0
  6
Continuous
 62
     7
370
    25
100
AcDbLine
 10
611.523682594
 20
603.8930698477
 30
0.0
 11
612.6837633023
 21
603.5861288919
 31
0.0
  0
LINE
  5
146
330
1F
100
AcDbEntity
  8
0
  6
Continuous
 62
     7
370
    25
100
AcDbLine
 10
611.2039524317
 20
602.6846524433
 30
0.0
 11
611.523682594
 21
603.8930698477
 31
0.0
  0
SPLINE
  5
147
330
1F
100
AcDbEntity
  8
0
  6
Continuous
 62
     7
370
    25
100
AcDbSpline
210
0.0
220
0.0
230
1.0
 70
     8
 71
     3
 72
    12
 73
     8
 74
     0
 42
0.00000001
 43
0.00000001
 40
0.0
 40
0.0
 40
0.0
 40
0.0
 40
0.2133534395476116
 40
0.4267919313634462
 40
0.6383539739091479
 40
0.8490950351927574
 40
1.0
 40
1.0
 40
1.0
 40
1.0
 10
610.287063891669
 20
602.1514400980286
 30
0.0
 10
610.3698524195897
 20
602.137915765074
 30
0.0
 10
610.5354624786585
 20
602.110861707758
 30
0.0
 10
610.7844402553342
 20
602.1767708059119
 30
0.0
 10
610.9958335729905
 20
602.3146815141695
 30
0.0
 10
611.1393769908382
 20
602.4949378316712
 30
0.0
 10
611.184940167947
 20
602.6287967776109
 30
0.0
 10
611.2039524317134
 20
602.6846524432864
 30
0.0
  0
LINE
  5
148
330
1F
100
AcDbEntity
  8
0
  6
Continuous
 62
     7
370
    25
100
AcDbLine
 10
609.0786464873
 20
602.4711702604
 30
0.0
 11
610.2870638917
 21
602.151440098
 31
0.0
  0
CIRCLE
  5
149
330
1F
100
AcDbEntity
  8
0
  6
Continuous
 62
     7
370
    25
100
AcDbCircle
 10
611.4386842105
 20
601.2260911686
 30
0.0
 40
4.197433366238822
  0
SPLINE
  5
14A
330
1F
100
AcDbEntity
  8
0
  6
Continuous
 62
     7
370
    25
100
AcDbSpline
210
0.0
220
0.0
230
1.0
 70
     8
 71
     3
 72
    12
 73
     8
 74
     0
 42
0.00000001
 43
0.00000001
 40
0.0
 40
0.0
 40
0.0
 40
0.0
 40
0.2133534395476112
 40
0.4267919313634456
 40
0.6383539739091519
 40
0.8490950351927574
 40
1.0
 40
1.0
 40
1.0
 40
1.0
 10
612.5903045293838
 20
600.3007422391712
 30
0.0
 10
612.5075160014632
 20
600.3142665721257
 30
0.0
 10
612.3419059423943
 20
600.3413206294418
 30
0.0
 10
612.0929281657187
 20
600.2754115312878
 30
0.0
 10
611.8815348480624
 20
600.1375008230303
 30
0.0
 10
611.7379914302147
 20
599.9572445055286
 30
0.0
 10
611.6924282531058
 20
599.8233855595887
 30
0.0
 10
611.6734159893396
 20
599.7675298939133
 30
0.0
  0
CIRCLE
  5
14B
330
1F
100
AcDbEntity
  8
0
  6
Continuous
 62
     7
370
    25
100
AcDbCircle
 10
611.4386842105
 20
601.2260911686
 30
0.0
 40
4.50000000000006
  0
CIRCLE
  5
14C
330
1F
100
AcDbEntity
  8
0
  6
Continuous
 62
     7
370
    25
100
AcDbCircle
 10
509.8386842105
 20
601.2260911686
 30
0.0
 40
5.328914336627577
  0
CIRCLE
  5
14D
330
1F
100
AcDbEntity
  8
0
  6
Continuous
 62
     7
370
    25
100
AcDbCircle
 10
509.8386842105
 20
601.2260911686
 30
0.0
 40
5.074569253689219
  0
CIRCLE
  5
14E
330
1F
100
AcDbEntity
  8
0
  6
Continuous
 62
     7
370
    25
100
AcDbCircle
 10
509.8386842105
 20
601.2260911686
 30
0.0
 40
5.925127771161442
  0
CIRCLE
  5
14F
330
1F
100
AcDbEntity
  8
0
  6
Continuous
 62
     7
370
    25
100
AcDbCircle
 10
509.8386842105
 20
601.2260911686
 30
0.0
 40
7.149999999999977
  0
SPLINE
  5
150
330
1F
100
AcDbEntity
  8
0
  6
Continuous
 62
     7
370
    25
100
AcDbSpline
210
0.0
220
0.0
230
1.0
 70
     8
 71
     3
 72
    11
 73
     7
 74
     0
 42
0.00000001
 43
0.00000001
 40
0.0
 40
0.0
 40
0.0
 40
0.0
 40
0.2200386424382248
 40
0.6637869905998172
 40
0.8890365590789576
 40
1.0
 40
1.0
 40
1.0
 40
1.0
 10
503.1610940659345
 20
595.4511941504774
 30
0.0
 10
502.9568726029331
 20
595.7162127617361
 30
0.0
 10
502.3408010400495
 20
596.5156900920408
 30
0.0
 10
501.8172516890323
 20
597.7788593625687
 30
0.0
 10
501.5656224892713
 20
598.9454291758927
 30
0.0
 10
501.5863296839935
 20
599.4567089745522
 30
0.0
 10
501.5931638680195
 20
599.6254513020245
 30
0.0
  0
SPLINE
  5
151
330
1F
100
AcDbEntity
  8
0
  6
Continuous
 62
     7
370
    25
100
AcDbSpline
210
0.0
220
0.0
230
1.0
 70
     8
 71
     3
 72
     9
 73
     5
 74
     0
 42
0.00000001
 43
0.00000001
 40
0.0
 40
0.0
 40
0.0
 40
0.0
 40
0.9209630919903058
 40
1.0
 40
1.0
 40
1.0
 40
1.0
 10
501.5210517026873
 20
595.7715174261108
 30
0.0
 10
502.0354732405601
 20
595.7146903671921
 30
0.0
 10
502.5940423540748
 20
595.6529864189962
 30
0.0
 10
503.1195588657442
 20
595.4659749581083
 30
0.0
 10
503.1610940659345
 20
595.4511941504774
 30
0.0
  0
SPLINE
  5
152
330
1F
100
AcDbEntity
  8
0
  6
Continuous
 62
     7
370
    25
100
AcDbSpline
210
0.0
220
0.0
230
1.0
 70
     8
 71
     3
 72
    10
 73
     6
 74
     0
 42
0.00000001
 43
0.00000001
 40
0.0
 40
0.0
 40
0.0
 40
0.0
 40
0.2596150688488839
 40
0.6297606444810658
 40
1.0
 40
1.0
 40
1.0
 40
1.0
 10
454.34589074875
 20
598.3630749950999
 30
0.0
 10
458.423710967473
 20
598.0633208580014
 30
0.0
 10
468.3154738008383
 20
597.3361929628373
 30
0.0
 10
484.0450464835116
 20
596.5103460929472
 30
0.0
 10
495.6952247447762
 20
596.0178144436815
 30
0.0
 10
501.5210517026873
 20
595.7715174261108
 30
0.0
  0
SPLINE
  5
153
330
1F
100
AcDbEntity
  8
0
  6
Continuous
 62
     7
370
    25
100
AcDbSpline
210
0.0
220
0.0
230
1.0
 70
     8
 71
     3
 72
    11
 73
     7
 74
     0
 42
0.00000001
 43
0.00000001
 40
0.0
 40
0.0
 40
0.0
 40
0.0
 40
0.0614641195413919
 40
0.4999988937835378
 40
0.9375097801832796
 40
1.0
 40
1.0
 40
1.0
 40
1.0
 10
454.3458907487502
 20
604.0891073421018
 30
0.0
 10
454.3342215525478
 20
603.9726503696496
 30
0.0
 10
454.2392948662786
 20
603.0252951023185
 30
0.0
 10
454.1555920390122
 20
601.2280509038702
 30
0.0
 10
454.2391619625325
 20
599.4288528796294
 30
0.0
 10
454.3340336675776
 20
598.4814780551964
 30
0.0
 10
454.34589074875
 20
598.3630749950999
 30
0.0
  0
SPLINE
  5
154
330
1F
100
AcDbEntity
  8
0
  6
Continuous
 62
     7
370
    25
100
AcDbSpline
210
0.0
220
0.0
230
1.0
 70
     8
 71
     3
 72
    11
 73
     7
 74
     0
 42
0.00000001
 43
0.00000001
 40
0.0
 40
0.0
 40
0.0
 40
0.0
 40
0.2594589277291888
 40
0.6296002946237422
 40
0.8147836738016292
 40
1.0
 40
1.0
 40
1.0
 40
1.0
 10
501.5210517026873
 20
606.6806649110889
 30
0.0
 10
497.4380510533423
 20
606.515166324668
 30
0.0
 10
487.5302847865378
 20
606.1135692022165
 30
0.0
 10
474.7151478275768
 20
605.4353163861931
 30
0.0
 10
463.0708755613172
 20
604.757895493981
 30
0.0
 10
457.2543914781846
 20
604.3120499453687
 30
0.0
 10
454.3458907487502
 20
604.0891073421018
 30
0.0
  0
SPLINE
  5
155
330
1F
100
AcDbEntity
  8
0
  6
Continuous
 62
     7
370
    25
100
AcDbSpline
210
0.0
220
0.0
230
1.0
 70
     8
 71
     3
 72
     9
 73
     5
 74
     0
 42
0.00000001
 43
0.00000001
 40
0.0
 40
0.0
 40
0.0
 40
0.0
 40
0.0790369080192175
 40
1.0
 40
1.0
 40
1.0
 40
1.0
 10
503.1610940659338
 20
607.0009881867223
 30
0.0
 10
503.1195588657384
 20
606.9862073790896
 30
0.0
 10
502.5940423540691
 20
606.7991959182018
 30
0.0
 10
502.0354732405546
 20
606.7374919700063
 30
0.0
 10
501.5210517026873
 20
606.6806649110889
 30
0.0
  0
SPLINE
  5
156
330
1F
100
AcDbEntity
  8
0
  6
Continuous
 62
     7
370
    25
100
AcDbSpline
210
0.0
220
0.0
230
1.0
 70
     8
 71
     3
 72
    11
 73
     7
 74
     0
 42
0.00000001
 43
0.00000001
 40
0.0
 40
0.0
 40
0.0
 40
0.0
 40
0.0728838064943292
 40
0.4140719411596028
 40
0.9209668754550557
 40
1.0
 40
1.0
 40
1.0
 40
1.0
 10
501.5931638680233
 20
602.8267310351605
 30
0.0
 10
501.5854487188857
 20
602.9371774693994
 30
0.0
 10
501.541616941521
 20
603.5646525097304
 30
0.0
 10
501.8861086529591
 20
604.9476445401955
 30
0.0
 10
502.5257980024456
 20
606.217576057973
 30
0.0
 10
503.0855867518783
 20
606.907876724146
 30
0.0
 10
503.1610940659338
 20
607.0009881867223
 30
0.0
  0
SPLINE
  5
157
330
1F
100
AcDbEntity
  8
0
  6
Continuous
 62
     7
370
    25
100
AcDbSpline
210
0.0
220
0.0
230
1.0
 70
     8
 71
     3
 72
    10
 73
     6
 74
     0
 42
0.00000001
 43
0.00000001
 40
0.0
 40
0.0
 40
0.0
 40
0.0
 40
0.3880207377811387
 40
0.979063776650686
 40
1.0
 40
1.0
 40
1.0
 40
1.0
 10
501.5931638680195
 20
599.6254513020245
 30
0.0
 10
501.666478398779
 20
600.0362911638803
 30
0.0
 10
501.8514674841023
 20
601.0729327337285
 30
0.0
 10
501.7557605582712
 20
602.1667020552998
 30
0.0
 10
501.5985424070234
 20
602.8048979240192
 30
0.0
 10
501.5931638680233
 20
602.8267310351605
 30
0.0
  0
ARC
  5
158
330
1F
100
AcDbEntity
  8
0
  6
Continuous
 62
     7
370
    25
100
AcDbCircle
 10
509.8386842105
 20
601.2260911686
 30
0.0
 40
8.399443654264617
100
AcDbArc
 50
190.985757993
 51
169.0142420071
  0
SPLINE
  5
159
330
1F
100
AcDbEntity
  8
0
  6
Continuous
 62
     7
370
    25
100
AcDbSpline
210
0.0
220
0.0
230
1.0
 70
     8
 71
     3
 72
     9
 73
     5
 74
     0
 42
0.00000001
 43
0.00000001
 40
0.0
 40
0.0
 40
0.0
 40
0.0
 40
0.6817923421274298
 40
1.0
 40
1.0
 40
1.0
 40
1.0
 10
503.1610940659338
 20
607.0009881867223
 30
0.0
 10
503.3033576265768
 20
607.1908985418276
 30
0.0
 10
503.5120187567372
 20
607.4694442857009
 30
0.0
 10
503.7414445906177
 20
607.702348658644
 30
0.0
 10
503.8144496478722
 20
607.7764606136664
 30
0.0
  0
ARC
  5
15A
330
1F
100
AcDbEntity
  8
0
  6
Continuous
 62
     7
370
    25
100
AcDbCircle
 10
509.8386842105
 20
601.2260911686
 30
0.0
 40
8.899367501836373
100
AcDbArc
 50
227.3959191961
 51
132.6040808039
  0
LINE
  5
15B
330
1F
100
AcDbEntity
  8
0
  6
Continuous
 62
     7
370
    25
100
AcDbLine
 10
503.8144496479
 20
594.6757217235
 30
0.0
 11
503.1610940659
 21
595.4511941505
 31
0.0
  0
SPLINE
  5
15C
330
1F
100
AcDbEntity
  8
0
  6
Continuous
 62
     7
370
    25
100
AcDbSpline
210
0.0
220
0.0
230
1.0
 70
     8
 71
     3
 72
    10
 73
     6
 74
     0
 42
0.00000001
 43
0.00000001
 40
0.0
 40
0.0
 40
0.0
 40
0.0
 40
0.3702896688583042
 40
0.7405318123903297
 40
0.9999999999999999
 40
0.9999999999999999
 40
0.9999999999999999
 40
0.9999999999999999
 10
454.3343712855718
 20
604.531966922935
 30
0.0
 10
460.1544351317901
 20
604.8521579374612
 30
0.0
 10
471.7938158402938
 20
605.4924988711668
 30
0.0
 10
487.5126842470686
 20
606.3617332030301
 30
0.0
 10
497.4098580630783
 20
606.9104742046393
 30
0.0
 10
501.4879263835425
 20
607.136579488471
 30
0.0
  0
ARC
  5
15D
330
1F
100
AcDbEntity
  8
0
  6
Continuous
 62
     7
370
    25
100
AcDbCircle
 10
494.2728371762
 20
606.3831931218
 30
0.0
 40
7.254316183307387
100
AcDbArc
 50
2.3501399448
 51
5.9611177314
  0
ARC
  5
15E
330
1F
100
AcDbEntity
  8
0
  6
Continuous
 62
     7
370
    25
100
AcDbCircle
 10
458.5948938268
 20
604.4212100989
 30
0.0
 40
4.261961918886432
100
AcDbArc
 50
178.5108705386
 51
184.4691613065
  0
SPLINE
  5
15F
330
1F
100
AcDbEntity
  8
0
  6
Continuous
 62
     7
370
    25
100
AcDbSpline
210
0.0
220
0.0
230
1.0
 70
     8
 71
     3
 72
    10
 73
     6
 74
     0
 42
0.00000001
 43
0.00000001
 40
0.0
 40
0.0
 40
0.0
 40
0.0
 40
0.3702717503651156
 40
0.7405122151371748
 40
1.0
 40
1.0
 40
1.0
 40
1.0
 10
501.4879263835426
 20
595.3156028487286
 30
0.0
 10
495.6682543218733
 20
595.6381313343966
 30
0.0
 10
484.0294019235765
 20
596.2831610541396
 30
0.0
 10
468.3102623396219
 20
597.1519755416186
 30
0.0
 10
458.4127649159232
 20
597.6960304523853
 30
0.0
 10
454.3343712855751
 20
597.9202154142646
 30
0.0
  0
ARC
  5
160
330
1F
100
AcDbEntity
  8
0
  6
Continuous
 62
     7
370
    25
100
AcDbCircle
 10
458.5948938297
 20
598.0309722382
 30
0.0
 40
4.261961921841136
100
AcDbArc
 50
175.5308386961
 51
181.4891294598
  0
ARC
  5
161
330
1F
100
AcDbEntity
  8
0
  6
Continuous
 62
     7
370
    25
100
AcDbCircle
 10
494.272837176
 20
596.0689892154
 30
0.0
 40
7.254316183549984
100
AcDbArc
 50
354.0388822687
 51
357.6498600551
  0
SPLINE
  5
162
330
1F
100
AcDbEntity
  8
0
  6
Continuous
 62
     7
370
    25
100
AcDbSpline
210
0.0
220
0.0
230
1.0
 70
     8
 71
     3
 72
    12
 73
     8
 74
     0
 42
0.00000001
 43
0.00000001
 40
0.0
 40
0.0
 40
0.0
 40
0.0
 40
0.1224290494151362
 40
0.3423522449770489
 40
0.5614228816909436
 40
0.7807229538533521
 40
1.0
 40
1.0
 40
1.0
 40
1.0
 10
452.4101633159025
 20
598.473749364756
 30
0.0
 10
452.4191673917666
 20
598.4713906803152
 30
0.0
 10
452.4443457754977
 20
598.4647950159904
 30
0.0
 10
452.6603334591423
 20
598.4477870482511
 30
0.0
 10
453.0962315888714
 20
598.4222760740968
 30
0.0
 10
453.6801572023016
 20
598.3927238915375
 30
0.0
 10
454.1239873338697
 20
598.3729576146584
 30
0.0
 10
454.34589074875
 20
598.3630749950999
 30
0.0
  0
SPLINE
  5
163
330
1F
100
AcDbEntity
  8
0
  6
Continuous
 62
     7
370
    25
100
AcDbSpline
210
0.0
220
0.0
230
1.0
 70
     8
 71
     3
 72
    11
 73
     7
 74
     0
 42
0.00000001
 43
0.00000001
 40
0.0
 40
0.0
 40
0.0
 40
0.0
 40
0.0800485240044433
 40
0.5000005853538798
 40
0.9209248322279645
 40
1.0
 40
1.0
 40
1.0
 40
1.0
 10
452.4101633159025
 20
598.473749364756
 30
0.0
 10
452.4104495603167
 20
598.6199937898567
 30
0.0
 10
452.4122375055212
 20
599.5334684486899
 30
0.0
 10
452.4134732023512
 20
601.2278780364484
 30
0.0
 10
452.4122355042564
 20
602.9205048883031
 30
0.0
 10
452.4104462822883
 20
603.8339682639469
 30
0.0
 10
452.4101633159024
 20
603.9784329724381
 30
0.0
  0
SPLINE
  5
164
330
1F
100
AcDbEntity
  8
0
  6
Continuous
 62
     7
370
    25
100
AcDbSpline
210
0.0
220
0.0
230
1.0
 70
     8
 71
     3
 72
    12
 73
     8
 74
     0
 42
0.00000001
 43
0.00000001
 40
0.0
 40
0.0
 40
0.0
 40
0.0
 40
0.1130367476169282
 40
0.3328594693547963
 40
0.5544127937944965
 40
0.7774207483513224
 40
1.0
 40
1.0
 40
1.0
 40
1.0
 10
454.3458907487502
 20
604.0891073421018
 30
0.0
 10
454.2318199087633
 20
604.0840920964004
 30
0.0
 10
453.8959153461554
 20
604.0693236953445
 30
0.0
 10
453.3618474897607
 20
604.0437314912352
 30
0.0
 10
452.8453218518735
 20
604.0158562283642
 30
0.0
 10
452.488427134719
 20
603.9924143547737
 30
0.0
 10
452.4362345172006
 20
603.983090443014
 30
0.0
 10
452.4101633159024
 20
603.9784329724381
 30
0.0
  0
SPLINE
  5
165
330
1F
100
AcDbEntity
  8
0
  6
Continuous
 62
     7
370
    25
100
AcDbSpline
210
0.0
220
0.0
230
1.0
 70
     8
 71
     3
 72
     9
 73
     5
 74
     0
 42
0.00000001
 43
0.00000001
 40
0.0
 40
0.0
 40
0.0
 40
0.0
 40
0.5000106123815449
 40
1.0
 40
1.0
 40
1.0
 40
1.0
 10
504.3140574967151
 20
594.243890034287
 30
0.0
 10
503.8843361298942
 20
594.5317305723803
 30
0.0
 10
503.0249116373337
 20
595.1073994301316
 30
0.0
 10
502.0002475520554
 20
595.2462026912184
 30
0.0
 10
501.4879263835426
 20
595.3156028487286
 30
0.0
  0
SPLINE
  5
166
330
1F
100
AcDbEntity
  8
0
  6
Continuous
 62
     7
370
    25
100
AcDbSpline
210
0.0
220
0.0
230
1.0
 70
     8
 71
     3
 72
     9
 73
     5
 74
     0
 42
0.00000001
 43
0.00000001
 40
0.0
 40
0.0
 40
0.0
 40
0.0
 40
0.9838702326459322
 40
1.0
 40
1.0
 40
1.0
 40
1.0
 10
503.8144496478722
 20
594.6757217235332
 30
0.0
 10
503.9757904628065
 20
594.5308893105142
 30
0.0
 10
504.1397763316546
 20
594.3836824856575
 30
0.0
 10
504.3112910049372
 20
594.2461090616109
 30
0.0
 10
504.3140574967151
 20
594.243890034287
 30
0.0
  0
SPLINE
  5
167
330
1F
100
AcDbEntity
  8
0
  6
Continuous
 62
     7
370
    25
100
AcDbSpline
210
0.0
220
0.0
230
1.0
 70
     8
 71
     3
 72
     9
 73
     5
 74
     0
 42
0.00000001
 43
0.00000001
 40
0.0
 40
0.0
 40
0.0
 40
0.0
 40
0.5055561057107315
 40
1.0
 40
1.0
 40
1.0
 40
1.0
 10
501.4879263835425
 20
607.136579488471
 30
0.0
 10
502.0059859008755
 20
607.2072355227411
 30
0.0
 10
503.0307178969509
 20
607.3469945593185
 30
0.0
 10
503.8894584657124
 20
607.9233278341143
 30
0.0
 10
504.3140574967151
 20
608.2082923029127
 30
0.0
  0
SPLINE
  5
168
330
1F
100
AcDbEntity
  8
0
  6
Continuous
 62
     7
370
    25
100
AcDbSpline
210
0.0
220
0.0
230
1.0
 70
     8
 71
     3
 72
     9
 73
     5
 74
     0
 42
0.00000001
 43
0.00000001
 40
0.0
 40
0.0
 40
0.0
 40
0.0
 40
0.0161297673533178
 40
1.0
 40
1.0
 40
1.0
 40
1.0
 10
504.3140574967151
 20
608.2082923029127
 30
0.0
 10
504.3112910049373
 20
608.2060732755889
 30
0.0
 10
504.1397763316506
 20
608.0684998515393
 30
0.0
 10
503.9757904628045
 20
607.921293026684
 30
0.0
 10
503.8144496478722
 20
607.7764606136664
 30
0.0
  0
SPLINE
  5
169
330
1F
100
AcDbEntity
  8
0
  6
Continuous
 62
     7
370
    25
100
AcDbSpline
210
0.0
220
0.0
230
1.0
 70
     8
 71
     3
 72
    12
 73
     8
 74
     0
 42
0.00000001
 43
0.00000001
 40
0.0
 40
0.0
 40
0.0
 40
0.0
 40
0.2230315344150378
 40
0.4461337558340359
 40
0.6675099896777023
 40
0.8870667292265011
 40
1.0
 40
1.0
 40
1.0
 40
1.0
 10
452.882517580987
 20
604.4775960434866
 30
0.0
 10
452.9020513671129
 20
604.4757057961918
 30
0.0
 10
452.9411251303495
 20
604.4719247025124
 30
0.0
 10
453.2087143124056
 20
604.4788675387831
 30
0.0
 10
453.5962433962306
 20
604.494456361273
 30
0.0
 10
453.9969655086937
 20
604.5137936413372
 30
0.0
 10
454.2488249309516
 20
604.5273592425136
 30
0.0
 10
454.3343712855718
 20
604.531966922935
 30
0.0
  0
ARC
  5
16A
330
1F
100
AcDbEntity
  8
0
  6
Continuous
 62
     7
370
    25
100
AcDbCircle
 10
452.9102632035
 20
603.9782663871
 30
0.0
 40
0.5000999153473044
100
AcDbArc
 50
93.1804119247
 51
179.9809145383
  0
SPLINE
  5
16B
330
1F
100
AcDbEntity
  8
0
  6
Continuous
 62
     7
370
    25
100
AcDbSpline
210
0.0
220
0.0
230
1.0
 70
     8
 71
     3
 72
    12
 73
     8
 74
     0
 42
0.00000001
 43
0.00000001
 40
0.0
 40
0.0
 40
0.0
 40
0.0
 40
0.2190444340109337
 40
0.4380981679380299
 40
0.6571027493691836
 40
0.8772791087290026
 40
1.0
 40
1.0
 40
1.0
 40
1.0
 10
454.3343712855751
 20
597.9202154142646
 30
0.0
 10
454.1679535448043
 20
597.9290442272143
 30
0.0
 10
453.8351109977052
 20
597.9467022279565
 30
0.0
 10
453.3969525550619
 20
597.9662207173656
 30
0.0
 10
453.0699867283026
 20
597.9775265009979
 30
0.0
 10
452.9081428512883
 20
597.9793503690746
 30
0.0
 10
452.8892715188762
 20
597.9758419397498
 30
0.0
 10
452.882517580987
 20
597.9745862937132
 30
0.0
  0
ARC
  5
16C
330
1F
100
AcDbEntity
  8
0
  6
Continuous
 62
     7
370
    25
100
AcDbCircle
 10
452.9102632035
 20
598.4739159501
 30
0.0
 40
0.5000999153470679
100
AcDbArc
 50
180.0190854624
 51
266.8195880753
  0
LINE
  5
16D
330
1F
100
AcDbEntity
  8
0
  6
Continuous
 62
     7
370
    25
100
AcDbLine
 10
501.4879263835
 20
607.1365794885
 30
0.0
 11
501.4609402018
 21
607.2078697638
 31
0.0
  0
LINE
  5
16E
330
1F
100
AcDbEntity
  8
0
  6
Continuous
 62
     7
370
    25
100
AcDbLine
 10
452.8778272203
 20
604.4820344966
 30
0.0
 11
452.882517581
 21
604.4775960435
 31
0.0
  0
ELLIPSE
  5
16F
330
1F
100
AcDbEntity
  8
0
  6
Continuous
 62
     7
370
    25
100
AcDbEllipse
 10
454.3775987631
 20
604.5653269466
 30
0.0
 11
1.499999304622804
 21
0.0828726334386829
 31
0.0
210
0.0
220
0.0
230
1.0
 40
0.0174284859
 41
2.255125316699135
 42
3.15808304961534
  0
LINE
  5
170
330
1F
100
AcDbEntity
  8
0
  6
Continuous
 62
     7
370
    25
100
AcDbLine
 10
456.8932134321
 20
604.7740865346
 30
0.0
 11
453.4282502226
 21
604.5331952556
 31
0.0
  0
LINE
  5
171
330
1F
100
AcDbEntity
  8
0
  6
Continuous
 62
     7
370
    25
100
AcDbLine
 10
456.8932134321
 20
604.7739881434
 30
0.0
 11
456.8932134321
 21
604.7740865346
 31
0.0
  0
ELLIPSE
  5
172
330
1F
100
AcDbEntity
  8
0
  6
Continuous
 62
     7
370
    25
100
AcDbEllipse
 10
466.342699853
 20
605.1036341948
 30
0.0
 11
14.49999327802044
 21
0.8011021232406392
 31
0.0
210
0.0
220
0.0
230
1.0
 40
0.0174284859
 41
1.543516838852407
 42
2.279642175408196
  0
ELLIPSE
  5
173
330
1F
100
AcDbEntity
  8
0
  6
Continuous
 62
     7
370
    25
100
AcDbEllipse
 10
467.6637097686
 20
606.0539177441
 30
0.0
 11
35.70262504606012
 21
1.972514619921867
 31
0.0
210
0.0
220
0.0
230
1.0
 40
0.0174284859
 41
4.685109492442215
 42
5.167309992307984
  0
ELLIPSE
  5
174
330
1F
100
AcDbEntity
  8
0
  6
Continuous
 62
     7
370
    25
100
AcDbEllipse
 10
486.6839372406
 20
606.4263138038
 30
0.0
 11
7.499996523113964
 21
0.4143631671934145
 31
0.0
210
0.0
220
0.0
230
1.0
 40
0.0174284859
 41
1.834826681007974
 42
2.025717338718144
  0
LINE
  5
175
330
1F
100
AcDbEntity
  8
0
  6
Continuous
 62
     7
370
    25
100
AcDbLine
 10
484.7392848396
 20
606.2939693526
 30
0.0
 11
484.7196665822
 21
606.4443598972
 31
0.0
  0
SPLINE
  5
176
330
1F
100
AcDbEntity
  8
0
  6
Continuous
 62
     7
370
    25
100
AcDbSpline
210
0.0
220
0.0
230
1.0
 70
     8
 71
     3
 72
    10
 73
     6
 74
     0
 42
0.00000001
 43
0.00000001
 40
0.0
 40
0.0
 40
0.0
 40
0.0
 40
0.0186368637457406
 40
0.3939469944633167
 40
1.0
 40
1.0
 40
1.0
 40
1.0
 10
484.9230561252727
 20
606.294455719875
 30
0.0
 10
484.920599918024
 20
606.2943679693957
 30
0.0
 10
484.8686804815468
 20
606.2925130952028
 30
0.0
 10
484.7646816330692
 20
606.2898331138246
 30
0.0
 10
484.7489809757199
 20
606.2923901952222
 30
0.0
 10
484.7392848395762
 20
606.29396935263
 30
0.0
  0
LINE
  5
177
330
1F
100
AcDbEntity
  8
0
  6
Continuous
 62
     7
370
    25
100
AcDbLine
 10
501.4609402018
 20
607.2078697638
 30
0.0
 11
484.9230561253
 21
606.2944557199
 31
0.0
  0
LINE
  5
178
330
1F
100
AcDbEntity
  8
0
  6
Continuous
 62
     7
370
    25
100
AcDbLine
 10
484.9209903933
 20
596.1415229685
 30
0.0
 11
501.4548988168
 21
595.2283285063
 31
0.0
  0
SPLINE
  5
179
330
1F
100
AcDbEntity
  8
0
  6
Continuous
 62
     7
370
    25
100
AcDbSpline
210
0.0
220
0.0
230
1.0
 70
     8
 71
     3
 72
    11
 73
     7
 74
     0
 42
0.00000001
 43
0.00000001
 40
0.0
 40
0.0
 40
0.0
 40
0.0
 40
0.417746929449536
 40
0.8392770662410924
 40
0.9817832068819766
 40
1.0
 40
1.0
 40
1.0
 40
1.0
 10
484.7372849527044
 20
596.1428724137832
 30
0.0
 10
484.7419219807363
 20
596.1439556049668
 30
0.0
 10
484.7512380307377
 20
596.1461317969498
 30
0.0
 10
484.8267344964877
 20
596.1449296200585
 30
0.0
 10
484.8969946970598
 20
596.1424590927185
 30
0.0
 10
484.9185475337174
 20
596.1416182697616
 30
0.0
 10
484.9209903933474
 20
596.141522968503
 30
0.0
  0
LINE
  5
17A
330
1F
100
AcDbEntity
  8
0
  6
Continuous
 62
     7
370
    25
100
AcDbLine
 10
484.7196665822
 20
596.00782244
 30
0.0
 11
484.7372849527
 21
596.1428724138
 31
0.0
  0
ELLIPSE
  5
17B
330
1F
100
AcDbEntity
  8
0
  6
Continuous
 62
     7
370
    25
100
AcDbEllipse
 10
486.6839372406
 20
596.0258685334
 30
0.0
 11
7.499996523113964
 21
-0.4143631671934145
 31
0.0
210
0.0
220
0.0
230
1.0
 40
0.0174284859
 41
4.257467968461274
 42
4.44835862617146
  0
ELLIPSE
  5
17C
330
1F
100
AcDbEntity
  8
0
  6
Continuous
 62
     7
370
    25
100
AcDbEllipse
 10
467.6637097686
 20
596.3982645931
 30
0.0
 11
35.70262504606023
 21
-1.972514619921867
 31
0.0
210
0.0
220
0.0
230
1.0
 40
0.0174284859
 41
1.115875314871827
 42
1.598075814737367
  0
ELLIPSE
  5
17D
330
1F
100
AcDbEntity
  8
0
  6
Continuous
 62
     7
370
    25
100
AcDbEllipse
 10
466.342699853
 20
597.3485481424
 30
0.0
 11
14.49999327802044
 21
-0.8011021232407529
 31
0.0
210
0.0
220
0.0
230
1.0
 40
0.0174284859
 41
4.003543131772437
 42
4.739668468327157
  0
LINE
  5
17E
330
1F
100
AcDbEntity
  8
0
  6
Continuous
 62
     7
370
    25
100
AcDbLine
 10
456.8932134321
 20
597.6780958026
 30
0.0
 11
456.8932134321
 21
597.6781941938
 31
0.0
  0
LINE
  5
17F
330
1F
100
AcDbEntity
  8
0
  6
Continuous
 62
     7
370
    25
100
AcDbLine
 10
453.4282502226
 20
597.9189870816
 30
0.0
 11
456.8932134321
 21
597.6780958026
 31
0.0
  0
ELLIPSE
  5
180
330
1F
100
AcDbEntity
  8
0
  6
Continuous
 62
     7
370
    25
100
AcDbEllipse
 10
454.3775987631
 20
597.8868553906
 30
0.0
 11
1.499999304622804
 21
-0.0828726334386829
 31
0.0
210
0.0
220
0.0
230
1.0
 40
0.0174284859
 41
3.636655894267889
 42
4.02805999048357
  0
LINE
  5
181
330
1F
100
AcDbEntity
  8
0
  6
Continuous
 62
     7
370
    25
100
AcDbLine
 10
452.882517581
 20
597.9745862937
 30
0.0
 11
452.8778272203
 21
597.9701478406
 31
0.0
  0
LINE
  5
182
330
1F
100
AcDbEntity
  8
0
  6
Continuous
 62
     7
370
    25
100
AcDbLine
 10
501.4548988168
 20
595.2283285063
 30
0.0
 11
501.4879263835
 21
595.3156028487
 31
0.0
  0
SPLINE
  5
183
330
1F
100
AcDbEntity
  8
0
  6
Continuous
 62
     7
370
    25
100
AcDbSpline
210
0.0
220
0.0
230
1.0
 70
     8
 71
     3
 72
     9
 73
     5
 74
     0
 42
0.00000001
 43
0.00000001
 40
0.0
 40
0.0
 40
0.0
 40
0.0
 40
0.5001021276704715
 40
0.9999999999999999
 40
0.9999999999999999
 40
0.9999999999999999
 40
0.9999999999999999
 10
504.2808386306597
 20
608.273983749873
 30
0.0
 10
503.8518908549523
 20
607.9874581157844
 30
0.0
 10
502.9941704975018
 20
607.4145238724866
 30
0.0
 10
501.9719473688866
 20
607.2767450860325
 30
0.0
 10
501.460940201846
 20
607.2078697638319
 30
0.0
  0
LINE
  5
184
330
1F
100
AcDbEntity
  8
0
  6
Continuous
 62
     7
370
    25
100
AcDbLine
 10
504.2808386307
 20
608.2739837499
 30
0.0
 11
504.3140574967
 21
608.2082923029
 31
0.0
  0
SPLINE
  5
185
330
1F
100
AcDbEntity
  8
0
  6
Continuous
 62
     7
370
    25
100
AcDbSpline
210
0.0
220
0.0
230
1.0
 70
     8
 71
     3
 72
     9
 73
     5
 74
     0
 42
0.00000001
 43
0.00000001
 40
0.0
 40
0.0
 40
0.0
 40
0.0
 40
0.4007227371565292
 40
1.0
 40
1.0
 40
1.0
 40
1.0
 10
501.4548988167943
 20
595.2283285062884
 30
0.0
 10
501.8635849402036
 20
595.1799212442228
 30
0.0
 10
502.8834574992433
 20
595.059121355479
 30
0.0
 10
503.7525335430693
 20
594.4990140821253
 30
0.0
 10
504.2733510558161
 20
594.1633545284512
 30
0.0
  0
LINE
  5
186
330
1F
100
AcDbEntity
  8
0
  6
Continuous
 62
     7
370
    25
100
AcDbLine
 10
504.3140574967
 20
594.2438900343
 30
0.0
 11
504.2733510558
 21
594.1633545285
 31
0.0
  0
ARC
  5
187
330
1F
100
AcDbEntity
  8
0
  6
Continuous
 62
     7
370
    25
100
AcDbCircle
 10
509.8386842105
 20
601.2260911686
 30
0.0
 40
8.975658044222143
100
AcDbArc
 50
65.1648853947
 51
128.2586979829
  0
LWPOLYLINE
  5
188
330
1F
100
AcDbEntity
  8
0
  6
Continuous
 62
     7
370
    25
100
AcDbPolyline
 90
        3
 70
   128
 43
0.0
 10
513.7739976348
 20
609.4767508919
 10
513.6694160706
 20
609.4104984806
 10
513.6085355279
 20
609.3716825143
  0
ARC
  5
189
330
1F
100
AcDbEntity
  8
0
  6
Continuous
 62
     7
370
    25
100
AcDbCircle
 10
509.8386842105
 20
601.2260911686
 30
0.0
 40
9.14112015109221
100
AcDbArc
 50
295.4997164176
 51
64.5002794289
  0
LWPOLYLINE
  5
18A
330
1F
100
AcDbEntity
  8
0
  6
Continuous
 62
     7
370
    25
100
AcDbPolyline
 90
        3
 70
   128
 43
0.0
 10
513.6248284383
 20
593.0700937521
 10
513.6694160706
 20
593.0416838566
 10
513.7739976351
 20
592.9754314451
  0
ARC
  5
18B
330
1F
100
AcDbEntity
  8
0
  6
Continuous
 62
     7
370
    25
100
AcDbCircle
 10
509.8386842105
 20
601.2260911686
 30
0.0
 40
8.991950954660663
100
AcDbArc
 50
231.762407147
 51
294.9014811666
  0
LINE
  5
18C
330
1F
100
AcDbEntity
  8
0
  6
Continuous
 62
     7
370
    25
100
AcDbLine
 10
452.4054729552
 20
598.4693109117
 30
0.0
 11
452.4101633159
 21
598.4737493648
 31
0.0
  0
LINE
  5
18D
330
1F
100
AcDbEntity
  8
0
  6
Continuous
 62
     7
370
    25
100
AcDbLine
 10
452.4054729552
 20
603.9828714255
 30
0.0
 11
452.4054729552
 21
598.4693109117
 31
0.0
  0
LINE
  5
18E
330
1F
100
AcDbEntity
  8
0
  6
Continuous
 62
     7
370
    25
100
AcDbLine
 10
452.4101633159
 20
603.9784329724
 30
0.0
 11
452.4054729552
 21
603.9828714255
 31
0.0
  0
ARC
  5
18F
330
1F
100
AcDbEntity
  8
0
  6
Continuous
 62
     7
370
    25
100
AcDbCircle
 10
452.9055728428
 20
598.469477497
 30
0.0
 40
0.5000999153469704
100
AcDbArc
 50
180.0190854617
 51
266.8195880753
  0
ARC
  5
190
330
1F
100
AcDbEntity
  8
0
  6
Continuous
 62
     7
370
    25
100
AcDbCircle
 10
452.9055728428
 20
603.9827048402
 30
0.0
 40
0.5000999153469703
100
AcDbArc
 50
93.1804119247
 51
179.9809145383
  0
LINE
  5
191
330
1F
100
AcDbEntity
  8
0
  6
Continuous
 62
     7
370
    25
100
AcDbLine
 10
453.4282502226
 20
604.5331952556
 30
0.0
 11
453.4211424919
 21
604.5328282189
 31
0.0
  0
LINE
  5
192
330
1F
100
AcDbEntity
  8
0
  6
Continuous
 62
     7
370
    25
100
AcDbLine
 10
453.4282502226
 20
597.9189870816
 30
0.0
 11
453.4211424919
 21
597.9193541183
 31
0.0
  0
SPLINE
  5
193
330
1F
100
AcDbEntity
  8
0
  6
Continuous
 62
     7
370
    25
100
AcDbSpline
210
0.0
220
0.0
230
1.0
 70
     8
 71
     3
 72
    12
 73
     8
 74
     0
 42
0.00000001
 43
0.00000001
 40
0.0
 40
0.0
 40
0.0
 40
0.0
 40
0.1662426524176543
 40
0.3368059756191302
 40
0.6054181071254584
 40
0.8801435087136191
 40
1.0
 40
1.0
 40
1.0
 40
1.0
 10
503.7166249632159
 20
612.9027515502709
 30
0.0
 10
504.354306483752
 20
612.7472663747878
 30
0.0
 10
505.6462429605526
 20
612.4322549414326
 30
0.0
 10
507.830429342902
 20
611.769289836434
 30
0.0
 10
510.1924036864618
 20
610.9170949196287
 30
0.0
 10
512.1579412483543
 20
610.0744662410166
 30
0.0
 10
513.27171623315
 20
609.5366081483214
 30
0.0
 10
513.6100317113074
 20
609.3732306974941
 30
0.0
  0
LINE
  5
194
330
1F
100
AcDbEntity
  8
0
  6
Continuous
 62
     7
370
    25
100
AcDbLine
 10
503.7166249632
 20
612.9027515503
 30
0.0
 11
503.7324830402
 21
612.9722250818
 31
0.0
  0
ARC
  5
195
330
1F
100
AcDbEntity
  8
0
  6
Continuous
 62
     7
370
    25
100
AcDbCircle
 10
493.0107048037
 20
566.0005902696
 30
0.0
 40
48.17977797259062
100
AcDbArc
 50
64.4718479123
 51
77.1419190681
  0
LWPOLYLINE
  5
196
330
1F
100
AcDbEntity
  8
0
  6
Continuous
 62
     7
370
    25
100
AcDbPolyline
 90
        3
 70
   128
 43
0.0
 10
513.6100317113
 20
609.3732306975
 10
513.6694195617
 20
609.4107544011
 10
513.7739976345
 20
609.476752431
  0
SPLINE
  5
197
330
1F
100
AcDbEntity
  8
0
  6
Continuous
 62
     7
370
    25
100
AcDbSpline
210
0.0
220
0.0
230
1.0
 70
     8
 71
     3
 72
    12
 73
     8
 74
     0
 42
0.00000001
 43
0.00000001
 40
0.0
 40
0.0
 40
0.0
 40
0.0
 40
0.1345419440893856
 40
0.4125227334043401
 40
0.6966514762099312
 40
0.8475579366075728
 40
1.0
 40
1.0
 40
1.0
 40
1.0
 10
513.6093141343504
 20
609.3724891314203
 30
0.0
 10
513.1799567109206
 20
609.5633145780126
 30
0.0
 10
511.8634921754959
 20
610.1484096973389
 30
0.0
 10
509.4898642314735
 20
610.7733583461298
 30
0.0
 10
506.9649177993998
 20
611.0747139816225
 30
0.0
 10
504.8199800806228
 20
611.180300651227
 30
0.0
 10
503.683632373937
 20
611.1859336189236
 30
0.0
 10
503.1125823257149
 20
611.188764360303
 30
0.0
  0
ARC
  5
198
330
1F
100
AcDbEntity
  8
0
  6
Continuous
 62
     7
370
    25
100
AcDbCircle
 10
507.6051133187
 20
610.5689403157
 30
0.0
 40
4.535087272517628
100
AcDbArc
 50
149.0284626407
 51
172.1446266983
  0
LINE
  5
199
330
1F
100
AcDbEntity
  8
0
  6
Continuous
 62
     7
370
    25
100
AcDbLine
 10
513.6100317113
 20
609.3732306975
 30
0.0
 11
513.6093141344
 21
609.3724891314
 31
0.0
  0
LINE
  5
19A
330
1F
100
AcDbEntity
  8
0
  6
Continuous
 62
     7
370
    25
100
AcDbLine
 10
504.2808386307
 20
608.2739837499
 30
0.0
 11
502.0829667105
 21
611.0611006242
 31
0.0
  0
ARC
  5
19B
330
1F
100
AcDbEntity
  8
0
  6
Continuous
 62
     7
370
    25
100
AcDbCircle
 10
509.8386842105
 20
601.2260911686
 30
0.0
 40
12.52511736202734
100
AcDbArc
 50
127.8583068702
 51
128.2586979829
  0
LINE
  5
19C
330
1F
100
AcDbEntity
  8
0
  6
Continuous
 62
     7
370
    25
100
AcDbLine
 10
503.1125823257
 20
611.1887643603
 30
0.0
 11
502.1518839768
 21
611.1150581065
 31
0.0
  0
LINE
  5
19D
330
1F
100
AcDbEntity
  8
0
  6
Continuous
 62
     7
370
    25
100
AcDbLine
 10
513.6085355279
 20
609.3716825143
 30
0.0
 11
513.6093141344
 21
609.3724891314
 31
0.0
  0
ARC
  5
19E
330
1F
100
AcDbEntity
  8
0
  6
Continuous
 62
     7
370
    25
100
AcDbCircle
 10
491.9210124968
 20
606.5026905567
 30
0.0
 40
6.83413872822324
100
AcDbArc
 50
31.8771071303
 51
46.9488007428
  0
SPLINE
  5
19F
330
1F
100
AcDbEntity
  8
0
  6
Continuous
 62
     7
370
    25
100
AcDbSpline
210
0.0
220
0.0
230
1.0
 70
     8
 71
     3
 72
    17
 73
    13
 74
     0
 42
0.00000001
 43
0.00000001
 40
0.0
 40
0.0
 40
0.0
 40
0.0
 40
0.2859834379244693
 40
0.521592264412223
 40
0.7592399016809378
 40
0.8521492405060498
 40
0.926670863383602
 40
0.960505839319536
 40
0.9835417153308589
 40
0.9930790992390832
 40
0.9972256067114875
 40
1.0
 40
1.0
 40
1.0
 40
1.0
 10
497.7244452879669
 20
610.111792937585
 30
0.0
 10
496.4956671042195
 20
609.5799248135647
 30
0.0
 10
494.2545541223888
 20
608.6098745855171
 30
0.0
 10
490.915605435487
 20
607.5676439147323
 30
0.0
 10
488.4129500687802
 20
606.9498253538057
 30
0.0
 10
486.642643784744
 20
606.5958500445875
 30
0.0
 10
485.7775229494067
 20
606.4411490099747
 30
0.0
 10
485.2519355201312
 20
606.352649019143
 30
0.0
 10
485.018273406474
 20
606.3135372563204
 30
0.0
 10
484.9406232469847
 20
606.2992174895585
 30
0.0
 10
484.9245415927845
 20
606.295483737241
 30
0.0
 10
484.9234812048086
 20
606.294749896046
 30
0.0
 10
484.9230561252727
 20
606.294455719875
 30
0.0
  0
SPLINE
  5
1A0
330
1F
100
AcDbEntity
  8
0
  6
Continuous
 62
     7
370
    25
100
AcDbSpline
210
0.0
220
0.0
230
1.0
 70
     8
 71
     3
 72
    10
 73
     6
 74
     0
 42
0.00000001
 43
0.00000001
 40
0.0
 40
0.0
 40
0.0
 40
0.0
 40
0.5975855365574454
 40
0.9790563563181981
 40
1.0
 40
1.0
 40
1.0
 40
1.0
 10
484.813030805585
 20
606.3035826172144
 30
0.0
 10
484.8105116662317
 20
606.2998433194881
 30
0.0
 10
484.8063844254511
 20
606.2937170279645
 30
0.0
 10
484.8807555520063
 20
606.293340469108
 30
0.0
 10
484.9209635041108
 20
606.2944005481083
 30
0.0
 10
484.9230561252727
 20
606.294455719875
 30
0.0
  0
SPLINE
  5
1A1
330
1F
100
AcDbEntity
  8
0
  6
Continuous
 62
     7
370
    25
100
AcDbSpline
210
0.0
220
0.0
230
1.0
 70
     8
 71
     3
 72
    15
 73
    11
 74
     0
 42
0.00000001
 43
0.00000001
 40
0.0
 40
0.0
 40
0.0
 40
0.0
 40
0.0128981401598393
 40
0.0519443541565596
 40
0.131832795201433
 40
0.2279057212361197
 40
0.4677439605522729
 40
0.7076088995729001
 40
0.8538517081976984
 40
1.0
 40
1.0
 40
1.0
 40
1.0
 10
484.813030805585
 20
606.3035826172144
 30
0.0
 10
484.8464994091093
 20
606.3114275145019
 30
0.0
 10
484.9812866709196
 20
606.3430210712456
 30
0.0
 10
485.4205570508864
 20
606.4454118145546
 30
0.0
 10
486.232012670871
 20
606.6477333100432
 30
0.0
 10
487.8852790026599
 20
607.1153822092734
 30
0.0
 10
490.2316381334242
 20
607.9469689873085
 30
0.0
 10
492.7752339752512
 20
609.1405595823835
 30
0.0
 10
494.8940113948925
 20
610.3474816270739
 30
0.0
 10
496.0223576364727
 20
611.1137072935761
 30
0.0
 10
496.5863483856016
 20
611.4966962837703
 30
0.0
  0
LINE
  5
1A2
330
1F
100
AcDbEntity
  8
0
  6
Continuous
 62
     7
370
    25
100
AcDbLine
 10
499.1651136501
 20
610.6359366196
 30
0.0
 11
501.2651961661
 21
610.7519275683
 31
0.0
  0
LINE
  5
1A3
330
1F
100
AcDbEntity
  8
0
  6
Continuous
 62
     7
370
    25
100
AcDbLine
 10
501.4609402018
 20
607.2078697638
 30
0.0
 11
501.2651961661
 21
610.7519275683
 31
0.0
  0
LINE
  5
1A4
330
1F
100
AcDbEntity
  8
0
  6
Continuous
 62
     7
370
    25
100
AcDbLine
 10
499.1651136501
 20
610.6359366196
 30
0.0
 11
497.724445288
 21
610.1117929376
 31
0.0
  0
LWPOLYLINE
  5
1A5
330
1F
100
AcDbEntity
  8
0
  6
Continuous
 62
     7
370
    25
100
AcDbPolyline
 90
        4
 70
   128
 43
0.0
 10
484.7935039915
 20
606.4546781935
 10
484.7957486272
 20
606.4373200466
 10
484.8047236611
 20
606.3678873004
 10
484.8130308056
 20
606.3035826172
  0
LINE
  5
1A6
330
1F
100
AcDbEntity
  8
0
  6
Continuous
 62
     7
370
    25
100
AcDbLine
 10
486.5816282753
 20
606.8842056968
 30
0.0
 11
484.7935039915
 21
606.4546781935
 31
0.0
  0
ARC
  5
1A7
330
1F
100
AcDbEntity
  8
0
  6
Continuous
 62
     7
370
    25
100
AcDbCircle
 10
478.3960698767
 20
637.3098992906
 30
0.0
 40
31.50755777528328
100
AcDbArc
 50
285.0579972479
 51
305.1719294169
  0
LINE
  5
1A8
330
1F
100
AcDbEntity
  8
0
  6
Continuous
 62
     7
370
    25
100
AcDbLine
 10
496.5863483856
 20
611.4966962838
 30
0.0
 11
496.5454284994
 21
611.5547642968
 31
0.0
  0
SPLINE
  5
1A9
330
1F
100
AcDbEntity
  8
0
  6
Continuous
 62
     7
370
    25
100
AcDbSpline
210
0.0
220
0.0
230
1.0
 70
     8
 71
     3
 72
     9
 73
     5
 74
     0
 42
0.00000001
 43
0.00000001
 40
0.0
 40
0.0
 40
0.0
 40
0.0
 40
0.4998978730609696
 40
0.9999999999999999
 40
0.9999999999999999
 40
0.9999999999999999
 40
0.9999999999999999
 10
501.2651961661406
 20
610.7519275682757
 30
0.0
 10
501.4133910820364
 20
610.771893906278
 30
0.0
 10
501.7098414649685
 20
610.8118347403528
 30
0.0
 10
501.958574693745
 20
610.9780006829233
 30
0.0
 10
502.0829667104967
 20
611.0611006242277
 30
0.0
  0
ARC
  5
1AA
330
1F
100
AcDbEntity
  8
0
  6
Continuous
 62
     7
370
    25
100
AcDbCircle
 10
484.7116954907
 20
606.793284057
 30
0.0
 40
0.5000763403838953
100
AcDbArc
 50
273.16262964
 51
281.6913635617
  0
SPLINE
  5
1AB
330
1F
100
AcDbEntity
  8
0
  6
Continuous
 62
     7
370
    25
100
AcDbSpline
210
0.0
220
0.0
230
1.0
 70
     8
 71
     3
 72
    13
 73
     9
 74
     0
 42
0.00000001
 43
0.00000001
 40
0.0
 40
0.0
 40
0.0
 40
0.0
 40
0.0460329529079877
 40
0.2492425848193723
 40
0.4775225570272882
 40
0.7051721168687842
 40
0.852680826381466
 40
1.0
 40
1.0
 40
1.0
 40
1.0
 10
513.6260626849977
 20
593.0688194084975
 30
0.0
 10
513.4977280329592
 20
593.0063104400608
 30
0.0
 10
512.8028679734738
 20
592.6678594851834
 30
0.0
 10
511.4432047388971
 20
592.0498820611544
 30
0.0
 10
509.4352321220787
 20
591.2394097344413
 30
0.0
 10
507.4207218601756
 20
590.5467849331767
 30
0.0
 10
505.5584385789301
 20
589.9965511314786
 30
0.0
 10
504.4660690156916
 20
589.7290350203726
 30
0.0
 10
503.9202353596846
 20
589.5953629538124
 30
0.0
  0
LINE
  5
1AC
330
1F
100
AcDbEntity
  8
0
  6
Continuous
 62
     7
370
    25
100
AcDbLine
 10
503.4667752818
 20
591.542965483
 30
0.0
 11
503.9202353597
 21
589.5953629538
 31
0.0
  0
SPLINE
  5
1AD
330
1F
100
AcDbEntity
  8
0
  6
Continuous
 62
     7
370
    25
100
AcDbSpline
210
0.0
220
0.0
230
1.0
 70
     8
 71
     3
 72
    13
 73
     9
 74
     0
 42
0.00000001
 43
0.00000001
 40
0.0
 40
0.0
 40
0.0
 40
0.0
 40
0.2574896950994369
 40
0.4890886589321034
 40
0.7206004760683484
 40
0.9447506334961274
 40
0.9460032291293298
 40
0.9999999999999999
 40
0.9999999999999999
 40
0.9999999999999999
 40
0.9999999999999999
 10
503.4667752817975
 20
591.5429654830264
 30
0.0
 10
504.3855008577854
 20
591.5149025189116
 30
0.0
 10
506.1305736449235
 20
591.4615983372462
 30
0.0
 10
508.6251388908368
 20
591.6261624560842
 30
0.0
 10
510.9407886968385
 20
592.0395364510944
 30
0.0
 10
512.4178972984405
 20
592.5390936376576
 30
0.0
 10
513.2891587429829
 20
592.9133364925876
 30
0.0
 10
513.4592051518056
 20
592.9923169110727
 30
0.0
 10
513.6253963238607
 20
593.0695067112475
 30
0.0
  0
LINE
  5
1AE
330
1F
100
AcDbEntity
  8
0
  6
Continuous
 62
     7
370
    25
100
AcDbLine
 10
513.6253963239
 20
593.0695067112
 30
0.0
 11
513.626062685
 21
593.0688194085
 31
0.0
  0
ARC
  5
1AF
330
1F
100
AcDbEntity
  8
0
  6
Continuous
 62
     7
370
    25
100
AcDbCircle
 10
493.0107048037
 20
636.4515920676
 30
0.0
 40
48.10950076354634
100
AcDbArc
 50
282.8580809319
 51
283.1066633214
  0
LWPOLYLINE
  5
1B0
330
1F
100
AcDbEntity
  8
0
  6
Continuous
 62
     7
370
    25
100
AcDbPolyline
 90
        3
 70
   128
 43
0.0
 10
513.626062685
 20
593.0688194085
 10
513.6694195617
 20
593.0414279361
 10
513.7739976348
 20
592.9754299061
  0
ARC
  5
1B1
330
1F
100
AcDbEntity
  8
0
  6
Continuous
 62
     7
370
    25
100
AcDbCircle
 10
493.0107048037
 20
636.4515920676
 30
0.0
 40
48.17977797259064
100
AcDbArc
 50
282.8580809319
 51
295.5281512988
  0
LINE
  5
1B2
330
1F
100
AcDbEntity
  8
0
  6
Continuous
 62
     7
370
    25
100
AcDbLine
 10
503.7168437682
 20
589.548472212
 30
0.0
 11
503.7324830402
 21
589.4799572554
 31
0.0
  0
LINE
  5
1B3
330
1F
100
AcDbEntity
  8
0
  6
Continuous
 62
     7
370
    25
100
AcDbLine
 10
497.361455966
 20
592.8508498905
 30
0.0
 11
496.2319805485
 21
591.2006781009
 31
0.0
  0
SPLINE
  5
1B4
330
1F
100
AcDbEntity
  8
0
  6
Continuous
 62
     7
370
    25
100
AcDbSpline
210
0.0
220
0.0
230
1.0
 70
     8
 71
     3
 72
    15
 73
    11
 74
     0
 42
0.00000001
 43
0.00000001
 40
0.0
 40
0.0
 40
0.0
 40
0.0
 40
0.2255198391625378
 40
0.4515645943751949
 40
0.6337799820516976
 40
0.815879032447355
 40
0.8946729146060263
 40
0.9638048440471929
 40
0.9940832206369724
 40
1.0
 40
1.0
 40
1.0
 40
1.0
 10
496.2319805485288
 20
591.2006781008696
 30
0.0
 10
495.3865320076748
 20
591.7456857702111
 30
0.0
 10
493.6936670746671
 20
592.8369696592536
 30
0.0
 10
491.2173508809876
 20
594.0540730488462
 30
0.0
 10
488.8889399662764
 20
594.9849728572815
 30
0.0
 10
487.148460476454
 20
595.540763402095
 30
0.0
 10
485.8907916200843
 20
595.8773162290594
 30
0.0
 10
485.246658722172
 20
596.0326633353839
 30
0.0
 10
484.9187134320899
 20
596.1082167336514
 30
0.0
 10
484.8261759884658
 20
596.1297374417013
 30
0.0
 10
484.8110490019304
 20
596.1332554064101
 30
0.0
  0
SPLINE
  5
1B5
330
1F
100
AcDbEntity
  8
0
  6
Continuous
 62
     7
370
    25
100
AcDbSpline
210
0.0
220
0.0
230
1.0
 70
     8
 71
     3
 72
    11
 73
     7
 74
     0
 42
0.00000001
 43
0.00000001
 40
0.0
 40
0.0
 40
0.0
 40
0.0
 40
0.0195561212295929
 40
0.1681891996744423
 40
0.5898876540792745
 40
1.0
 40
1.0
 40
1.0
 40
1.0
 10
484.9209903933474
 20
596.141522968503
 30
0.0
 10
484.9190316801994
 20
596.1415810822189
 30
0.0
 10
484.9021860903767
 20
596.1420808796595
 30
0.0
 10
484.8502855266175
 20
596.142927297073
 30
0.0
 10
484.801000894552
 20
596.140837998551
 30
0.0
 10
484.8077308796283
 20
596.1357593573674
 30
0.0
 10
484.8110490019304
 20
596.1332554064101
 30
0.0
  0
SPLINE
  5
1B6
330
1F
100
AcDbEntity
  8
0
  6
Continuous
 62
     7
370
    25
100
AcDbSpline
210
0.0
220
0.0
230
1.0
 70
     8
 71
     3
 72
    17
 73
    13
 74
     0
 42
0.00000001
 43
0.00000001
 40
0.0
 40
0.0
 40
0.0
 40
0.0
 40
0.0068263121770683
 40
0.008844850729726
 40
0.0223990310416126
 40
0.0309593028397538
 40
0.0563218912149133
 40
0.1198824177066675
 40
0.1957460556357056
 40
0.555862194488003
 40
0.77803360979772
 40
0.9999999999999999
 40
0.9999999999999999
 40
0.9999999999999999
 40
0.9999999999999999
 10
484.9209903933474
 20
596.141522968503
 30
0.0
 10
484.9246105385091
 20
596.1404847854579
 30
0.0
 10
484.9293011595565
 20
596.1391396119842
 30
0.0
 10
484.9728338722599
 20
596.1315496239093
 30
0.0
 10
485.0473657946923
 20
596.1197981171027
 30
0.0
 10
485.2141980401943
 20
596.0940792218795
 30
0.0
 10
485.5957741572616
 20
596.0355646428574
 30
0.0
 10
486.2786751239959
 20
595.9263676582701
 30
0.0
 10
488.3836744409137
 20
595.559195425846
 30
0.0
 10
491.1966090226998
 20
594.9250177418808
 30
0.0
 10
494.5953932372664
 20
593.9120774500221
 30
0.0
 10
496.4397188520302
 20
593.2044835293356
 30
0.0
 10
497.3614559660207
 20
592.8508498905084
 30
0.0
  0
LINE
  5
1B7
330
1F
100
AcDbEntity
  8
0
  6
Continuous
 62
     7
370
    25
100
AcDbLine
 10
501.4548988168
 20
595.2283285063
 30
0.0
 11
501.3115369878
 21
592.6326805368
 31
0.0
  0
LINE
  5
1B8
330
1F
100
AcDbEntity
  8
0
  6
Continuous
 62
     7
370
    25
100
AcDbLine
 10
501.3115369878
 20
592.6326805368
 30
0.0
 11
497.361455966
 21
592.8508498905
 31
0.0
  0
LINE
  5
1B9
330
1F
100
AcDbEntity
  8
0
  6
Continuous
 62
     7
370
    25
100
AcDbLine
 10
504.2733510558
 20
594.1633545285
 30
0.0
 11
502.6643940626
 21
592.1214930275
 31
0.0
  0
LINE
  5
1BA
330
1F
100
AcDbEntity
  8
0
  6
Continuous
 62
     7
370
    25
100
AcDbLine
 10
513.6253963239
 20
593.0695067112
 30
0.0
 11
513.6248284383
 21
593.0700937521
 31
0.0
  0
ARC
  5
1BB
330
1F
100
AcDbEntity
  8
0
  6
Continuous
 62
     7
370
    25
100
AcDbCircle
 10
509.8386842105
 20
601.2260911686
 30
0.0
 40
11.5915549620674
100
AcDbArc
 50
231.762407147
 51
236.6533814372
  0
LWPOLYLINE
  5
1BC
330
1F
100
AcDbEntity
  8
0
  6
Continuous
 62
     7
370
    25
100
AcDbPolyline
 90
        4
 70
   128
 43
0.0
 10
484.8110490019
 20
596.1332554064
 10
484.8088067556
 20
596.1158971514
 10
484.7998342727
 20
596.0464642898
 10
484.7935039915
 20
595.9975041437
  0
ARC
  5
1BD
330
1F
100
AcDbEntity
  8
0
  6
Continuous
 62
     7
370
    25
100
AcDbCircle
 10
478.3960698767
 20
565.1422830466
 30
0.0
 40
31.57783498432758
100
AcDbArc
 50
54.8280705831
 51
55.6099480104
  0
LINE
  5
1BE
330
1F
100
AcDbEntity
  8
0
  6
Continuous
 62
     7
370
    25
100
AcDbLine
 10
496.5859104142
 20
590.9548645432
 30
0.0
 11
496.5454284994
 21
590.8974180404
 31
0.0
  0
ARC
  5
1BF
330
1F
100
AcDbEntity
  8
0
  6
Continuous
 62
     7
370
    25
100
AcDbCircle
 10
478.3960698767
 20
565.1422830466
 30
0.0
 40
31.50755777528346
100
AcDbArc
 50
54.8280705831
 51
74.9420027521
  0
LINE
  5
1C0
330
1F
100
AcDbEntity
  8
0
  6
Continuous
 62
     7
370
    25
100
AcDbLine
 10
484.7935039915
 20
595.9975041437
 30
0.0
 11
486.5816282753
 21
595.5679766404
 31
0.0
  0
LINE
  5
1C1
330
1F
100
AcDbEntity
  8
0
  6
Continuous
 62
     7
370
    25
100
AcDbLine
 10
484.7196665822
 20
606.4443598972
 30
0.0
 11
484.7935039915
 21
606.4546781935
 31
0.0
  0
SPLINE
  5
1C2
330
1F
100
AcDbEntity
  8
0
  6
Continuous
 62
     7
370
    25
100
AcDbSpline
210
0.0
220
0.0
230
1.0
 70
     8
 71
     3
 72
    10
 73
     6
 74
     0
 42
0.00000001
 43
0.00000001
 40
0.0
 40
0.0
 40
0.0
 40
0.0
 40
0.0490769085761621
 40
0.5995805843665267
 40
1.0
 40
1.0
 40
1.0
 40
1.0
 10
502.6643940625576
 20
592.1214930274749
 30
0.0
 10
502.6454465241885
 20
592.1361157630763
 30
0.0
 10
502.4139613622818
 20
592.3147641052656
 30
0.0
 10
501.9680875874647
 20
592.5488160986868
 30
0.0
 10
501.5060810105803
 20
592.6078304717042
 30
0.0
 10
501.3115369878266
 20
592.6326805368366
 30
0.0
  0
ARC
  5
1C3
330
1F
100
AcDbEntity
  8
0
  6
Continuous
 62
     7
370
    25
100
AcDbCircle
 10
484.709695601
 20
595.6435577094
 30
0.0
 40
0.5000763405228077
100
AcDbArc
 50
78.306520338
 51
86.8373700345
  0
SPLINE
  5
1C4
330
1F
100
AcDbEntity
  8
0
  6
Continuous
 62
     7
370
    25
100
AcDbSpline
210
0.0
220
0.0
230
1.0
 70
     8
 71
     3
 72
     9
 73
     5
 74
     0
 42
0.00000001
 43
0.00000001
 40
0.0
 40
0.0
 40
0.0
 40
0.0
 40
0.8458911907784387
 40
0.9999999999999999
 40
0.9999999999999999
 40
0.9999999999999999
 40
0.9999999999999999
 10
484.7935039915199
 20
595.9975041437237
 30
0.0
 10
484.7726633954088
 20
596.0013189507162
 30
0.0
 10
484.7480259522739
 20
596.0058287588735
 30
0.0
 10
484.7234534250977
 20
596.0075562226244
 30
0.0
 10
484.719666582195
 20
596.0078224400061
 30
0.0
  0
LINE
  5
1C5
330
1F
100
AcDbEntity
  8
0
  6
Continuous
 62
     7
370
    25
100
AcDbLine
 10
466.7242463846
 20
597.0740782933
 30
0.0
 11
466.7247044044
 21
597.0740532068
 31
0.0
  0
LINE
  5
1C6
330
1F
100
AcDbEntity
  8
0
  6
Continuous
 62
     7
370
    25
100
AcDbLine
 10
496.5863483856
 20
611.4966962838
 30
0.0
 11
498.4250892349
 21
612.4936625194
 31
0.0
  0
LINE
  5
1C7
330
1F
100
AcDbEntity
  8
0
  6
Continuous
 62
     7
370
    25
100
AcDbLine
 10
499.1651136501
 20
610.6359366196
 30
0.0
 11
498.4250892349
 21
612.4936625194
 31
0.0
  0
LINE
  5
1C8
330
1F
100
AcDbEntity
  8
0
  6
Continuous
 62
     7
370
    25
100
AcDbLine
 10
502.1518839768
 20
611.1150581065
 30
0.0
 11
502.2737177235
 21
613.1110386155
 31
0.0
  0
LINE
  5
1C9
330
1F
100
AcDbEntity
  8
0
  6
Continuous
 62
     7
370
    25
100
AcDbLine
 10
502.2737177235
 20
613.1110386155
 30
0.0
 11
503.7166249632
 21
612.9027515503
 31
0.0
  0
ARC
  5
1CA
330
1F
100
AcDbEntity
  8
0
  6
Continuous
 62
     7
370
    25
100
AcDbCircle
 10
478.3960698767
 20
565.1422830466
 30
0.0
 40
33.57753037464034
100
AcDbArc
 50
54.8280705831
 51
55.6099480104
  0
ARC
  5
1CB
330
1F
100
AcDbEntity
  8
0
  6
Continuous
 62
     7
370
    25
100
AcDbCircle
 10
493.0107048037
 20
636.4515920676
 30
0.0
 40
46.10980537323357
100
AcDbArc
 50
282.8580809319
 51
283.1066633214
  0
ARC
  5
1CC
330
1F
100
AcDbEntity
  8
0
  6
Continuous
 62
     7
370
    25
100
AcDbCircle
 10
501.7296690053
 20
598.2541966928
 30
0.0
 40
6.92994638714431
100
AcDbArc
 50
234.8280705831
 51
282.8580809319
  0
ARC
  5
1CD
330
1F
100
AcDbEntity
  8
0
  6
Continuous
 62
     7
370
    25
100
AcDbCircle
 10
501.7296690053
 20
604.1979856444
 30
0.0
 40
6.929946387144418
100
AcDbArc
 50
86.5070253286
 51
111.7198462835
  0
ARC
  5
1CE
330
1F
100
AcDbEntity
  8
0
  6
Continuous
 62
     7
370
    25
100
AcDbCircle
 10
501.7296690053
 20
604.1979856444
 30
0.0
 40
8.92964177745711
100
AcDbArc
 50
86.5070253286
 51
111.7198462835
  0
LINE
  5
1CF
330
1F
100
AcDbEntity
  8
0
  6
Continuous
 62
     7
370
    25
100
AcDbLine
 10
497.7377987654
 20
592.5894699636
 30
0.0
 11
496.5859104142
 21
590.9548645432
 31
0.0
  0
LINE
  5
1D0
330
1F
100
AcDbEntity
  8
0
  6
Continuous
 62
     7
370
    25
100
AcDbLine
 10
503.2718377632
 20
591.4980237783
 30
0.0
 11
503.7168437682
 21
589.548472212
 31
0.0
  0
ARC
  5
1D1
330
1F
100
AcDbEntity
  8
0
  6
Continuous
 62
     7
370
    25
100
AcDbCircle
 10
501.7296690053
 20
598.2541966928
 30
0.0
 40
8.929641777457046
100
AcDbArc
 50
234.8280705831
 51
282.8580809319
  0
ARC
  5
1D2
330
1F
100
AcDbEntity
  8
0
  6
Continuous
 62
     7
370
    25
100
AcDbCircle
 10
501.7296690053
 20
604.1979856444
 30
0.0
 40
8.999918986501354
100
AcDbArc
 50
77.1419190681
 51
125.1719294169
  0
ARC
  5
1D3
330
1F
100
AcDbEntity
  8
0
  6
Continuous
 62
     7
370
    25
100
AcDbCircle
 10
501.7296690053
 20
598.2541966928
 30
0.0
 40
8.999918986501244
100
AcDbArc
 50
234.8280705831
 51
282.8580809319
  0
SPLINE
  5
1D4
330
1F
100
AcDbEntity
  8
0
  6
Continuous
 62
     7
370
    25
100
AcDbSpline
210
0.0
220
0.0
230
1.0
 70
     8
 71
     3
 72
    11
 73
     7
 74
     0
 42
0.00000001
 43
0.00000001
 40
0.0
 40
0.0
 40
0.0
 40
0.0
 40
0.2200386424382247
 40
0.6637869905998173
 40
0.8890365590789576
 40
1.0
 40
1.0
 40
1.0
 40
1.0
 10
618.1162743551183
 20
607.2464094755509
 30
0.0
 10
618.3204958181198
 20
606.981390864292
 30
0.0
 10
618.9365673810033
 20
606.1819135339873
 30
0.0
 10
619.4601167320205
 20
604.9187442634595
 30
0.0
 10
619.7117459317817
 20
603.7521744501353
 30
0.0
 10
619.6910387370593
 20
603.240894651476
 30
0.0
 10
619.6842045530333
 20
603.0721523240037
 30
0.0
  0
SPLINE
  5
1D5
330
1F
100
AcDbEntity
  8
0
  6
Continuous
 62
     7
370
    25
100
AcDbSpline
210
0.0
220
0.0
230
1.0
 70
     8
 71
     3
 72
     9
 73
     5
 74
     0
 42
0.00000001
 43
0.00000001
 40
0.0
 40
0.0
 40
0.0
 40
0.0
 40
0.9209630919903095
 40
0.9999999999999999
 40
0.9999999999999999
 40
0.9999999999999999
 40
0.9999999999999999
 10
619.7563167183656
 20
606.9260861999173
 30
0.0
 10
619.2418951804927
 20
606.9829132588359
 30
0.0
 10
618.683326066978
 20
607.0446172070318
 30
0.0
 10
618.1578095553086
 20
607.23162866792
 30
0.0
 10
618.1162743551183
 20
607.2464094755509
 30
0.0
  0
SPLINE
  5
1D6
330
1F
100
AcDbEntity
  8
0
  6
Continuous
 62
     7
370
    25
100
AcDbSpline
210
0.0
220
0.0
230
1.0
 70
     8
 71
     3
 72
    10
 73
     6
 74
     0
 42
0.00000001
 43
0.00000001
 40
0.0
 40
0.0
 40
0.0
 40
0.0
 40
0.2596150688488839
 40
0.629760644481066
 40
1.0
 40
1.0
 40
1.0
 40
1.0
 10
666.9314776723029
 20
604.3345286309283
 30
0.0
 10
662.8536574535798
 20
604.6342827680267
 30
0.0
 10
652.9618946202146
 20
605.3614106631908
 30
0.0
 10
637.2323219375413
 20
606.1872575330809
 30
0.0
 10
625.5821436762767
 20
606.6797891823467
 30
0.0
 10
619.7563167183656
 20
606.9260861999173
 30
0.0
  0
SPLINE
  5
1D7
330
1F
100
AcDbEntity
  8
0
  6
Continuous
 62
     7
370
    25
100
AcDbSpline
210
0.0
220
0.0
230
1.0
 70
     8
 71
     3
 72
    11
 73
     7
 74
     0
 42
0.00000001
 43
0.00000001
 40
0.0
 40
0.0
 40
0.0
 40
0.0
 40
0.061464119541392
 40
0.4999988937835378
 40
0.9375097801832794
 40
1.0
 40
1.0
 40
1.0
 40
1.0
 10
666.9314776723027
 20
598.6084962839263
 30
0.0
 10
666.943146868505
 20
598.7249532563784
 30
0.0
 10
667.0380735547744
 20
599.6723085237097
 30
0.0
 10
667.1217763820405
 20
601.4695527221578
 30
0.0
 10
667.0382064585206
 20
603.2687507463987
 30
0.0
 10
666.9433347534753
 20
604.2161255708318
 30
0.0
 10
666.9314776723029
 20
604.3345286309283
 30
0.0
  0
SPLINE
  5
1D8
330
1F
100
AcDbEntity
  8
0
  6
Continuous
 62
     7
370
    25
100
AcDbSpline
210
0.0
220
0.0
230
1.0
 70
     8
 71
     3
 72
    11
 73
     7
 74
     0
 42
0.00000001
 43
0.00000001
 40
0.0
 40
0.0
 40
0.0
 40
0.0
 40
0.259458927729189
 40
0.6296002946237427
 40
0.8147836738016297
 40
1.0
 40
1.0
 40
1.0
 40
1.0
 10
619.7563167183656
 20
596.0169387149391
 30
0.0
 10
623.8393173677106
 20
596.18243730136
 30
0.0
 10
633.7470836345151
 20
596.5840344238115
 30
0.0
 10
646.562220593476
 20
597.262287239835
 30
0.0
 10
658.2064928597357
 20
597.9397081320471
 30
0.0
 10
664.0229769428682
 20
598.3855536806595
 30
0.0
 10
666.9314776723027
 20
598.6084962839263
 30
0.0
  0
SPLINE
  5
1D9
330
1F
100
AcDbEntity
  8
0
  6
Continuous
 62
     7
370
    25
100
AcDbSpline
210
0.0
220
0.0
230
1.0
 70
     8
 71
     3
 72
     9
 73
     5
 74
     0
 42
0.00000001
 43
0.00000001
 40
0.0
 40
0.0
 40
0.0
 40
0.0
 40
0.0790369080192211
 40
1.0
 40
1.0
 40
1.0
 40
1.0
 10
618.1162743551191
 20
595.6966154393058
 30
0.0
 10
618.1578095553144
 20
595.7113962469384
 30
0.0
 10
618.6833260669837
 20
595.8984077078264
 30
0.0
 10
619.2418951804982
 20
595.9601116560217
 30
0.0
 10
619.7563167183656
 20
596.0169387149391
 30
0.0
  0
SPLINE
  5
1DA
330
1F
100
AcDbEntity
  8
0
  6
Continuous
 62
     7
370
    25
100
AcDbSpline
210
0.0
220
0.0
230
1.0
 70
     8
 71
     3
 72
    11
 73
     7
 74
     0
 42
0.00000001
 43
0.00000001
 40
0.0
 40
0.0
 40
0.0
 40
0.0
 40
0.0728838064943292
 40
0.4140719411596023
 40
0.9209668754550557
 40
1.0
 40
1.0
 40
1.0
 40
1.0
 10
619.6842045530295
 20
599.8708725908676
 30
0.0
 10
619.6919197021672
 20
599.7604261566286
 30
0.0
 10
619.7357514795317
 20
599.1329511162976
 30
0.0
 10
619.3912597680937
 20
597.7499590858326
 30
0.0
 10
618.7515704186073
 20
596.4800275680551
 30
0.0
 10
618.1917816691746
 20
595.789726901882
 30
0.0
 10
618.1162743551191
 20
595.6966154393058
 30
0.0
  0
SPLINE
  5
1DB
330
1F
100
AcDbEntity
  8
0
  6
Continuous
 62
     7
370
    25
100
AcDbSpline
210
0.0
220
0.0
230
1.0
 70
     8
 71
     3
 72
    10
 73
     6
 74
     0
 42
0.00000001
 43
0.00000001
 40
0.0
 40
0.0
 40
0.0
 40
0.0
 40
0.3880207377811387
 40
0.9790637766506859
 40
1.0
 40
1.0
 40
1.0
 40
1.0
 10
619.6842045530333
 20
603.0721523240037
 30
0.0
 10
619.6108900222739
 20
602.6613124621479
 30
0.0
 10
619.4259009369506
 20
601.6246708922995
 30
0.0
 10
619.5216078627818
 20
600.5309015707282
 30
0.0
 10
619.6788260140295
 20
599.8927057020088
 30
0.0
 10
619.6842045530295
 20
599.8708725908676
 30
0.0
  0
ARC
  5
1DC
330
1F
100
AcDbEntity
  8
0
  6
Continuous
 62
     7
370
    25
100
AcDbCircle
 10
611.4386842105
 20
601.4715124574
 30
0.0
 40
8.399443654264582
100
AcDbArc
 50
10.985757993
 51
349.0142420071
  0
SPLINE
  5
1DD
330
1F
100
AcDbEntity
  8
0
  6
Continuous
 62
     7
370
    25
100
AcDbSpline
210
0.0
220
0.0
230
1.0
 70
     8
 71
     3
 72
     9
 73
     5
 74
     0
 42
0.00000001
 43
0.00000001
 40
0.0
 40
0.0
 40
0.0
 40
0.0
 40
0.6817923421274255
 40
1.0
 40
1.0
 40
1.0
 40
1.0
 10
618.1162743551191
 20
595.6966154393058
 30
0.0
 10
617.974010794476
 20
595.5067050842007
 30
0.0
 10
617.7653496643156
 20
595.2281593403271
 30
0.0
 10
617.5359238304352
 20
594.9952549673842
 30
0.0
 10
617.4629187731807
 20
594.9211430123617
 30
0.0
  0
ARC
  5
1DE
330
1F
100
AcDbEntity
  8
0
  6
Continuous
 62
     7
370
    25
100
AcDbCircle
 10
611.4386842105
 20
601.4715124574
 30
0.0
 40
8.899367501836373
100
AcDbArc
 50
47.3959191961
 51
312.6040808039
  0
LINE
  5
1DF
330
1F
100
AcDbEntity
  8
0
  6
Continuous
 62
     7
370
    25
100
AcDbLine
 10
617.4629187732
 20
608.0218819025
 30
0.0
 11
618.1162743551
 21
607.2464094756
 31
0.0
  0
SPLINE
  5
1E0
330
1F
100
AcDbEntity
  8
0
  6
Continuous
 62
     7
370
    25
100
AcDbSpline
210
0.0
220
0.0
230
1.0
 70
     8
 71
     3
 72
    10
 73
     6
 74
     0
 42
0.00000001
 43
0.00000001
 40
0.0
 40
0.0
 40
0.0
 40
0.0
 40
0.3702896688583041
 40
0.7405318123903295
 40
1.0
 40
1.0
 40
1.0
 40
1.0
 10
666.942997135481
 20
598.1656367030931
 30
0.0
 10
661.1229332892626
 20
597.8454456885668
 30
0.0
 10
649.4835525807591
 20
597.2051047548612
 30
0.0
 10
633.7646841739843
 20
596.3358704229979
 30
0.0
 10
623.8675103579745
 20
595.7871294213887
 30
0.0
 10
619.7894420375104
 20
595.561024137557
 30
0.0
  0
ARC
  5
1E1
330
1F
100
AcDbEntity
  8
0
  6
Continuous
 62
     7
370
    25
100
AcDbCircle
 10
627.0045312449
 20
596.3144105042
 30
0.0
 40
7.254316183352839
100
AcDbArc
 50
182.3501399448
 51
185.9611177313
  0
ARC
  5
1E2
330
1F
100
AcDbEntity
  8
0
  6
Continuous
 62
     7
370
    25
100
AcDbCircle
 10
662.6824745943
 20
598.2763935271
 30
0.0
 40
4.261961918889053
100
AcDbArc
 50
358.5108705386
 51
4.4691613065
  0
SPLINE
  5
1E3
330
1F
100
AcDbEntity
  8
0
  6
Continuous
 62
     7
370
    25
100
AcDbSpline
210
0.0
220
0.0
230
1.0
 70
     8
 71
     3
 72
    10
 73
     6
 74
     0
 42
0.00000001
 43
0.00000001
 40
0.0
 40
0.0
 40
0.0
 40
0.0
 40
0.3702717503651154
 40
0.740512215137175
 40
1.0
 40
1.0
 40
1.0
 40
1.0
 10
619.7894420375103
 20
607.3820007772995
 30
0.0
 10
625.6091140991795
 20
607.0594722916316
 30
0.0
 10
637.2479664974763
 20
606.4144425718885
 30
0.0
 10
652.9671060814311
 20
605.5456280844095
 30
0.0
 10
662.8646035051298
 20
605.0015731736427
 30
0.0
 10
666.9429971354776
 20
604.7773882117635
 30
0.0
  0
ARC
  5
1E4
330
1F
100
AcDbEntity
  8
0
  6
Continuous
 62
     7
370
    25
100
AcDbCircle
 10
662.6824745914
 20
604.6666313878
 30
0.0
 40
4.261961921796643
100
AcDbArc
 50
355.530838696
 51
1.4891294598
  0
ARC
  5
1E5
330
1F
100
AcDbEntity
  8
0
  6
Continuous
 62
     7
370
    25
100
AcDbCircle
 10
627.0045312452
 20
606.6286144106
 30
0.0
 40
7.254316183610939
100
AcDbArc
 50
174.0388822687
 51
177.6498600551
  0
SPLINE
  5
1E6
330
1F
100
AcDbEntity
  8
0
  6
Continuous
 62
     7
370
    25
100
AcDbSpline
210
0.0
220
0.0
230
1.0
 70
     8
 71
     3
 72
    12
 73
     8
 74
     0
 42
0.00000001
 43
0.00000001
 40
0.0
 40
0.0
 40
0.0
 40
0.0
 40
0.122429049415135
 40
0.3423522449770488
 40
0.5614228816909436
 40
0.7807229538533572
 40
1.0
 40
1.0
 40
1.0
 40
1.0
 10
668.8672051051503
 20
604.223854261272
 30
0.0
 10
668.8582010292863
 20
604.2262129457129
 30
0.0
 10
668.8330226455553
 20
604.2328086100378
 30
0.0
 10
668.6170349619105
 20
604.249816577777
 30
0.0
 10
668.1811368321814
 20
604.2753275519314
 30
0.0
 10
667.5972112187512
 20
604.3048797344907
 30
0.0
 10
667.1533810871831
 20
604.3246460113697
 30
0.0
 10
666.9314776723029
 20
604.3345286309283
 30
0.0
  0
SPLINE
  5
1E7
330
1F
100
AcDbEntity
  8
0
  6
Continuous
 62
     7
370
    25
100
AcDbSpline
210
0.0
220
0.0
230
1.0
 70
     8
 71
     3
 72
    11
 73
     7
 74
     0
 42
0.00000001
 43
0.00000001
 40
0.0
 40
0.0
 40
0.0
 40
0.0
 40
0.0800485240044433
 40
0.5000005853538798
 40
0.9209248322279645
 40
1.0
 40
1.0
 40
1.0
 40
1.0
 10
668.8672051051503
 20
604.223854261272
 30
0.0
 10
668.8669188607362
 20
604.0776098361713
 30
0.0
 10
668.8651309155316
 20
603.1641351773383
 30
0.0
 10
668.8638952187017
 20
601.4697255895798
 30
0.0
 10
668.8651329167965
 20
599.777098737725
 30
0.0
 10
668.8669221387644
 20
598.8636353620813
 30
0.0
 10
668.8672051051503
 20
598.7191706535899
 30
0.0
  0
SPLINE
  5
1E8
330
1F
100
AcDbEntity
  8
0
  6
Continuous
 62
     7
370
    25
100
AcDbSpline
210
0.0
220
0.0
230
1.0
 70
     8
 71
     3
 72
    12
 73
     8
 74
     0
 42
0.00000001
 43
0.00000001
 40
0.0
 40
0.0
 40
0.0
 40
0.0
 40
0.1130367476169276
 40
0.3328594693547989
 40
0.5544127937945017
 40
0.7774207483513241
 40
1.0
 40
1.0
 40
1.0
 40
1.0
 10
666.9314776723027
 20
598.6084962839263
 30
0.0
 10
667.0455485122894
 20
598.6135115296278
 30
0.0
 10
667.3814530748974
 20
598.6282799306836
 30
0.0
 10
667.9155209312921
 20
598.6538721347928
 30
0.0
 10
668.4320465691794
 20
598.6817473976639
 30
0.0
 10
668.7889412863339
 20
598.7051892712544
 30
0.0
 10
668.8411339038522
 20
598.7145131830141
 30
0.0
 10
668.8672051051503
 20
598.7191706535899
 30
0.0
  0
SPLINE
  5
1E9
330
1F
100
AcDbEntity
  8
0
  6
Continuous
 62
     7
370
    25
100
AcDbSpline
210
0.0
220
0.0
230
1.0
 70
     8
 71
     3
 72
     9
 73
     5
 74
     0
 42
0.00000001
 43
0.00000001
 40
0.0
 40
0.0
 40
0.0
 40
0.0
 40
0.500010612381545
 40
1.0
 40
1.0
 40
1.0
 40
1.0
 10
616.9633109243377
 20
608.4537135917411
 30
0.0
 10
617.3930322911586
 20
608.1658730536479
 30
0.0
 10
618.2524567837193
 20
607.5902041958964
 30
0.0
 10
619.2771208689975
 20
607.4514009348096
 30
0.0
 10
619.7894420375103
 20
607.3820007772995
 30
0.0
  0
SPLINE
  5
1EA
330
1F
100
AcDbEntity
  8
0
  6
Continuous
 62
     7
370
    25
100
AcDbSpline
210
0.0
220
0.0
230
1.0
 70
     8
 71
     3
 72
     9
 73
     5
 74
     0
 42
0.00000001
 43
0.00000001
 40
0.0
 40
0.0
 40
0.0
 40
0.0
 40
0.9838702326459388
 40
1.0
 40
1.0
 40
1.0
 40
1.0
 10
617.4629187731807
 20
608.0218819024949
 30
0.0
 10
617.3015779582463
 20
608.1667143155137
 30
0.0
 10
617.137592089398
 20
608.3139211403706
 30
0.0
 10
616.9660774161157
 20
608.4514945644172
 30
0.0
 10
616.9633109243377
 20
608.4537135917411
 30
0.0
  0
SPLINE
  5
1EB
330
1F
100
AcDbEntity
  8
0
  6
Continuous
 62
     7
370
    25
100
AcDbSpline
210
0.0
220
0.0
230
1.0
 70
     8
 71
     3
 72
     9
 73
     5
 74
     0
 42
0.00000001
 43
0.00000001
 40
0.0
 40
0.0
 40
0.0
 40
0.0
 40
0.5055561057107295
 40
1.0
 40
1.0
 40
1.0
 40
1.0
 10
619.7894420375104
 20
595.561024137557
 30
0.0
 10
619.2713825201773
 20
595.490368103287
 30
0.0
 10
618.2466505241019
 20
595.3506090667096
 30
0.0
 10
617.3879099553404
 20
594.7742757919137
 30
0.0
 10
616.9633109243377
 20
594.4893113231153
 30
0.0
  0
SPLINE
  5
1EC
330
1F
100
AcDbEntity
  8
0
  6
Continuous
 62
     7
370
    25
100
AcDbSpline
210
0.0
220
0.0
230
1.0
 70
     8
 71
     3
 72
     9
 73
     5
 74
     0
 42
0.00000001
 43
0.00000001
 40
0.0
 40
0.0
 40
0.0
 40
0.0
 40
0.016129767353325
 40
1.0
 40
1.0
 40
1.0
 40
1.0
 10
616.9633109243377
 20
594.4893113231153
 30
0.0
 10
616.9660774161156
 20
594.4915303504392
 30
0.0
 10
617.1375920894023
 20
594.6291037744887
 30
0.0
 10
617.3015779582483
 20
594.776310599344
 30
0.0
 10
617.4629187731807
 20
594.9211430123617
 30
0.0
  0
SPLINE
  5
1ED
330
1F
100
AcDbEntity
  8
0
  6
Continuous
 62
     7
370
    25
100
AcDbSpline
210
0.0
220
0.0
230
1.0
 70
     8
 71
     3
 72
    12
 73
     8
 74
     0
 42
0.00000001
 43
0.00000001
 40
0.0
 40
0.0
 40
0.0
 40
0.0
 40
0.2230315344150424
 40
0.446133755834037
 40
0.6675099896776974
 40
0.8870667292264951
 40
1.0
 40
1.0
 40
1.0
 40
1.0
 10
668.3948508400659
 20
598.2200075825415
 30
0.0
 10
668.37531705394
 20
598.2218978298363
 30
0.0
 10
668.3362432907034
 20
598.2256789235156
 30
0.0
 10
668.0686541086473
 20
598.218736087245
 30
0.0
 10
667.6811250248221
 20
598.2031472647551
 30
0.0
 10
667.2804029123591
 20
598.1838099846909
 30
0.0
 10
667.0285434901012
 20
598.1702443835144
 30
0.0
 10
666.942997135481
 20
598.1656367030931
 30
0.0
  0
ARC
  5
1EE
330
1F
100
AcDbEntity
  8
0
  6
Continuous
 62
     7
370
    25
100
AcDbCircle
 10
668.3671052175
 20
598.7193372389
 30
0.0
 40
0.5000999153470272
100
AcDbArc
 50
273.1804119248
 51
359.9809145383
  0
SPLINE
  5
1EF
330
1F
100
AcDbEntity
  8
0
  6
Continuous
 62
     7
370
    25
100
AcDbSpline
210
0.0
220
0.0
230
1.0
 70
     8
 71
     3
 72
    12
 73
     8
 74
     0
 42
0.00000001
 43
0.00000001
 40
0.0
 40
0.0
 40
0.0
 40
0.0
 40
0.2190444340109335
 40
0.4380981679380244
 40
0.6571027493691858
 40
0.8772791087290026
 40
1.0
 40
1.0
 40
1.0
 40
1.0
 10
666.9429971354776
 20
604.7773882117635
 30
0.0
 10
667.1094148762485
 20
604.7685593988137
 30
0.0
 10
667.4422574233477
 20
604.7509013980715
 30
0.0
 10
667.8804158659908
 20
604.7313829086625
 30
0.0
 10
668.2073816927503
 20
604.7200771250302
 30
0.0
 10
668.3692255697646
 20
604.7182532569535
 30
0.0
 10
668.3880969021767
 20
604.7217616862783
 30
0.0
 10
668.3948508400658
 20
604.723017332315
 30
0.0
  0
ARC
  5
1F0
330
1F
100
AcDbEntity
  8
0
  6
Continuous
 62
     7
370
    25
100
AcDbCircle
 10
668.3671052175
 20
604.2236876759
 30
0.0
 40
0.500099915347029
100
AcDbArc
 50
0.0190854623
 51
86.8195880752
  0
LINE
  5
1F1
330
1F
100
AcDbEntity
  8
0
  6
Continuous
 62
     7
370
    25
100
AcDbLine
 10
619.7894420375
 20
595.5610241376
 30
0.0
 11
619.8164282192
 21
595.4897338622
 31
0.0
  0
LINE
  5
1F2
330
1F
100
AcDbEntity
  8
0
  6
Continuous
 62
     7
370
    25
100
AcDbLine
 10
668.3995412007
 20
598.2155691295
 30
0.0
 11
668.3948508401
 21
598.2200075825
 31
0.0
  0
ELLIPSE
  5
1F3
330
1F
100
AcDbEntity
  8
0
  6
Continuous
 62
     7
370
    25
100
AcDbEllipse
 10
666.899769658
 20
598.1322766795
 30
0.0
 11
1.499999304622861
 21
0.0828726334386829
 31
0.0
210
0.0
220
0.0
230
1.0
 40
0.0174284859
 41
5.396717970286483
 42
6.299675703204286
  0
LINE
  5
1F4
330
1F
100
AcDbEntity
  8
0
  6
Continuous
 62
     7
370
    25
100
AcDbLine
 10
664.384154989
 20
597.9235170915
 30
0.0
 11
667.8491181984
 21
598.1644083704
 31
0.0
  0
LINE
  5
1F5
330
1F
100
AcDbEntity
  8
0
  6
Continuous
 62
     7
370
    25
100
AcDbLine
 10
664.384154989
 20
597.9236154827
 30
0.0
 11
664.384154989
 21
597.9235170915
 31
0.0
  0
ELLIPSE
  5
1F6
330
1F
100
AcDbEntity
  8
0
  6
Continuous
 62
     7
370
    25
100
AcDbEllipse
 10
654.934668568
 20
597.5939694312
 30
0.0
 11
14.4999932780205
 21
0.8011021232406391
 31
0.0
210
0.0
220
0.0
230
1.0
 40
0.0174284859
 41
4.685109492442225
 42
5.421234828998096
  0
ELLIPSE
  5
1F7
330
1F
100
AcDbEntity
  8
0
  6
Continuous
 62
     7
370
    25
100
AcDbEllipse
 10
653.6136586525
 20
596.6436858819
 30
0.0
 11
35.70262504606012
 21
1.972514619921867
 31
0.0
210
0.0
220
0.0
230
1.0
 40
0.0174284859
 41
1.543516838852416
 42
2.025717338718041
  0
ELLIPSE
  5
1F8
330
1F
100
AcDbEntity
  8
0
  6
Continuous
 62
     7
370
    25
100
AcDbEllipse
 10
634.5934311804
 20
596.2712898222
 30
0.0
 11
7.499996523113964
 21
0.4143631671934145
 31
0.0
210
0.0
220
0.0
230
1.0
 40
0.0174284859
 41
4.976419334597828
 42
5.167309992308108
  0
LINE
  5
1F9
330
1F
100
AcDbEntity
  8
0
  6
Continuous
 62
     7
370
    25
100
AcDbLine
 10
636.5380835815
 20
596.4036342734
 30
0.0
 11
636.5577018389
 21
596.2532437288
 31
0.0
  0
SPLINE
  5
1FA
330
1F
100
AcDbEntity
  8
0
  6
Continuous
 62
     7
370
    25
100
AcDbSpline
210
0.0
220
0.0
230
1.0
 70
     8
 71
     3
 72
    10
 73
     6
 74
     0
 42
0.00000001
 43
0.00000001
 40
0.0
 40
0.0
 40
0.0
 40
0.0
 40
0.0186368637457253
 40
0.3939469944633057
 40
1.0
 40
1.0
 40
1.0
 40
1.0
 10
636.3543122957802
 20
596.4031479061531
 30
0.0
 10
636.3567685030288
 20
596.4032356566324
 30
0.0
 10
636.4086879395057
 20
596.4050905308253
 30
0.0
 10
636.5126867879837
 20
596.4077705122035
 30
0.0
 10
636.528387445333
 20
596.4052134308059
 30
0.0
 10
636.5380835814767
 20
596.4036342733981
 30
0.0
  0
LINE
  5
1FB
330
1F
100
AcDbEntity
  8
0
  6
Continuous
 62
     7
370
    25
100
AcDbLine
 10
619.8164282192
 20
595.4897338622
 30
0.0
 11
636.3543122958
 21
596.4031479062
 31
0.0
  0
LINE
  5
1FC
330
1F
100
AcDbEntity
  8
0
  6
Continuous
 62
     7
370
    25
100
AcDbLine
 10
636.3563780277
 20
606.5560806575
 30
0.0
 11
619.8224696043
 21
607.4692751197
 31
0.0
  0
SPLINE
  5
1FD
330
1F
100
AcDbEntity
  8
0
  6
Continuous
 62
     7
370
    25
100
AcDbSpline
210
0.0
220
0.0
230
1.0
 70
     8
 71
     3
 72
    11
 73
     7
 74
     0
 42
0.00000001
 43
0.00000001
 40
0.0
 40
0.0
 40
0.0
 40
0.0
 40
0.4177469294495335
 40
0.8392770662410767
 40
0.9817832068819767
 40
1.0
 40
1.0
 40
1.0
 40
1.0
 10
636.5400834683485
 20
606.554731212245
 30
0.0
 10
636.5354464403166
 20
606.5536480210612
 30
0.0
 10
636.5261303903152
 20
606.5514718290782
 30
0.0
 10
636.4506339245652
 20
606.5526740059696
 30
0.0
 10
636.380373723993
 20
606.5551445333097
 30
0.0
 10
636.3588208873355
 20
606.5559853562665
 30
0.0
 10
636.3563780277055
 20
606.5560806575251
 30
0.0
  0
LINE
  5
1FE
330
1F
100
AcDbEntity
  8
0
  6
Continuous
 62
     7
370
    25
100
AcDbLine
 10
636.5577018389
 20
606.689781186
 30
0.0
 11
636.5400834683
 21
606.5547312122
 31
0.0
  0
ELLIPSE
  5
1FF
330
1F
100
AcDbEntity
  8
0
  6
Continuous
 62
     7
370
    25
100
AcDbEllipse
 10
634.5934311804
 20
606.6717350927
 30
0.0
 11
7.499996523113964
 21
-0.4143631671934145
 31
0.0
210
0.0
220
0.0
230
1.0
 40
0.0174284859
 41
1.115875314871652
 42
1.306765972582052
  0
ELLIPSE
  5
200
330
1F
100
AcDbEntity
  8
0
  6
Continuous
 62
     7
370
    25
100
AcDbEllipse
 10
653.6136586525
 20
606.2993390329
 30
0.0
 11
35.70262504606012
 21
-1.972514619922095
 31
0.0
210
0.0
220
0.0
230
1.0
 40
0.0174284859
 41
4.257467968461853
 42
4.739668468327162
  0
ELLIPSE
  5
201
330
1F
100
AcDbEntity
  8
0
  6
Continuous
 62
     7
370
    25
100
AcDbEllipse
 10
654.934668568
 20
605.3490554836
 30
0.0
 11
14.4999932780205
 21
-0.8011021232408666
 31
0.0
210
0.0
220
0.0
230
1.0
 40
0.0174284859
 41
0.8619504781818959
 42
1.598075814737388
  0
LINE
  5
202
330
1F
100
AcDbEntity
  8
0
  6
Continuous
 62
     7
370
    25
100
AcDbLine
 10
664.384154989
 20
605.0195078234
 30
0.0
 11
664.384154989
 21
605.0194094322
 31
0.0
  0
LINE
  5
203
330
1F
100
AcDbEntity
  8
0
  6
Continuous
 62
     7
370
    25
100
AcDbLine
 10
667.8491181984
 20
604.7786165444
 30
0.0
 11
664.384154989
 21
605.0195078234
 31
0.0
  0
ELLIPSE
  5
204
330
1F
100
AcDbEntity
  8
0
  6
Continuous
 62
     7
370
    25
100
AcDbEllipse
 10
666.899769658
 20
604.8107482354
 30
0.0
 11
1.499999304622861
 21
-0.0828726334386829
 31
0.0
210
0.0
220
0.0
230
1.0
 40
0.0174284859
 41
0.4950632406773392
 42
0.8864673368906734
  0
LINE
  5
205
330
1F
100
AcDbEntity
  8
0
  6
Continuous
 62
     7
370
    25
100
AcDbLine
 10
668.3948508401
 20
604.7230173323
 30
0.0
 11
668.3995412007
 21
604.7274557854
 31
0.0
  0
LINE
  5
206
330
1F
100
AcDbEntity
  8
0
  6
Continuous
 62
     7
370
    25
100
AcDbLine
 10
619.8224696043
 20
607.4692751197
 30
0.0
 11
619.7894420375
 21
607.3820007773
 31
0.0
  0
SPLINE
  5
207
330
1F
100
AcDbEntity
  8
0
  6
Continuous
 62
     7
370
    25
100
AcDbSpline
210
0.0
220
0.0
230
1.0
 70
     8
 71
     3
 72
     9
 73
     5
 74
     0
 42
0.00000001
 43
0.00000001
 40
0.0
 40
0.0
 40
0.0
 40
0.0
 40
0.5001021276704715
 40
0.9999999999999999
 40
0.9999999999999999
 40
0.9999999999999999
 40
0.9999999999999999
 10
616.9965297903932
 20
594.4236198761553
 30
0.0
 10
617.4254775661005
 20
594.7101455102437
 30
0.0
 10
618.283197923551
 20
595.2830797535414
 30
0.0
 10
619.3054210521663
 20
595.4208585399956
 30
0.0
 10
619.816428219207
 20
595.4897338621963
 30
0.0
  0
LINE
  5
208
330
1F
100
AcDbEntity
  8
0
  6
Continuous
 62
     7
370
    25
100
AcDbLine
 10
616.9965297904
 20
594.4236198762
 30
0.0
 11
616.9633109243
 21
594.4893113231
 31
0.0
  0
SPLINE
  5
209
330
1F
100
AcDbEntity
  8
0
  6
Continuous
 62
     7
370
    25
100
AcDbSpline
210
0.0
220
0.0
230
1.0
 70
     8
 71
     3
 72
     9
 73
     5
 74
     0
 42
0.00000001
 43
0.00000001
 40
0.0
 40
0.0
 40
0.0
 40
0.0
 40
0.4007227371565293
 40
1.0
 40
1.0
 40
1.0
 40
1.0
 10
619.8224696042586
 20
607.4692751197396
 30
0.0
 10
619.4137834808492
 20
607.5176823818052
 30
0.0
 10
618.3939109218095
 20
607.638482270549
 30
0.0
 10
617.5248348779836
 20
608.1985895439027
 30
0.0
 10
617.0040173652368
 20
608.5342490975768
 30
0.0
  0
LINE
  5
20A
330
1F
100
AcDbEntity
  8
0
  6
Continuous
 62
     7
370
    25
100
AcDbLine
 10
616.9633109243
 20
608.4537135917
 30
0.0
 11
617.0040173652
 21
608.5342490976
 31
0.0
  0
ARC
  5
20B
330
1F
100
AcDbEntity
  8
0
  6
Continuous
 62
     7
370
    25
100
AcDbCircle
 10
611.4386842105
 20
601.4715124574
 30
0.0
 40
8.975658044222202
100
AcDbArc
 50
245.1648853947
 51
308.2586979829
  0
LWPOLYLINE
  5
20C
330
1F
100
AcDbEntity
  8
0
  6
Continuous
 62
     7
370
    25
100
AcDbPolyline
 90
        3
 70
   128
 43
0.0
 10
607.5033707863
 20
593.2208527341
 10
607.6079523504
 20
593.2871051454
 10
607.6688328931
 20
593.3259211117
  0
ARC
  5
20D
330
1F
100
AcDbEntity
  8
0
  6
Continuous
 62
     7
370
    25
100
AcDbCircle
 10
611.4386842105
 20
601.4715124574
 30
0.0
 40
9.14112015109221
100
AcDbArc
 50
115.4997164176
 51
244.5002794289
  0
LWPOLYLINE
  5
20E
330
1F
100
AcDbEntity
  8
0
  6
Continuous
 62
     7
370
    25
100
AcDbPolyline
 90
        3
 70
   128
 43
0.0
 10
607.6525399827
 20
609.6275098739
 10
607.6079523504
 20
609.6559197695
 10
607.503370786
 20
609.7221721809
  0
ARC
  5
20F
330
1F
100
AcDbEntity
  8
0
  6
Continuous
 62
     7
370
    25
100
AcDbCircle
 10
611.4386842105
 20
601.4715124574
 30
0.0
 40
8.991950954660663
100
AcDbArc
 50
51.762407147
 51
114.9014811666
  0
LINE
  5
210
330
1F
100
AcDbEntity
  8
0
  6
Continuous
 62
     7
370
    25
100
AcDbLine
 10
668.8718954658
 20
604.2282927143
 30
0.0
 11
668.8672051052
 21
604.2238542613
 31
0.0
  0
LINE
  5
211
330
1F
100
AcDbEntity
  8
0
  6
Continuous
 62
     7
370
    25
100
AcDbLine
 10
668.8718954658
 20
598.7147322005
 30
0.0
 11
668.8718954658
 21
604.2282927143
 31
0.0
  0
LINE
  5
212
330
1F
100
AcDbEntity
  8
0
  6
Continuous
 62
     7
370
    25
100
AcDbLine
 10
668.8672051052
 20
598.7191706536
 30
0.0
 11
668.8718954658
 21
598.7147322005
 31
0.0
  0
ARC
  5
213
330
1F
100
AcDbEntity
  8
0
  6
Continuous
 62
     7
370
    25
100
AcDbCircle
 10
668.3717955782
 20
604.228126129
 30
0.0
 40
0.5000999153468345
100
AcDbArc
 50
0.0190854617
 51
86.8195880753
  0
ARC
  5
214
330
1F
100
AcDbEntity
  8
0
  6
Continuous
 62
     7
370
    25
100
AcDbCircle
 10
668.3717955782
 20
598.7148987859
 30
0.0
 40
0.5000999153468345
100
AcDbArc
 50
273.1804119247
 51
359.9809145383
  0
LINE
  5
215
330
1F
100
AcDbEntity
  8
0
  6
Continuous
 62
     7
370
    25
100
AcDbLine
 10
667.8491181984
 20
598.1644083704
 30
0.0
 11
667.8562259292
 21
598.1647754071
 31
0.0
  0
LINE
  5
216
330
1F
100
AcDbEntity
  8
0
  6
Continuous
 62
     7
370
    25
100
AcDbLine
 10
667.8491181984
 20
604.7786165444
 30
0.0
 11
667.8562259292
 21
604.7782495078
 31
0.0
  0
SPLINE
  5
217
330
1F
100
AcDbEntity
  8
0
  6
Continuous
 62
     7
370
    25
100
AcDbSpline
210
0.0
220
0.0
230
1.0
 70
     8
 71
     3
 72
    12
 73
     8
 74
     0
 42
0.00000001
 43
0.00000001
 40
0.0
 40
0.0
 40
0.0
 40
0.0
 40
0.1662426524176549
 40
0.3368059756191304
 40
0.6054181071254592
 40
0.8801435087136196
 40
1.0
 40
1.0
 40
1.0
 40
1.0
 10
617.5607434578369
 20
589.7948520757573
 30
0.0
 10
616.9230619373009
 20
589.9503372512403
 30
0.0
 10
615.6311254605002
 20
590.2653486845954
 30
0.0
 10
613.4469390781509
 20
590.928313789594
 30
0.0
 10
611.084964734591
 20
591.7805087063995
 30
0.0
 10
609.1194271726985
 20
592.6231373850114
 30
0.0
 10
608.0056521879029
 20
593.1609954777067
 30
0.0
 10
607.6673367097454
 20
593.3243729285339
 30
0.0
  0
LINE
  5
218
330
1F
100
AcDbEntity
  8
0
  6
Continuous
 62
     7
370
    25
100
AcDbLine
 10
617.5607434578
 20
589.7948520758
 30
0.0
 11
617.5448853809
 21
589.7253785442
 31
0.0
  0
ARC
  5
219
330
1F
100
AcDbEntity
  8
0
  6
Continuous
 62
     7
370
    25
100
AcDbCircle
 10
628.2666636174
 20
636.6970133564
 30
0.0
 40
48.17977797259051
100
AcDbArc
 50
244.4718479123
 51
257.1419190681
  0
LWPOLYLINE
  5
21A
330
1F
100
AcDbEntity
  8
0
  6
Continuous
 62
     7
370
    25
100
AcDbPolyline
 90
        3
 70
   128
 43
0.0
 10
607.6673367097
 20
593.3243729285
 10
607.6079488594
 20
593.286849225
 10
607.5033707866
 20
593.2208511951
  0
SPLINE
  5
21B
330
1F
100
AcDbEntity
  8
0
  6
Continuous
 62
     7
370
    25
100
AcDbSpline
210
0.0
220
0.0
230
1.0
 70
     8
 71
     3
 72
    12
 73
     8
 74
     0
 42
0.00000001
 43
0.00000001
 40
0.0
 40
0.0
 40
0.0
 40
0.0
 40
0.1345419440893861
 40
0.4125227334043404
 40
0.6966514762099311
 40
0.8475579366075734
 40
1.0
 40
1.0
 40
1.0
 40
1.0
 10
607.6680542867025
 20
593.3251144946079
 30
0.0
 10
608.0974117101323
 20
593.1342890480155
 30
0.0
 10
609.413876245557
 20
592.5491939286891
 30
0.0
 10
611.7875041895794
 20
591.9242452798982
 30
0.0
 10
614.312450621653
 20
591.6228896444056
 30
0.0
 10
616.4573883404302
 20
591.5173029748012
 30
0.0
 10
617.5937360471158
 20
591.5116700071046
 30
0.0
 10
618.164786095338
 20
591.5088392657251
 30
0.0
  0
ARC
  5
21C
330
1F
100
AcDbEntity
  8
0
  6
Continuous
 62
     7
370
    25
100
AcDbCircle
 10
613.6722551023
 20
592.1286633103
 30
0.0
 40
4.535087272517885
100
AcDbArc
 50
329.0284626407
 51
352.1446266983
  0
LINE
  5
21D
330
1F
100
AcDbEntity
  8
0
  6
Continuous
 62
     7
370
    25
100
AcDbLine
 10
607.6673367097
 20
593.3243729285
 30
0.0
 11
607.6680542867
 21
593.3251144946
 31
0.0
  0
LINE
  5
21E
330
1F
100
AcDbEntity
  8
0
  6
Continuous
 62
     7
370
    25
100
AcDbLine
 10
616.9965297904
 20
594.4236198762
 30
0.0
 11
619.1944017106
 21
591.6365030018
 31
0.0
  0
ARC
  5
21F
330
1F
100
AcDbEntity
  8
0
  6
Continuous
 62
     7
370
    25
100
AcDbCircle
 10
611.4386842105
 20
601.4715124574
 30
0.0
 40
12.52511736202727
100
AcDbArc
 50
307.8583068702
 51
308.2586979829
  0
LINE
  5
220
330
1F
100
AcDbEntity
  8
0
  6
Continuous
 62
     7
370
    25
100
AcDbLine
 10
618.1647860953
 20
591.5088392657
 30
0.0
 11
619.1254844442
 21
591.5825455195
 31
0.0
  0
LINE
  5
221
330
1F
100
AcDbEntity
  8
0
  6
Continuous
 62
     7
370
    25
100
AcDbLine
 10
607.6688328931
 20
593.3259211117
 30
0.0
 11
607.6680542867
 21
593.3251144946
 31
0.0
  0
ARC
  5
222
330
1F
100
AcDbEntity
  8
0
  6
Continuous
 62
     7
370
    25
100
AcDbCircle
 10
629.3563559242
 20
596.1949130693
 30
0.0
 40
6.834138728231119
100
AcDbArc
 50
211.8771071303
 51
226.9488007428
  0
SPLINE
  5
223
330
1F
100
AcDbEntity
  8
0
  6
Continuous
 62
     7
370
    25
100
AcDbSpline
210
0.0
220
0.0
230
1.0
 70
     8
 71
     3
 72
    17
 73
    13
 74
     0
 42
0.00000001
 43
0.00000001
 40
0.0
 40
0.0
 40
0.0
 40
0.0
 40
0.2859834379244695
 40
0.5215922644122232
 40
0.7592399016809382
 40
0.8521492405060503
 40
0.9266708633836017
 40
0.9605058393195365
 40
0.9835417153308587
 40
0.9930790992390833
 40
0.9972256067114874
 40
1.0
 40
1.0
 40
1.0
 40
1.0
 10
623.552923133086
 20
592.5858106884431
 30
0.0
 10
624.7817013168333
 20
593.1176788124635
 30
0.0
 10
627.022814298664
 20
594.0877290405111
 30
0.0
 10
630.3617629855659
 20
595.1299597112958
 30
0.0
 10
632.8644183522727
 20
595.7477782722224
 30
0.0
 10
634.6347246363089
 20
596.1017535814406
 30
0.0
 10
635.4998454716462
 20
596.2564546160534
 30
0.0
 10
636.0254329009216
 20
596.344954606885
 30
0.0
 10
636.2590950145789
 20
596.3840663697076
 30
0.0
 10
636.3367451740683
 20
596.3983861364696
 30
0.0
 10
636.3528268282683
 20
596.402119888787
 30
0.0
 10
636.3538872162442
 20
596.402853729982
 30
0.0
 10
636.3543122957802
 20
596.4031479061531
 30
0.0
  0
SPLINE
  5
224
330
1F
100
AcDbEntity
  8
0
  6
Continuous
 62
     7
370
    25
100
AcDbSpline
210
0.0
220
0.0
230
1.0
 70
     8
 71
     3
 72
    10
 73
     6
 74
     0
 42
0.00000001
 43
0.00000001
 40
0.0
 40
0.0
 40
0.0
 40
0.0
 40
0.5975855365574468
 40
0.9790563563182108
 40
1.0
 40
1.0
 40
1.0
 40
1.0
 10
636.4643376154678
 20
596.3940210088136
 30
0.0
 10
636.4668567548212
 20
596.3977603065401
 30
0.0
 10
636.4709839956017
 20
596.4038865980637
 30
0.0
 10
636.3966128690466
 20
596.40426315692
 30
0.0
 10
636.356404916942
 20
596.4032030779197
 30
0.0
 10
636.3543122957802
 20
596.4031479061531
 30
0.0
  0
SPLINE
  5
225
330
1F
100
AcDbEntity
  8
0
  6
Continuous
 62
     7
370
    25
100
AcDbSpline
210
0.0
220
0.0
230
1.0
 70
     8
 71
     3
 72
    15
 73
    11
 74
     0
 42
0.00000001
 43
0.00000001
 40
0.0
 40
0.0
 40
0.0
 40
0.0
 40
0.0128981401598393
 40
0.0519443541565597
 40
0.1318327952014331
 40
0.2279057212361199
 40
0.4677439605522724
 40
0.7076088995729
 40
0.8538517081976991
 40
1.0
 40
1.0
 40
1.0
 40
1.0
 10
636.4643376154678
 20
596.3940210088136
 30
0.0
 10
636.4308690119435
 20
596.3861761115261
 30
0.0
 10
636.2960817501331
 20
596.3545825547825
 30
0.0
 10
635.8568113701665
 20
596.2521918114736
 30
0.0
 10
635.0453557501818
 20
596.0498703159849
 30
0.0
 10
633.392089418393
 20
595.5822214167547
 30
0.0
 10
631.0457302876288
 20
594.7506346387196
 30
0.0
 10
628.5021344458016
 20
593.5570440436445
 30
0.0
 10
626.3833570261603
 20
592.3501219989543
 30
0.0
 10
625.2550107845801
 20
591.583896332452
 30
0.0
 10
624.6910200354513
 20
591.2009073422577
 30
0.0
  0
LINE
  5
226
330
1F
100
AcDbEntity
  8
0
  6
Continuous
 62
     7
370
    25
100
AcDbLine
 10
622.112254771
 20
592.0616670065
 30
0.0
 11
620.0121722549
 21
591.9456760578
 31
0.0
  0
LINE
  5
227
330
1F
100
AcDbEntity
  8
0
  6
Continuous
 62
     7
370
    25
100
AcDbLine
 10
619.8164282192
 20
595.4897338622
 30
0.0
 11
620.0121722549
 21
591.9456760578
 31
0.0
  0
LINE
  5
228
330
1F
100
AcDbEntity
  8
0
  6
Continuous
 62
     7
370
    25
100
AcDbLine
 10
622.112254771
 20
592.0616670065
 30
0.0
 11
623.5529231331
 21
592.5858106884
 31
0.0
  0
LWPOLYLINE
  5
229
330
1F
100
AcDbEntity
  8
0
  6
Continuous
 62
     7
370
    25
100
AcDbPolyline
 90
        4
 70
   128
 43
0.0
 10
636.4838644295
 20
596.2429254326
 10
636.4816197939
 20
596.2602835794
 10
636.4726447599
 20
596.3297163256
 10
636.4643376155
 20
596.3940210088
  0
LINE
  5
22A
330
1F
100
AcDbEntity
  8
0
  6
Continuous
 62
     7
370
    25
100
AcDbLine
 10
634.6957401458
 20
595.8133979293
 30
0.0
 11
636.4838644295
 21
596.2429254326
 31
0.0
  0
ARC
  5
22B
330
1F
100
AcDbEntity
  8
0
  6
Continuous
 62
     7
370
    25
100
AcDbCircle
 10
642.8812985443
 20
565.3877043354
 30
0.0
 40
31.50755777528349
100
AcDbArc
 50
105.0579972479
 51
125.1719294169
  0
LINE
  5
22C
330
1F
100
AcDbEntity
  8
0
  6
Continuous
 62
     7
370
    25
100
AcDbLine
 10
624.6910200355
 20
591.2009073423
 30
0.0
 11
624.7319399217
 21
591.1428393292
 31
0.0
  0
SPLINE
  5
22D
330
1F
100
AcDbEntity
  8
0
  6
Continuous
 62
     7
370
    25
100
AcDbSpline
210
0.0
220
0.0
230
1.0
 70
     8
 71
     3
 72
     9
 73
     5
 74
     0
 42
0.00000001
 43
0.00000001
 40
0.0
 40
0.0
 40
0.0
 40
0.0
 40
0.499897873060973
 40
0.9999999999999999
 40
0.9999999999999999
 40
0.9999999999999999
 40
0.9999999999999999
 10
620.0121722549122
 20
591.9456760577523
 30
0.0
 10
619.8639773390164
 20
591.9257097197501
 30
0.0
 10
619.5675269560844
 20
591.8857688856754
 30
0.0
 10
619.3187937273078
 20
591.7196029431047
 30
0.0
 10
619.1944017105561
 20
591.6365030018004
 30
0.0
  0
ARC
  5
22E
330
1F
100
AcDbEntity
  8
0
  6
Continuous
 62
     7
370
    25
100
AcDbCircle
 10
636.5656729304
 20
595.904319569
 30
0.0
 40
0.5000763403934364
100
AcDbArc
 50
93.1626296401
 51
101.6913635617
  0
SPLINE
  5
22F
330
1F
100
AcDbEntity
  8
0
  6
Continuous
 62
     7
370
    25
100
AcDbSpline
210
0.0
220
0.0
230
1.0
 70
     8
 71
     3
 72
    13
 73
     9
 74
     0
 42
0.00000001
 43
0.00000001
 40
0.0
 40
0.0
 40
0.0
 40
0.0
 40
0.0460329529079877
 40
0.2492425848193723
 40
0.4775225570272884
 40
0.7051721168687842
 40
0.852680826381466
 40
1.0
 40
1.0
 40
1.0
 40
1.0
 10
607.6513057360552
 20
609.6287842175308
 30
0.0
 10
607.7796403880936
 20
609.6912931859673
 30
0.0
 10
608.474500447579
 20
610.0297441408446
 30
0.0
 10
609.8341636821558
 20
610.6477215648736
 30
0.0
 10
611.8421362989741
 20
611.4581938915867
 30
0.0
 10
613.8566465608773
 20
612.1508186928514
 30
0.0
 10
615.7189298421227
 20
612.7010524945496
 30
0.0
 10
616.8112994053613
 20
612.9685686056554
 30
0.0
 10
617.3571330613684
 20
613.1022406722158
 30
0.0
  0
LINE
  5
230
330
1F
100
AcDbEntity
  8
0
  6
Continuous
 62
     7
370
    25
100
AcDbLine
 10
617.8105931393
 20
611.154638143
 30
0.0
 11
617.3571330614
 21
613.1022406722
 31
0.0
  0
SPLINE
  5
231
330
1F
100
AcDbEntity
  8
0
  6
Continuous
 62
     7
370
    25
100
AcDbSpline
210
0.0
220
0.0
230
1.0
 70
     8
 71
     3
 72
    13
 73
     9
 74
     0
 42
0.00000001
 43
0.00000001
 40
0.0
 40
0.0
 40
0.0
 40
0.0
 40
0.2574896950994369
 40
0.4890886589321034
 40
0.7206004760683483
 40
0.9447506334961274
 40
0.9460032291293298
 40
0.9999999999999999
 40
0.9999999999999999
 40
0.9999999999999999
 40
0.9999999999999999
 10
617.8105931392554
 20
611.1546381430018
 30
0.0
 10
616.8918675632674
 20
611.1827011071165
 30
0.0
 10
615.1467947761294
 20
611.2360052887819
 30
0.0
 10
612.6522295302159
 20
611.0714411699438
 30
0.0
 10
610.3365797242147
 20
610.6580671749338
 30
0.0
 10
608.8594711226115
 20
610.1585099883702
 30
0.0
 10
607.9882096780702
 20
609.7842671334405
 30
0.0
 10
607.8181632692473
 20
609.7052867149553
 30
0.0
 10
607.6519720971921
 20
609.6280969147806
 30
0.0
  0
LINE
  5
232
330
1F
100
AcDbEntity
  8
0
  6
Continuous
 62
     7
370
    25
100
AcDbLine
 10
607.6519720972
 20
609.6280969148
 30
0.0
 11
607.6513057361
 21
609.6287842175
 31
0.0
  0
ARC
  5
233
330
1F
100
AcDbEntity
  8
0
  6
Continuous
 62
     7
370
    25
100
AcDbCircle
 10
628.2666636174
 20
566.2460115584
 30
0.0
 40
48.10950076354642
100
AcDbArc
 50
102.8580809319
 51
103.1066633214
  0
LWPOLYLINE
  5
234
330
1F
100
AcDbEntity
  8
0
  6
Continuous
 62
     7
370
    25
100
AcDbPolyline
 90
        3
 70
   128
 43
0.0
 10
607.6513057361
 20
609.6287842175
 10
607.6079488594
 20
609.6561756899
 10
607.5033707863
 20
609.72217372
  0
ARC
  5
235
330
1F
100
AcDbEntity
  8
0
  6
Continuous
 62
     7
370
    25
100
AcDbCircle
 10
628.2666636174
 20
566.2460115584
 30
0.0
 40
48.17977797259051
100
AcDbArc
 50
102.8580809319
 51
115.5281512988
  0
LINE
  5
236
330
1F
100
AcDbEntity
  8
0
  6
Continuous
 62
     7
370
    25
100
AcDbLine
 10
617.5605246529
 20
613.149131414
 30
0.0
 11
617.5448853809
 21
613.2176463707
 31
0.0
  0
LINE
  5
237
330
1F
100
AcDbEntity
  8
0
  6
Continuous
 62
     7
370
    25
100
AcDbLine
 10
619.8224696043
 20
607.4692751197
 30
0.0
 11
619.9658314332
 21
610.0649230892
 31
0.0
  0
LINE
  5
238
330
1F
100
AcDbEntity
  8
0
  6
Continuous
 62
     7
370
    25
100
AcDbLine
 10
619.9658314332
 20
610.0649230892
 30
0.0
 11
623.915912455
 21
609.8467537355
 31
0.0
  0
SPLINE
  5
239
330
1F
100
AcDbEntity
  8
0
  6
Continuous
 62
     7
370
    25
100
AcDbSpline
210
0.0
220
0.0
230
1.0
 70
     8
 71
     3
 72
    17
 73
    13
 74
     0
 42
0.00000001
 43
0.00000001
 40
0.0
 40
0.0
 40
0.0
 40
0.0
 40
0.0068263121770683
 40
0.008844850729726
 40
0.0223990310416119
 40
0.0309593028397531
 40
0.0563218912149136
 40
0.1198824177066677
 40
0.1957460556357049
 40
0.5558621944880022
 40
0.7780336097977192
 40
1.0
 40
1.0
 40
1.0
 40
1.0
 10
636.3563780277055
 20
606.5560806575251
 30
0.0
 10
636.3527578825439
 20
606.5571188405702
 30
0.0
 10
636.3480672614965
 20
606.5584640140439
 30
0.0
 10
636.3045345487928
 20
606.5660540021187
 30
0.0
 10
636.2300026263606
 20
606.5778055089254
 30
0.0
 10
636.0631703808585
 20
606.6035244041485
 30
0.0
 10
635.6815942637913
 20
606.6620389831708
 30
0.0
 10
634.9986932970569
 20
606.771235967758
 30
0.0
 10
632.8936939801392
 20
607.1384082001821
 30
0.0
 10
630.080759398353
 20
607.7725858841474
 30
0.0
 10
626.6819751837864
 20
608.7855261760059
 30
0.0
 10
624.8376495690227
 20
609.4931200966926
 30
0.0
 10
623.9159124550321
 20
609.8467537355197
 30
0.0
  0
LINE
  5
23A
330
1F
100
AcDbEntity
  8
0
  6
Continuous
 62
     7
370
    25
100
AcDbLine
 10
623.915912455
 20
609.8467537355
 30
0.0
 11
625.0453878725
 21
611.4969255252
 31
0.0
  0
SPLINE
  5
23B
330
1F
100
AcDbEntity
  8
0
  6
Continuous
 62
     7
370
    25
100
AcDbSpline
210
0.0
220
0.0
230
1.0
 70
     8
 71
     3
 72
    15
 73
    11
 74
     0
 42
0.00000001
 43
0.00000001
 40
0.0
 40
0.0
 40
0.0
 40
0.0
 40
0.2255198391625371
 40
0.4515645943751955
 40
0.6337799820516983
 40
0.8158790324473555
 40
0.8946729146060259
 40
0.9638048440471934
 40
0.9940832206369729
 40
1.0
 40
1.0
 40
1.0
 40
1.0
 10
625.0453878725241
 20
611.4969255251584
 30
0.0
 10
625.8908364133781
 20
610.951917855817
 30
0.0
 10
627.5837013463859
 20
609.8606339667745
 30
0.0
 10
630.0600175400652
 20
608.6435305771818
 30
0.0
 10
632.3884284547765
 20
607.7126307687466
 30
0.0
 10
634.1289079445988
 20
607.1568402239332
 30
0.0
 10
635.3865768009686
 20
606.8202873969686
 30
0.0
 10
636.0307096988809
 20
606.6649402906444
 30
0.0
 10
636.358654988963
 20
606.5893868923769
 30
0.0
 10
636.451192432587
 20
606.5678661843268
 30
0.0
 10
636.4663194191224
 20
606.5643482196181
 30
0.0
  0
SPLINE
  5
23C
330
1F
100
AcDbEntity
  8
0
  6
Continuous
 62
     7
370
    25
100
AcDbSpline
210
0.0
220
0.0
230
1.0
 70
     8
 71
     3
 72
    11
 73
     7
 74
     0
 42
0.00000001
 43
0.00000001
 40
0.0
 40
0.0
 40
0.0
 40
0.0
 40
0.0195561212295859
 40
0.1681891996744558
 40
0.5898876540792811
 40
1.0
 40
1.0
 40
1.0
 40
1.0
 10
636.3563780277054
 20
606.5560806575251
 30
0.0
 10
636.3583367408534
 20
606.5560225438094
 30
0.0
 10
636.3751823306762
 20
606.5555227463686
 30
0.0
 10
636.4270828944353
 20
606.5546763289551
 30
0.0
 10
636.4763675265009
 20
606.5567656274771
 30
0.0
 10
636.4696375414245
 20
606.5618442686607
 30
0.0
 10
636.4663194191224
 20
606.5643482196181
 30
0.0
  0
LINE
  5
23D
330
1F
100
AcDbEntity
  8
0
  6
Continuous
 62
     7
370
    25
100
AcDbLine
 10
617.0040173652
 20
608.5342490976
 30
0.0
 11
618.6129743585
 21
610.5761105986
 31
0.0
  0
LINE
  5
23E
330
1F
100
AcDbEntity
  8
0
  6
Continuous
 62
     7
370
    25
100
AcDbLine
 10
607.6519720972
 20
609.6280969148
 30
0.0
 11
607.6525399827
 21
609.6275098739
 31
0.0
  0
ARC
  5
23F
330
1F
100
AcDbEntity
  8
0
  6
Continuous
 62
     7
370
    25
100
AcDbCircle
 10
611.4386842105
 20
601.4715124574
 30
0.0
 40
11.5915549620674
100
AcDbArc
 50
51.762407147
 51
56.6533814372
  0
LWPOLYLINE
  5
240
330
1F
100
AcDbEntity
  8
0
  6
Continuous
 62
     7
370
    25
100
AcDbPolyline
 90
        4
 70
   128
 43
0.0
 10
636.4663194191
 20
606.5643482196
 10
636.4685616654
 20
606.5817064746
 10
636.4775341483
 20
606.6511393362
 10
636.4838644295
 20
606.7000994823
  0
ARC
  5
241
330
1F
100
AcDbEntity
  8
0
  6
Continuous
 62
     7
370
    25
100
AcDbCircle
 10
642.8812985443
 20
637.5553205794
 30
0.0
 40
31.57783498432761
100
AcDbArc
 50
234.8280705831
 51
235.6099480104
  0
LINE
  5
242
330
1F
100
AcDbEntity
  8
0
  6
Continuous
 62
     7
370
    25
100
AcDbLine
 10
624.6914580068
 20
611.7427390828
 30
0.0
 11
624.7319399217
 21
611.8001855856
 31
0.0
  0
ARC
  5
243
330
1F
100
AcDbEntity
  8
0
  6
Continuous
 62
     7
370
    25
100
AcDbCircle
 10
642.8812985443
 20
637.5553205794
 30
0.0
 40
31.5075577752834
100
AcDbArc
 50
234.8280705831
 51
254.9420027521
  0
LINE
  5
244
330
1F
100
AcDbEntity
  8
0
  6
Continuous
 62
     7
370
    25
100
AcDbLine
 10
636.4838644295
 20
606.7000994823
 30
0.0
 11
634.6957401458
 21
607.1296269856
 31
0.0
  0
LINE
  5
245
330
1F
100
AcDbEntity
  8
0
  6
Continuous
 62
     7
370
    25
100
AcDbLine
 10
636.5577018389
 20
596.2532437288
 30
0.0
 11
636.4838644295
 21
596.2429254326
 31
0.0
  0
SPLINE
  5
246
330
1F
100
AcDbEntity
  8
0
  6
Continuous
 62
     7
370
    25
100
AcDbSpline
210
0.0
220
0.0
230
1.0
 70
     8
 71
     3
 72
    10
 73
     6
 74
     0
 42
0.00000001
 43
0.00000001
 40
0.0
 40
0.0
 40
0.0
 40
0.0
 40
0.0490769085761621
 40
0.5995805843665267
 40
1.0
 40
1.0
 40
1.0
 40
1.0
 10
618.6129743584953
 20
610.5761105985531
 30
0.0
 10
618.6319218968644
 20
610.5614878629517
 30
0.0
 10
618.863407058771
 20
610.3828395207627
 30
0.0
 10
619.3092808335881
 20
610.1487875273414
 30
0.0
 10
619.7712874104726
 20
610.0897731543238
 30
0.0
 10
619.9658314332263
 20
610.0649230891914
 30
0.0
  0
ARC
  5
247
330
1F
100
AcDbEntity
  8
0
  6
Continuous
 62
     7
370
    25
100
AcDbCircle
 10
636.5676728201
 20
607.0540459166
 30
0.0
 40
0.5000763405127392
100
AcDbArc
 50
258.3065203379
 51
266.8373700346
  0
SPLINE
  5
248
330
1F
100
AcDbEntity
  8
0
  6
Continuous
 62
     7
370
    25
100
AcDbSpline
210
0.0
220
0.0
230
1.0
 70
     8
 71
     3
 72
     9
 73
     5
 74
     0
 42
0.00000001
 43
0.00000001
 40
0.0
 40
0.0
 40
0.0
 40
0.0
 40
0.845891190778427
 40
0.9999999999999999
 40
0.9999999999999999
 40
0.9999999999999999
 40
0.9999999999999999
 10
636.483864429533
 20
606.7000994823043
 30
0.0
 10
636.5047050256441
 20
606.696284675312
 30
0.0
 10
636.5293424687789
 20
606.6917748671547
 30
0.0
 10
636.5539149959551
 20
606.6900474034036
 30
0.0
 10
636.5577018388578
 20
606.6897811860221
 30
0.0
  0
LINE
  5
249
330
1F
100
AcDbEntity
  8
0
  6
Continuous
 62
     7
370
    25
100
AcDbLine
 10
654.5531220365
 20
605.6235253328
 30
0.0
 11
654.5526640167
 21
605.6235504192
 31
0.0
  0
LINE
  5
24A
330
1F
100
AcDbEntity
  8
0
  6
Continuous
 62
     7
370
    25
100
AcDbLine
 10
624.6910200355
 20
591.2009073423
 30
0.0
 11
622.8522791861
 21
590.2039411066
 31
0.0
  0
LINE
  5
24B
330
1F
100
AcDbEntity
  8
0
  6
Continuous
 62
     7
370
    25
100
AcDbLine
 10
622.112254771
 20
592.0616670065
 30
0.0
 11
622.8522791861
 21
590.2039411066
 31
0.0
  0
LINE
  5
24C
330
1F
100
AcDbEntity
  8
0
  6
Continuous
 62
     7
370
    25
100
AcDbLine
 10
619.1254844442
 20
591.5825455195
 30
0.0
 11
619.0036506976
 21
589.5865650105
 31
0.0
  0
LINE
  5
24D
330
1F
100
AcDbEntity
  8
0
  6
Continuous
 62
     7
370
    25
100
AcDbLine
 10
619.0036506976
 20
589.5865650105
 30
0.0
 11
617.5607434578
 21
589.7948520758
 31
0.0
  0
ARC
  5
24E
330
1F
100
AcDbEntity
  8
0
  6
Continuous
 62
     7
370
    25
100
AcDbCircle
 10
619.5476994158
 20
598.4996179816
 30
0.0
 40
6.929946387144257
100
AcDbArc
 50
266.5070253286
 51
291.7198462835
  0
ARC
  5
24F
330
1F
100
AcDbEntity
  8
0
  6
Continuous
 62
     7
370
    25
100
AcDbCircle
 10
619.5476994158
 20
598.4996179816
 30
0.0
 40
8.929641777457107
100
AcDbArc
 50
266.5070253286
 51
291.7198462835
  0
ARC
  5
250
330
1F
100
AcDbEntity
  8
0
  6
Continuous
 62
     7
370
    25
100
AcDbCircle
 10
642.8812985443
 20
637.5553205794
 30
0.0
 40
33.5775303746404
100
AcDbArc
 50
234.8280705831
 51
235.6099480104
  0
ARC
  5
251
330
1F
100
AcDbEntity
  8
0
  6
Continuous
 62
     7
370
    25
100
AcDbCircle
 10
628.2666636174
 20
566.2460115584
 30
0.0
 40
46.10980537323357
100
AcDbArc
 50
102.8580809319
 51
103.1066633214
  0
ARC
  5
252
330
1F
100
AcDbEntity
  8
0
  6
Continuous
 62
     7
370
    25
100
AcDbCircle
 10
619.5476994158
 20
604.4434069332
 30
0.0
 40
6.92994638714431
100
AcDbArc
 50
54.8280705831
 51
102.8580809319
  0
LINE
  5
253
330
1F
100
AcDbEntity
  8
0
  6
Continuous
 62
     7
370
    25
100
AcDbLine
 10
623.5395696557
 20
610.1081336624
 30
0.0
 11
624.6914580068
 21
611.7427390828
 31
0.0
  0
LINE
  5
254
330
1F
100
AcDbEntity
  8
0
  6
Continuous
 62
     7
370
    25
100
AcDbLine
 10
618.0055306578
 20
611.1995798477
 30
0.0
 11
617.5605246529
 21
613.149131414
 31
0.0
  0
ARC
  5
255
330
1F
100
AcDbEntity
  8
0
  6
Continuous
 62
     7
370
    25
100
AcDbCircle
 10
619.5476994158
 20
604.4434069332
 30
0.0
 40
8.929641777457157
100
AcDbArc
 50
54.8280705831
 51
102.8580809319
  0
ARC
  5
256
330
1F
100
AcDbEntity
  8
0
  6
Continuous
 62
     7
370
    25
100
AcDbCircle
 10
619.5476994158
 20
598.4996179816
 30
0.0
 40
8.999918986501244
100
AcDbArc
 50
257.1419190681
 51
305.1719294169
  0
ARC
  5
257
330
1F
100
AcDbEntity
  8
0
  6
Continuous
 62
     7
370
    25
100
AcDbCircle
 10
619.5476994158
 20
604.4434069332
 30
0.0
 40
8.999918986501271
100
AcDbArc
 50
54.8280705831
 51
102.8580809319
  0
SPLINE
  5
258
330
1F
100
AcDbEntity
  8
0
  6
Continuous
 62
     7
370
    25
100
AcDbSpline
210
0.0
220
0.0
230
1.0
 70
    24
 71
     3
 72
    10
 73
     6
 74
     0
 42
0.00000001
 43
0.00000001
 40
0.0
 40
0.0
 40
0.0
 40
0.0
 40
0.4437372333136388
 40
0.9398817041310648
 40
1.0
 40
1.0
 40
1.0
 40
1.0
 10
611.3081316599172
 20
591.7260911685999
 30
0.0
 10
610.7246359035239
 20
591.7260911685999
 30
0.0
 10
609.488731082608
 20
591.7260911685999
 30
0.0
 10
608.2177978864318
 20
591.7260911685999
 30
0.0
 10
607.5327691823395
 20
591.7260911685999
 30
0.0
 10
607.4587344621
 20
591.7260911685999
 30
0.0
  0
ARC
  5
259
330
1F
100
AcDbEntity
  8
0
  6
Continuous
 62
     7
370
    25
100
AcDbCircle
 10
611.4386842105
 20
601.2260911686
 30
0.0
 40
10.30000000000001
100
AcDbArc
 50
232.7308609266
 51
247.2691390734
  0
SPLINE
  5
25A
330
1F
100
AcDbEntity
  8
0
  6
Continuous
 62
     7
370
    25
100
AcDbSpline
210
0.0
220
0.0
230
1.0
 70
    24
 71
     3
 72
    11
 73
     7
 74
     0
 42
0.00000001
 43
0.00000001
 40
0.0
 40
0.0
 40
0.0
 40
0.0
 40
0.243164119738092
 40
0.4936284730588937
 40
0.7421706076863289
 40
1.0
 40
1.0
 40
1.0
 40
1.0
 10
605.2014177487875
 20
593.0293535806771
 30
0.0
 10
604.8876587470909
 20
593.5728001129479
 30
0.0
 10
604.2507211220708
 20
594.6760084407347
 30
0.0
 10
603.2403321530643
 20
596.4260534704613
 30
0.0
 10
602.2086250252282
 20
598.2130226344041
 30
0.0
 10
601.55451928233
 20
599.3459670146264
 30
0.0
 10
601.221468000361
 20
599.9228287565227
 30
0.0
  0
ARC
  5
25B
330
1F
100
AcDbEntity
  8
0
  6
Continuous
 62
     7
370
    25
100
AcDbCircle
 10
611.4386842105
 20
601.2260911686
 30
0.0
 40
10.30000000000007
100
AcDbArc
 50
172.7308609266
 51
187.2691390734
  0
SPLINE
  5
25C
330
1F
100
AcDbEntity
  8
0
  6
Continuous
 62
     7
370
    25
100
AcDbSpline
210
0.0
220
0.0
230
1.0
 70
    24
 71
     3
 72
    11
 73
     7
 74
     0
 42
0.00000001
 43
0.00000001
 40
0.0
 40
0.0
 40
0.0
 40
0.0
 40
0.2431641197380916
 40
0.4936284730588936
 40
0.7421706076863288
 40
0.9999999999999999
 40
0.9999999999999999
 40
0.9999999999999999
 40
0.9999999999999999
 10
601.221468000361
 20
602.529353580677
 30
0.0
 10
601.5352270020577
 20
603.0728001129479
 30
0.0
 10
602.1721646270777
 20
604.1760084407347
 30
0.0
 10
603.1825535960843
 20
605.9260534704613
 30
0.0
 10
604.2142607239202
 20
607.7130226344041
 30
0.0
 10
604.8683664668185
 20
608.8459670146265
 30
0.0
 10
605.2014177487875
 20
609.4228287565227
 30
0.0
  0
ARC
  5
25D
330
1F
100
AcDbEntity
  8
0
  6
Continuous
 62
     7
370
    25
100
AcDbCircle
 10
611.4386842105
 20
601.2260911686
 30
0.0
 40
10.30000000000002
100
AcDbArc
 50
112.7308609266
 51
127.2691390734
  0
SPLINE
  5
25E
330
1F
100
AcDbEntity
  8
0
  6
Continuous
 62
     7
370
    25
100
AcDbSpline
210
0.0
220
0.0
230
1.0
 70
    24
 71
     3
 72
    10
 73
     6
 74
     0
 42
0.00000001
 43
0.00000001
 40
0.0
 40
0.0
 40
0.0
 40
0.0
 40
0.0961556470175504
 40
0.8897092884853156
 40
1.0
 40
1.0
 40
1.0
 40
1.0
 10
607.4587344621
 20
610.7260911685999
 30
0.0
 10
607.5327899356016
 20
610.7260911685999
 30
0.0
 10
608.2180106655445
 20
610.7260911685999
 30
0.0
 10
609.0068464331748
 20
610.7260911685999
 30
0.0
 10
609.7471244220601
 20
610.7260911685999
 30
0.0
 10
609.8374561100808
 20
610.7260911685999
 30
0.0
  0
SPLINE
  5
25F
330
1F
100
AcDbEntity
  8
0
  6
Continuous
 62
     7
370
    25
100
AcDbSpline
210
0.0
220
0.0
230
1.0
 70
    24
 71
     3
 72
    10
 73
     6
 74
     0
 42
0.00000001
 43
0.00000001
 40
0.0
 40
0.0
 40
0.0
 40
0.0
 40
0.0652408164628142
 40
0.5240482937362186
 40
1.0
 40
1.0
 40
1.0
 40
1.0
 10
510.6716842531595
 20
610.6955449256611
 30
0.0
 10
510.7662951955742
 20
610.6838164433268
 30
0.0
 10
511.5262596722524
 20
610.589607150914
 30
0.0
 10
513.000183896452
 20
610.4068915602604
 30
0.0
 10
514.2968847788792
 20
610.246145530211
 30
0.0
 10
514.9571264843092
 20
610.1642984099852
 30
0.0
  0
ARC
  5
260
330
1F
100
AcDbEntity
  8
0
  6
Continuous
 62
     7
370
    25
100
AcDbCircle
 10
509.8386842105
 20
601.2260911686
 30
0.0
 40
10.30000000000003
100
AcDbArc
 50
45.6642188199
 51
60.2024969667
  0
SPLINE
  5
261
330
1F
100
AcDbEntity
  8
0
  6
Continuous
 62
     7
370
    25
100
AcDbSpline
210
0.0
220
0.0
230
1.0
 70
    24
 71
     3
 72
    11
 73
     7
 74
     0
 42
0.00000001
 43
0.00000001
 40
0.0
 40
0.0
 40
0.0
 40
0.0
 40
0.2431641197380915
 40
0.4936284730588936
 40
0.7421706076863288
 40
1.0
 40
1.0
 40
1.0
 40
1.0
 10
517.0369638291525
 20
608.5932324413103
 30
0.0
 10
517.2814826217244
 20
608.0153142769807
 30
0.0
 10
517.7778611102184
 20
606.8421277833554
 30
0.0
 10
518.5652778517097
 20
604.9810747615476
 30
0.0
 10
519.3693082693939
 20
603.0807554520765
 30
0.0
 10
519.879066222482
 20
601.8759467034226
 30
0.0
 10
520.1386198827475
 20
601.2624937523925
 30
0.0
  0
ARC
  5
262
330
1F
100
AcDbEntity
  8
0
  6
Continuous
 62
     7
370
    25
100
AcDbCircle
 10
509.8386842105
 20
601.2260911686
 30
0.0
 40
10.29999999999994
100
AcDbArc
 50
345.6642188199
 51
0.2024969667
  0
SPLINE
  5
263
330
1F
100
AcDbEntity
  8
0
  6
Continuous
 62
     7
370
    25
100
AcDbSpline
210
0.0
220
0.0
230
1.0
 70
    24
 71
     3
 72
    13
 73
     9
 74
     0
 42
0.00000001
 43
0.00000001
 40
0.0
 40
0.0
 40
0.0
 40
0.0
 40
0.0290865078712628
 40
0.2691317361521215
 40
0.5086847447945269
 40
0.7393528760311809
 40
0.9704551097945746
 40
1.0
 40
1.0
 40
1.0
 40
1.0
 10
519.8179555152755
 20
598.6757687916812
 30
0.0
 10
519.773332248931
 20
598.6166948013823
 30
0.0
 10
519.3604419426334
 20
598.0700947887262
 30
0.0
 10
518.5547089145125
 20
597.0034345241207
 30
0.0
 10
517.3904424692008
 20
595.4621339800389
 30
0.0
 10
516.2427291306204
 20
593.9427470730923
 30
0.0
 10
515.465393402735
 20
592.9136802429447
 30
0.0
 10
515.0655057058874
 20
592.3842935830398
 30
0.0
 10
515.0201776089648
 20
592.3242865110071
 30
0.0
  0
ARC
  5
264
330
1F
100
AcDbEntity
  8
0
  6
Continuous
 62
     7
370
    25
100
AcDbCircle
 10
509.8386842105
 20
601.2260911686
 30
0.0
 40
10.29999999999999
100
AcDbArc
 50
285.6642188199
 51
300.2024969667
  0
SPLINE
  5
265
330
1F
100
AcDbEntity
  8
0
  6
Continuous
 62
     7
370
    25
100
AcDbSpline
210
0.0
220
0.0
230
1.0
 70
    24
 71
     3
 72
     9
 73
     5
 74
     0
 42
0.00000001
 43
0.00000001
 40
0.0
 40
0.0
 40
0.0
 40
0.0
 40
0.8959140818523544
 40
1.0
 40
1.0
 40
1.0
 40
1.0
 10
512.6196758966495
 20
591.3086275189708
 30
0.0
 10
512.001601222494
 20
591.3852473867374
 30
0.0
 10
511.3117195846503
 20
591.4707688327319
 30
0.0
 10
510.5833054374931
 20
591.5610669762546
 30
0.0
 10
510.5074877821945
 20
591.57046574143
 30
0.0
  0
LWPOLYLINE
  5
266
330
1F
100
AcDbEntity
  8
0
  6
Continuous
 62
     7
370
    25
100
AcDbPolyline
 90
        3
 70
   128
 43
0.0
 10
602.9949365236
 20
596.3510911686
 10
602.3222758443
 20
597.7686935199
 10
602.3150313475
 20
597.7878563838
  0
LWPOLYLINE
  5
267
330
1F
100
AcDbEntity
  8
0
  6
Continuous
 62
     7
370
    25
100
AcDbPolyline
 90
        3
 70
   128
 43
0.0
 10
604.1069375502
 20
594.7989618787
 10
603.8862858327
 20
595.0597487565
 10
602.9949365236
 20
596.3510911686
  0
ARC
  5
268
330
1F
100
AcDbEntity
  8
0
  6
Continuous
 62
     7
370
    25
100
AcDbCircle
 10
611.4386842105
 20
601.2260911686
 30
0.0
 40
10.57500000000003
100
AcDbArc
 50
84.5490172093
 51
281.0490866707
  0
ARC
  5
269
330
1F
100
AcDbEntity
  8
0
  6
Continuous
 62
     7
370
    25
100
AcDbCircle
 10
611.4386842105
 20
601.2260911686
 30
0.0
 40
14.87499999999998
100
AcDbArc
 50
55.1611835908
 51
308.4167037132
  0
SPLINE
  5
26A
330
1F
100
AcDbEntity
  8
0
  6
Continuous
 62
     7
370
    25
100
AcDbSpline
210
0.0
220
0.0
230
1.0
 70
     8
 71
     3
 72
     9
 73
     5
 74
     0
 42
0.00000001
 43
0.00000001
 40
0.0
 40
0.0
 40
0.0
 40
0.0
 40
0.5850553834534129
 40
1.0
 40
1.0
 40
1.0
 40
1.0
 10
600.3122735626116
 20
587.9975997166637
 30
0.0
 10
600.5720484824205
 20
587.6110531910996
 30
0.0
 10
601.0160661381088
 20
586.9503524497744
 30
0.0
 10
601.6879173301417
 20
586.4721936176484
 30
0.0
 10
601.9666983653962
 20
586.2737841844033
 30
0.0
  0
SPLINE
  5
26B
330
1F
100
AcDbEntity
  8
0
  6
Continuous
 62
     7
370
    25
100
AcDbSpline
210
0.0
220
0.0
230
1.0
 70
    24
 71
     3
 72
    11
 73
     7
 74
     0
 42
0.00000001
 43
0.00000001
 40
0.0
 40
0.0
 40
0.0
 40
0.0
 40
0.2379053903768482
 40
0.4814905141303173
 40
0.7366519444348056
 40
0.9999999999999999
 40
0.9999999999999999
 40
0.9999999999999999
 40
0.9999999999999999
 10
594.4192692354461
 20
598.2045826205376
 30
0.0
 10
594.8760013462213
 20
597.4134993992268
 30
0.0
 10
595.8003695519548
 20
595.8124467019951
 30
0.0
 10
597.2766956444746
 20
593.2553749012113
 30
0.0
 10
598.808829028938
 20
590.601642035348
 30
0.0
 10
599.8058779935845
 20
588.8747025709464
 30
0.0
 10
600.3122735626116
 20
587.9975997166637
 30
0.0
  0
SPLINE
  5
26C
330
1F
100
AcDbEntity
  8
0
  6
Continuous
 62
     7
370
    25
100
AcDbSpline
210
0.0
220
0.0
230
1.0
 70
     8
 71
     3
 72
     9
 73
     5
 74
     0
 42
0.00000001
 43
0.00000001
 40
0.0
 40
0.0
 40
0.0
 40
0.0
 40
0.5841917497409947
 40
1.0
 40
1.0
 40
1.0
 40
1.0
 10
593.7536135944637
 20
600.4992642945286
 30
0.0
 10
593.8103057428718
 20
600.0189061689624
 30
0.0
 10
593.9073494762579
 20
599.1966451120761
 30
0.0
 10
594.2689236930308
 20
598.4959411210117
 30
0.0
 10
594.4192692354461
 20
598.2045826205376
 30
0.0
  0
ARC
  5
26D
330
1F
100
AcDbEntity
  8
0
  6
Continuous
 62
     7
370
    25
100
AcDbCircle
 10
611.4386842105
 20
601.2260911686
 30
0.0
 40
17.70000000000003
100
AcDbArc
 50
177.6465635726
 51
182.3534364274
  0
SPLINE
  5
26E
330
1F
100
AcDbEntity
  8
0
  6
Continuous
 62
     7
370
    25
100
AcDbSpline
210
0.0
220
0.0
230
1.0
 70
     8
 71
     3
 72
     9
 73
     5
 74
     0
 42
0.00000001
 43
0.00000001
 40
0.0
 40
0.0
 40
0.0
 40
0.0
 40
0.585055383453618
 40
1.0
 40
1.0
 40
1.0
 40
1.0
 10
594.4192692354462
 20
604.2475997166623
 30
0.0
 10
594.2143975844679
 20
603.8293547740599
 30
0.0
 10
593.8642227860255
 20
603.1144738338426
 30
0.0
 10
593.7860506863769
 20
602.2935542179168
 30
0.0
 10
593.7536135944637
 20
601.9529180426712
 30
0.0
  0
SPLINE
  5
26F
330
1F
100
AcDbEntity
  8
0
  6
Continuous
 62
     7
370
    25
100
AcDbSpline
210
0.0
220
0.0
230
1.0
 70
    24
 71
     3
 72
    11
 73
     7
 74
     0
 42
0.00000001
 43
0.00000001
 40
0.0
 40
0.0
 40
0.0
 40
0.0
 40
0.2328716322111471
 40
0.4710265024313225
 40
0.7311421212560291
 40
1.0
 40
1.0
 40
1.0
 40
1.0
 10
600.3122735626124
 20
614.4545826205374
 30
0.0
 10
599.8653453474521
 20
613.6804802445439
 30
0.0
 10
598.9613493045426
 20
612.1147131683832
 30
0.0
 10
597.4975129342611
 20
609.5792742010884
 30
0.0
 10
595.953963479022
 20
606.9057681206192
 30
0.0
 10
594.936439468529
 20
605.143364836524
 30
0.0
 10
594.4192692354462
 20
604.2475997166623
 30
0.0
  0
SPLINE
  5
270
330
1F
100
AcDbEntity
  8
0
  6
Continuous
 62
     7
370
    25
100
AcDbSpline
210
0.0
220
0.0
230
1.0
 70
     8
 71
     3
 72
     9
 73
     5
 74
     0
 42
0.00000001
 43
0.00000001
 40
0.0
 40
0.0
 40
0.0
 40
0.0
 40
0.5841917497409241
 40
1.0
 40
1.0
 40
1.0
 40
1.0
 10
601.9666983653962
 20
616.1783981527964
 30
0.0
 10
601.5790420999456
 20
615.8891222492966
 30
0.0
 10
600.9154650028323
 20
615.393949382463
 30
0.0
 10
600.4894246544239
 20
614.7304649298518
 30
0.0
 10
600.3122735626124
 20
614.4545826205374
 30
0.0
  0
ARC
  5
271
330
1F
100
AcDbEntity
  8
0
  6
Continuous
 62
     7
370
    25
100
AcDbCircle
 10
611.4386842105
 20
601.2260911686
 30
0.0
 40
17.70000000000005
100
AcDbArc
 50
117.6465635726
 51
122.3534364274
  0
SPLINE
  5
272
330
1F
100
AcDbEntity
  8
0
  6
Continuous
 62
     7
370
    25
100
AcDbSpline
210
0.0
220
0.0
230
1.0
 70
     8
 71
     3
 72
     9
 73
     5
 74
     0
 42
0.00000001
 43
0.00000001
 40
0.0
 40
0.0
 40
0.0
 40
0.0
 40
0.5850553834536188
 40
1.0
 40
1.0
 40
1.0
 40
1.0
 10
605.5456798833602
 20
617.4760911686
 30
0.0
 10
605.0810333125729
 20
617.4443927515612
 30
0.0
 10
604.2868408584424
 20
617.3902125526687
 30
0.0
 10
603.5368175667613
 20
617.0474517688687
 30
0.0
 10
603.225599439594
 20
616.9052250268676
 30
0.0
  0
SPLINE
  5
273
330
1F
100
AcDbEntity
  8
0
  6
Continuous
 62
     7
370
    25
100
AcDbSpline
210
0.0
220
0.0
230
1.0
 70
    24
 71
     3
 72
    11
 73
     7
 74
     0
 42
0.00000001
 43
0.00000001
 40
0.0
 40
0.0
 40
0.0
 40
0.0
 40
0.2328716322111483
 40
0.4710265024313251
 40
0.731142121256031
 40
1.0
 40
1.0
 40
1.0
 40
1.0
 10
617.3316885376927
 20
617.4760911686
 30
0.0
 10
616.4378321073723
 20
617.4760911686
 30
0.0
 10
614.6298400215529
 20
617.4760911686
 30
0.0
 10
611.7021672809899
 20
617.4760911686
 30
0.0
 10
608.6150683705121
 20
617.4760911686
 30
0.0
 10
606.5800203495259
 20
617.4760911686
 30
0.0
 10
605.5456798833602
 20
617.4760911686
 30
0.0
  0
SPLINE
  5
274
330
1F
100
AcDbEntity
  8
0
  6
Continuous
 62
     7
370
    25
100
AcDbSpline
210
0.0
220
0.0
230
1.0
 70
     8
 71
     3
 72
     9
 73
     5
 74
     0
 42
0.00000001
 43
0.00000001
 40
0.0
 40
0.0
 40
0.0
 40
0.0
 40
0.584191749740921
 40
1.0
 40
1.0
 40
1.0
 40
1.0
 10
619.6517689814589
 20
616.9052250268676
 30
0.0
 10
619.2074205676001
 20
617.0963072489342
 30
0.0
 10
618.4467997371011
 20
617.423395438987
 30
0.0
 10
617.6591851719194
 20
617.4606149774402
 30
0.0
 10
617.3316885376927
 20
617.4760911686
 30
0.0
  0
ARC
  5
275
330
1F
100
AcDbEntity
  8
0
  6
Continuous
 62
     7
370
    25
100
AcDbCircle
 10
611.4386842105
 20
601.2260911686
 30
0.0
 40
17.70000000000005
100
AcDbArc
 50
57.6465635726
 51
62.3534364274
  0
SPLINE
  5
276
330
1F
100
AcDbEntity
  8
0
  6
Continuous
 62
     7
370
    25
100
AcDbSpline
210
0.0
220
0.0
230
1.0
 70
     8
 71
     3
 72
     9
 73
     5
 74
     0
 42
0.00000001
 43
0.00000001
 40
0.0
 40
0.0
 40
0.0
 40
0.0
 40
0.5850553834536193
 40
1.0
 40
1.0
 40
1.0
 40
1.0
 10
622.5650948584405
 20
614.4545826205374
 30
0.0
 10
622.3053199386316
 20
614.8411291461014
 30
0.0
 10
621.8613022829433
 20
615.501829887426
 30
0.0
 10
621.1894510909109
 20
615.9799887195518
 30
0.0
 10
620.9106700556569
 20
616.1783981527964
 30
0.0
  0
LINE
  5
277
330
1F
100
AcDbEntity
  8
0
  6
Continuous
 62
     7
370
    25
100
AcDbLine
 10
623.853188742
 20
612.2235385692
 30
0.0
 11
622.5650948584
 21
614.4545826205
 31
0.0
  0
SPLINE
  5
278
330
1F
100
AcDbEntity
  8
0
  6
Continuous
 62
     7
370
    25
100
AcDbSpline
210
0.0
220
0.0
230
1.0
 70
    24
 71
     3
 72
     9
 73
     5
 74
     0
 42
0.00000001
 43
0.00000001
 40
0.0
 40
0.0
 40
0.0
 40
0.0
 40
0.7932492733713054
 40
1.0
 40
1.0
 40
1.0
 40
1.0
 10
622.5650948584405
 20
587.9975997166623
 30
0.0
 10
623.0099524693863
 20
588.7681157009544
 30
0.0
 10
623.5707567788
 20
589.7394572579624
 30
0.0
 10
624.1566041796798
 20
590.7541747217683
 30
0.0
 10
624.2777285555052
 20
590.9639682947329
 30
0.0
  0
SPLINE
  5
279
330
1F
100
AcDbEntity
  8
0
  6
Continuous
 62
     7
370
    25
100
AcDbSpline
210
0.0
220
0.0
230
1.0
 70
     8
 71
     3
 72
     9
 73
     5
 74
     0
 42
0.00000001
 43
0.00000001
 40
0.0
 40
0.0
 40
0.0
 40
0.0
 40
0.5841917497409247
 40
1.0
 40
1.0
 40
1.0
 40
1.0
 10
620.9106700556569
 20
586.2737841844033
 30
0.0
 10
621.2983263211074
 20
586.5630600879032
 30
0.0
 10
621.9619034182206
 20
587.0582329547367
 30
0.0
 10
622.387943766629
 20
587.7217174073479
 30
0.0
 10
622.5650948584405
 20
587.9975997166623
 30
0.0
  0
ARC
  5
27A
330
1F
100
AcDbEntity
  8
0
  6
Continuous
 62
     7
370
    25
100
AcDbCircle
 10
611.4386842105
 20
601.2260911686
 30
0.0
 40
17.70000000000005
100
AcDbArc
 50
297.6465635726
 51
302.3534364274
  0
SPLINE
  5
27B
330
1F
100
AcDbEntity
  8
0
  6
Continuous
 62
     7
370
    25
100
AcDbSpline
210
0.0
220
0.0
230
1.0
 70
     8
 71
     3
 72
     9
 73
     5
 74
     0
 42
0.00000001
 43
0.00000001
 40
0.0
 40
0.0
 40
0.0
 40
0.0
 40
0.5850553834536198
 40
1.0
 40
1.0
 40
1.0
 40
1.0
 10
617.3316885376927
 20
584.9760911685999
 30
0.0
 10
617.79633510848
 20
585.0077895856385
 30
0.0
 10
618.5905275626105
 20
585.061969784531
 30
0.0
 10
619.3405508542916
 20
585.404730568331
 30
0.0
 10
619.6517689814589
 20
585.5469573103321
 30
0.0
  0
SPLINE
  5
27C
330
1F
100
AcDbEntity
  8
0
  6
Continuous
 62
     7
370
    25
100
AcDbSpline
210
0.0
220
0.0
230
1.0
 70
    24
 71
     3
 72
    11
 73
     7
 74
     0
 42
0.00000001
 43
0.00000001
 40
0.0
 40
0.0
 40
0.0
 40
0.0
 40
0.2328716322111492
 40
0.4710265024313262
 40
0.7311421212560313
 40
1.0
 40
1.0
 40
1.0
 40
1.0
 10
605.5456798833602
 20
584.9760911685999
 30
0.0
 10
606.4395363136806
 20
584.9760911685999
 30
0.0
 10
608.2475283995
 20
584.9760911685999
 30
0.0
 10
611.175201140063
 20
584.9760911685999
 30
0.0
 10
614.2623000505408
 20
584.9760911685999
 30
0.0
 10
616.297348071527
 20
584.9760911685999
 30
0.0
 10
617.3316885376927
 20
584.9760911685999
 30
0.0
  0
SPLINE
  5
27D
330
1F
100
AcDbEntity
  8
0
  6
Continuous
 62
     7
370
    25
100
AcDbSpline
210
0.0
220
0.0
230
1.0
 70
     8
 71
     3
 72
     9
 73
     5
 74
     0
 42
0.00000001
 43
0.00000001
 40
0.0
 40
0.0
 40
0.0
 40
0.0
 40
0.5841917497409255
 40
1.0
 40
1.0
 40
1.0
 40
1.0
 10
603.225599439594
 20
585.5469573103321
 30
0.0
 10
603.6699478534528
 20
585.3558750882656
 30
0.0
 10
604.430568683952
 20
585.0287868982128
 30
0.0
 10
605.2181832491334
 20
584.9915673597595
 30
0.0
 10
605.5456798833603
 20
584.9760911685999
 30
0.0
  0
ARC
  5
27E
330
1F
100
AcDbEntity
  8
0
  6
Continuous
 62
     7
370
    25
100
AcDbCircle
 10
611.4386842105
 20
601.2260911686
 30
0.0
 40
17.70000000000005
100
AcDbArc
 50
237.6465635726
 51
242.3534364274
  0
ARC
  5
27F
330
1F
100
AcDbEntity
  8
0
  6
Continuous
 62
     7
370
    25
100
AcDbCircle
 10
611.4386842105
 20
601.2260911686
 30
0.0
 40
16.20000000000008
100
AcDbArc
 50
210.0
 51
318.1420914366
  0
ARC
  5
280
330
1F
100
AcDbEntity
  8
0
  6
Continuous
 62
     7
370
    25
100
AcDbCircle
 10
611.4386842105
 20
601.2260911686
 30
0.0
 40
16.20000000000008
100
AcDbArc
 50
45.9729863763
 51
210.0
  0
ARC
  5
281
330
1F
100
AcDbEntity
  8
0
  6
Continuous
 62
     7
370
    25
100
AcDbCircle
 10
509.8386842105
 20
601.2260911686
 30
0.0
 40
9.750000000000044
100
AcDbArc
 50
73.5821997222
 51
87.1796091085
  0
LINE
  5
282
330
1F
100
AcDbEntity
  8
0
  6
Continuous
 62
     7
370
    25
100
AcDbLine
 10
508.5377084229
 20
590.7314217122
 30
0.0
 11
508.303150872
 21
590.7631679458
 31
0.0
  0
ARC
  5
283
330
1F
100
AcDbEntity
  8
0
  6
Continuous
 62
     7
370
    25
100
AcDbCircle
 10
509.8386842105
 20
601.2260911686
 30
0.0
 40
10.57500000000006
100
AcDbArc
 50
262.9333578933
 51
98.3490982393
  0
ARC
  5
284
330
1F
100
AcDbEntity
  8
0
  6
Continuous
 62
     7
370
    25
100
AcDbCircle
 10
509.8386842105
 20
601.2260911686
 30
0.0
 40
14.87500000000003
100
AcDbArc
 50
233.3837470415
 51
262.9333578933
  0
ARC
  5
285
330
1F
100
AcDbEntity
  8
0
  6
Continuous
 62
     7
370
    25
100
AcDbCircle
 10
509.8386842105
 20
601.2260911686
 30
0.0
 40
14.87500000000005
100
AcDbArc
 50
262.9333578933
 51
126.6156955593
  0
SPLINE
  5
286
330
1F
100
AcDbEntity
  8
0
  6
Continuous
 62
     7
370
    25
100
AcDbSpline
210
0.0
220
0.0
230
1.0
 70
     8
 71
     3
 72
     9
 73
     5
 74
     0
 42
0.00000001
 43
0.00000001
 40
0.0
 40
0.0
 40
0.0
 40
0.0
 40
0.5850553834534096
 40
1.0
 40
1.0
 40
1.0
 40
1.0
 10
505.9895800998491
 20
618.0776310847366
 30
0.0
 10
505.5245634523259
 20
618.1033360047627
 30
0.0
 10
504.7297384482752
 20
618.1472718794732
 30
0.0
 10
503.9432448301666
 20
617.8993854505372
 30
0.0
 10
503.6168935373843
 20
617.7965263113354
 30
0.0
  0
SPLINE
  5
287
330
1F
100
AcDbEntity
  8
0
  6
Continuous
 62
     7
370
    25
100
AcDbSpline
210
0.0
220
0.0
230
1.0
 70
    24
 71
     3
 72
    11
 73
     7
 74
     0
 42
0.00000001
 43
0.00000001
 40
0.0
 40
0.0
 40
0.0
 40
0.0
 40
0.2379053903768481
 40
0.4814905141303175
 40
0.7366519444348052
 40
1.0
 40
1.0
 40
1.0
 40
1.0
 10
517.6860590632552
 20
616.6276725134087
 30
0.0
 10
516.7795337615568
 20
616.7400502755913
 30
0.0
 10
514.9448408489852
 20
616.9674886972444
 30
0.0
 10
512.0146178038937
 20
617.3307349385643
 30
0.0
 10
508.9736280293063
 20
617.7077124206577
 30
0.0
 10
506.9946778040853
 20
617.9530337562724
 30
0.0
 10
505.9895800998491
 20
618.0776310847366
 30
0.0
  0
SPLINE
  5
288
330
1F
100
AcDbEntity
  8
0
  6
Continuous
 62
     7
370
    25
100
AcDbSpline
210
0.0
220
0.0
230
1.0
 70
     8
 71
     3
 72
     9
 73
     5
 74
     0
 42
0.00000001
 43
0.00000001
 40
0.0
 40
0.0
 40
0.0
 40
0.0
 40
0.5841917497409934
 40
1.0
 40
1.0
 40
1.0
 40
1.0
 10
519.9182854785112
 20
615.7757179087757
 30
0.0
 10
519.5008200995425
 20
616.0200140115921
 30
0.0
 10
518.786216753717
 20
616.438191952182
 30
0.0
 10
518.0091640064537
 20
616.57202403092
 30
0.0
 10
517.6860590632551
 20
616.6276725134087
 30
0.0
  0
ARC
  5
289
330
1F
100
AcDbEntity
  8
0
  6
Continuous
 62
     7
370
    25
100
AcDbCircle
 10
509.8386842105
 20
601.2260911686
 30
0.0
 40
17.69999999999999
100
AcDbArc
 50
50.5799214659
 51
55.2867943207
  0
SPLINE
  5
28A
330
1F
100
AcDbEntity
  8
0
  6
Continuous
 62
     7
370
    25
100
AcDbSpline
210
0.0
220
0.0
230
1.0
 70
     8
 71
     3
 72
     9
 73
     5
 74
     0
 42
0.00000001
 43
0.00000001
 40
0.0
 40
0.0
 40
0.0
 40
0.0
 40
0.5850553834536202
 40
1.0
 40
1.0
 40
1.0
 40
1.0
 10
522.507993815449
 20
612.9852830683274
 30
0.0
 10
522.2977466054322
 20
613.4008517582781
 30
0.0
 10
521.9383836870437
 20
614.1111583407037
 30
0.0
 10
521.3304609332779
 20
614.6683385794316
 30
0.0
 10
521.0782066593266
 20
614.8995375199378
 30
0.0
  0
SPLINE
  5
28B
330
1F
100
AcDbEntity
  8
0
  6
Continuous
 62
     7
370
    25
100
AcDbSpline
210
0.0
220
0.0
230
1.0
 70
    24
 71
     3
 72
    11
 73
     7
 74
     0
 42
0.00000001
 43
0.00000001
 40
0.0
 40
0.0
 40
0.0
 40
0.0
 40
0.232871632211147
 40
0.4710265024313224
 40
0.7311421212560292
 40
1.0
 40
1.0
 40
1.0
 40
1.0
 10
527.1005323399477
 20
602.1308558655223
 30
0.0
 10
526.7522320618795
 20
602.9540607211462
 30
0.0
 10
526.047729498744
 20
604.6191467612416
 30
0.0
 10
524.9069319444153
 20
607.3154124410056
 30
0.0
 10
523.7040123563581
 20
610.1585030388836
 30
0.0
 10
522.9110351314391
 20
612.0326982177484
 30
0.0
 10
522.507993815449
 20
612.9852830683274
 30
0.0
  0
SPLINE
  5
28C
330
1F
100
AcDbEntity
  8
0
  6
Continuous
 62
     7
370
    25
100
AcDbSpline
210
0.0
220
0.0
230
1.0
 70
     8
 71
     3
 72
     9
 73
     5
 74
     0
 42
0.00000001
 43
0.00000001
 40
0.0
 40
0.0
 40
0.0
 40
0.0
 40
0.5841917497409242
 40
1.0
 40
1.0
 40
1.0
 40
1.0
 10
527.4788312170925
 20
599.7717137805953
 30
0.0
 10
527.4816651586926
 20
600.2553974553907
 30
0.0
 10
527.4865162056329
 20
601.0833510768001
 30
0.0
 10
527.2138918120297
 20
601.8232145353796
 30
0.0
 10
527.1005323399477
 20
602.1308558655223
 30
0.0
  0
ARC
  5
28D
330
1F
100
AcDbEntity
  8
0
  6
Continuous
 62
     7
370
    25
100
AcDbCircle
 10
509.8386842105
 20
601.2260911686
 30
0.0
 40
17.70000000000001
100
AcDbArc
 50
350.5799214659
 51
355.2867943207
  0
SPLINE
  5
28E
330
1F
100
AcDbEntity
  8
0
  6
Continuous
 62
     7
370
    25
100
AcDbSpline
210
0.0
220
0.0
230
1.0
 70
     8
 71
     3
 72
     9
 73
     5
 74
     0
 42
0.00000001
 43
0.00000001
 40
0.0
 40
0.0
 40
0.0
 40
0.0
 40
0.585055383453619
 40
0.9999999999999999
 40
0.9999999999999999
 40
0.9999999999999999
 40
0.9999999999999999
 10
526.357097926128
 20
596.1337431521905
 30
0.0
 10
526.6118673636342
 20
596.5236069221152
 30
0.0
 10
527.0473294492958
 20
597.1899776298307
 30
0.0
 10
527.225900313638
 20
597.9950442974944
 30
0.0
 10
527.2999973324688
 20
598.3291023772024
 30
0.0
  0
SPLINE
  5
28F
330
1F
100
AcDbEntity
  8
0
  6
Continuous
 62
     7
370
    25
100
AcDbSpline
210
0.0
220
0.0
230
1.0
 70
    24
 71
     3
 72
    11
 73
     7
 74
     0
 42
0.00000001
 43
0.00000001
 40
0.0
 40
0.0
 40
0.0
 40
0.0
 40
0.2328716322111486
 40
0.4710265024313255
 40
0.7311421212560308
 40
1.0
 40
1.0
 40
1.0
 40
1.0
 10
519.2531574872191
 20
586.7292745207134
 30
0.0
 10
519.7919236656741
 20
587.4425138374776
 30
0.0
 10
520.8816791943159
 20
588.8851739742319
 30
0.0
 10
522.6463149911792
 20
591.2212664767377
 30
0.0
 10
524.5070438801738
 20
593.6845706976442
 30
0.0
 10
525.7336559042614
 20
595.3084067084789
 30
0.0
 10
526.357097926128
 20
596.1337431521905
 30
0.0
  0
SPLINE
  5
290
330
1F
100
AcDbEntity
  8
0
  6
Continuous
 62
     7
370
    25
100
AcDbSpline
210
0.0
220
0.0
230
1.0
 70
     8
 71
     3
 72
     9
 73
     5
 74
     0
 42
0.00000001
 43
0.00000001
 40
0.0
 40
0.0
 40
0.0
 40
0.0
 40
0.584191749740921
 40
1.0
 40
1.0
 40
1.0
 40
1.0
 10
517.3992299491078
 20
585.2220870404193
 30
0.0
 10
517.8195292696765
 20
585.4614746123985
 30
0.0
 10
518.5389836624425
 20
585.8712502932179
 30
0.0
 10
519.0434120161027
 20
586.4772816730595
 30
0.0
 10
519.2531574872191
 20
586.7292745207134
 30
0.0
  0
ARC
  5
291
330
1F
100
AcDbEntity
  8
0
  6
Continuous
 62
     7
370
    25
100
AcDbCircle
 10
509.8386842105
 20
601.2260911686
 30
0.0
 40
17.70000000000003
100
AcDbArc
 50
290.5799214659
 51
295.2867943207
  0
SPLINE
  5
292
330
1F
100
AcDbEntity
  8
0
  6
Continuous
 62
     7
370
    25
100
AcDbSpline
210
0.0
220
0.0
230
1.0
 70
     8
 71
     3
 72
     9
 73
     5
 74
     0
 42
0.00000001
 43
0.00000001
 40
0.0
 40
0.0
 40
0.0
 40
0.0
 40
0.585055383453617
 40
1.0
 40
1.0
 40
1.0
 40
1.0
 10
513.6877883212053
 20
584.374551252463
 30
0.0
 10
514.1528049687286
 20
584.348846332437
 30
0.0
 10
514.9476299727786
 20
584.3049104577267
 30
0.0
 10
515.7341235908866
 20
584.5527968866626
 30
0.0
 10
516.0604748836686
 20
584.6556560258645
 30
0.0
  0
SPLINE
  5
293
330
1F
100
AcDbEntity
  8
0
  6
Continuous
 62
     7
370
    25
100
AcDbSpline
210
0.0
220
0.0
230
1.0
 70
    24
 71
     3
 72
    11
 73
     7
 74
     0
 42
0.00000001
 43
0.00000001
 40
0.0
 40
0.0
 40
0.0
 40
0.0
 40
0.255627964438097
 40
0.5185037642963863
 40
0.7560467972580102
 40
0.9999999999999999
 40
0.9999999999999999
 40
0.9999999999999999
 40
0.9999999999999999
 10
501.9913093577979
 20
585.824509823791
 30
0.0
 10
502.9664315256778
 20
585.7036284243687
 30
0.0
 10
504.9443235603226
 20
585.4584382677613
 30
0.0
 10
507.961649511587
 20
585.0843942807448
 30
0.0
 10
510.9224180072148
 20
584.7173614607497
 30
0.0
 10
512.7578531539646
 20
584.4898310277473
 30
0.0
 10
513.6877883212053
 20
584.374551252463
 30
0.0
  0
SPLINE
  5
294
330
1F
100
AcDbEntity
  8
0
  6
Continuous
 62
     7
370
    25
100
AcDbSpline
210
0.0
220
0.0
230
1.0
 70
     8
 71
     3
 72
     9
 73
     5
 74
     0
 42
0.00000001
 43
0.00000001
 40
0.0
 40
0.0
 40
0.0
 40
0.0
 40
0.5841917497409234
 40
1.0
 40
1.0
 40
1.0
 40
1.0
 10
499.7590829425417
 20
586.6764644284241
 30
0.0
 10
500.1765483215104
 20
586.4321683256077
 30
0.0
 10
500.891151667336
 20
586.0139903850177
 30
0.0
 10
501.6682044145994
 20
585.8801583062796
 30
0.0
 10
501.9913093577979
 20
585.824509823791
 30
0.0
  0
ARC
  5
295
330
1F
100
AcDbEntity
  8
0
  6
Continuous
 62
     7
370
    25
100
AcDbCircle
 10
509.8386842105
 20
601.2260911686
 30
0.0
 40
17.69999999999995
100
AcDbArc
 50
230.5799214659
 51
235.2867943207
  0
SPLINE
  5
296
330
1F
100
AcDbEntity
  8
0
  6
Continuous
 62
     7
370
    25
100
AcDbSpline
210
0.0
220
0.0
230
1.0
 70
     8
 71
     3
 72
     9
 73
     5
 74
     0
 42
0.00000001
 43
0.00000001
 40
0.0
 40
0.0
 40
0.0
 40
0.0
 40
0.5850553834536163
 40
0.9999999999999999
 40
0.9999999999999999
 40
0.9999999999999999
 40
0.9999999999999999
 10
497.1693746056038
 20
589.4668992688725
 30
0.0
 10
497.3796218156207
 20
589.0513305789217
 30
0.0
 10
497.7389847340092
 20
588.341023996496
 30
0.0
 10
498.3469074877751
 20
587.7838437577682
 30
0.0
 10
498.5991617617262
 20
587.552644817262
 30
0.0
  0
LINE
  5
297
330
1F
100
AcDbEntity
  8
0
  6
Continuous
 62
     7
370
    25
100
AcDbLine
 10
496.5689030972
 20
590.8861087628
 30
0.0
 11
497.1693746056
 21
589.4668992689
 31
0.0
  0
SPLINE
  5
298
330
1F
100
AcDbEntity
  8
0
  6
Continuous
 62
     7
370
    25
100
AcDbSpline
210
0.0
220
0.0
230
1.0
 70
    24
 71
     3
 72
     9
 73
     5
 74
     0
 42
0.00000001
 43
0.00000001
 40
0.0
 40
0.0
 40
0.0
 40
0.0
 40
0.6030926380744256
 40
1.0
 40
1.0
 40
1.0
 40
1.0
 10
500.4242109338337
 20
615.7229078164863
 30
0.0
 10
499.8864229166434
 20
615.0109634270951
 30
0.0
 10
498.9947058184089
 20
613.8304741548926
 30
0.0
 10
498.0632808907911
 20
612.5974181362384
 30
0.0
 10
497.6935914799386
 20
612.1080091247678
 30
0.0
  0
SPLINE
  5
299
330
1F
100
AcDbEntity
  8
0
  6
Continuous
 62
     7
370
    25
100
AcDbSpline
210
0.0
220
0.0
230
1.0
 70
     8
 71
     3
 72
     9
 73
     5
 74
     0
 42
0.00000001
 43
0.00000001
 40
0.0
 40
0.0
 40
0.0
 40
0.0
 40
0.5841917497409256
 40
1.0
 40
1.0
 40
1.0
 40
1.0
 10
502.278138471945
 20
617.2300952967804
 30
0.0
 10
501.8578391513763
 20
616.9907077248013
 30
0.0
 10
501.1383847586103
 20
616.5809320439818
 30
0.0
 10
500.6339564049501
 20
615.9749006641403
 30
0.0
 10
500.4242109338337
 20
615.7229078164863
 30
0.0
  0
ARC
  5
29A
330
1F
100
AcDbEntity
  8
0
  6
Continuous
 62
     7
370
    25
100
AcDbCircle
 10
509.8386842105
 20
601.2260911686
 30
0.0
 40
17.70000000000009
100
AcDbArc
 50
110.5799214659
 51
115.2867943207
  0
ARC
  5
29B
330
1F
100
AcDbEntity
  8
0
  6
Continuous
 62
     7
370
    25
100
AcDbCircle
 10
509.8386842105
 20
601.2260911686
 30
0.0
 40
16.20000000000004
100
AcDbArc
 50
82.9333578933
 51
136.0742282651
  0
ARC
  5
29C
330
1F
100
AcDbEntity
  8
0
  6
Continuous
 62
     7
370
    25
100
AcDbCircle
 10
509.8386842105
 20
601.2260911686
 30
0.0
 40
16.2
100
AcDbArc
 50
223.9250761661
 51
82.9333578933
  0
SPLINE
  5
29D
330
1F
100
AcDbEntity
  8
0
  6
Continuous
 62
     7
370
    25
100
AcDbSpline
210
0.0
220
0.0
230
1.0
 70
    24
 71
     3
 72
     9
 73
     5
 74
     0
 42
0.00000001
 43
0.00000001
 40
0.0
 40
0.0
 40
0.0
 40
0.0
 40
0.3298766609583439
 40
1.0
 40
1.0
 40
1.0
 40
1.0
 10
598.6567712103158
 20
588.5507926707554
 30
0.0
 10
598.9618995441524
 20
588.0222948937216
 30
0.0
 10
599.8868765732946
 20
586.4201876834132
 30
0.0
 10
600.786096171108
 20
584.8626936528387
 30
0.0
 10
601.3886842105264
 20
583.8189805525327
 30
0.0
  0
SPLINE
  5
29E
330
1F
100
AcDbEntity
  8
0
  6
Continuous
 62
     7
370
    25
100
AcDbSpline
210
0.0
220
0.0
230
1.0
 70
    24
 71
     3
 72
     9
 73
     5
 74
     0
 42
0.00000001
 43
0.00000001
 40
0.0
 40
0.0
 40
0.0
 40
0.0
 40
0.9623458213089284
 40
1.0
 40
1.0
 40
1.0
 40
1.0
 10
601.3886842105264
 20
618.6332017846671
 30
0.0
 10
600.5191740510483
 20
617.1271660107536
 30
0.0
 10
599.6156421395203
 20
615.5622028337274
 30
0.0
 10
598.6865345761333
 20
613.9529413282444
 30
0.0
 10
598.6515497939182
 20
613.8923459079564
 30
0.0
  0
SPLINE
  5
29F
330
1F
100
AcDbEntity
  8
0
  6
Continuous
 62
     7
370
    25
100
AcDbSpline
210
0.0
220
0.0
230
1.0
 70
    24
 71
     3
 72
    10
 73
     6
 74
     0
 42
0.00000001
 43
0.00000001
 40
0.0
 40
0.0
 40
0.0
 40
0.0
 40
0.6260175734446732
 40
0.9461500834964325
 40
1.0
 40
1.0
 40
1.0
 40
1.0
 10
621.4886842105263
 20
618.6332017846671
 30
0.0
 10
619.7439880412699
 20
618.6332017846671
 30
0.0
 10
617.1070901389718
 20
618.6332017846671
 30
0.0
 10
614.2468546136644
 20
618.6332017846672
 30
0.0
 10
613.1724818024069
 20
618.6332017846671
 30
0.0
 10
613.0177823243785
 20
618.6332017846671
 30
0.0
  0
SPLINE
  5
2A0
330
1F
100
AcDbEntity
  8
0
  6
Continuous
 62
     7
370
    25
100
AcDbSpline
210
0.0
220
0.0
230
1.0
 70
    24
 71
     3
 72
     9
 73
     5
 74
     0
 42
0.00000001
 43
0.00000001
 40
0.0
 40
0.0
 40
0.0
 40
0.0
 40
0.4359713323379118
 40
1.0
 40
1.0
 40
1.0
 40
1.0
 10
609.7292730711479
 20
618.6332017846671
 30
0.0
 10
608.4967976619408
 20
618.6332017846671
 30
0.0
 10
605.6698333232588
 20
618.6332017846671
 30
0.0
 10
602.9325758795497
 20
618.6332017846671
 30
0.0
 10
601.3886842105264
 20
618.6332017846671
 30
0.0
  0
SPLINE
  5
2A1
330
1F
100
AcDbEntity
  8
0
  6
Continuous
 62
     7
370
    25
100
AcDbSpline
210
0.0
220
0.0
230
1.0
 70
    24
 71
     3
 72
     9
 73
     5
 74
     0
 42
0.00000001
 43
0.00000001
 40
0.0
 40
0.0
 40
0.0
 40
0.0
 40
0.6624718833690423
 40
1.0
 40
1.0
 40
1.0
 40
1.0
 10
625.3127680399895
 20
612.0096942996347
 30
0.0
 10
624.4567194550208
 20
613.4924139425477
 30
0.0
 10
623.1645158061427
 20
615.7305763161305
 30
0.0
 10
621.911583942671
 20
617.9007179620854
 30
0.0
 10
621.4886842105263
 20
618.6332017846671
 30
0.0
  0
SPLINE
  5
2A2
330
1F
100
AcDbEntity
  8
0
  6
Continuous
 62
     7
370
    25
100
AcDbSpline
210
0.0
220
0.0
230
1.0
 70
    24
 71
     3
 72
    10
 73
     6
 74
     0
 42
0.00000001
 43
0.00000001
 40
0.0
 40
0.0
 40
0.0
 40
0.0
 40
0.632204710281534
 40
0.9555011948439746
 40
1.0
 40
1.0
 40
1.0
 40
1.0
 10
621.4886842105265
 20
583.8189805525327
 30
0.0
 10
622.3610430634229
 20
585.3299504081818
 30
0.0
 10
623.6795082895109
 20
587.613599167779
 30
0.0
 10
625.0955698600884
 20
590.066289754665
 30
0.0
 10
625.6186815048935
 20
590.9723457014985
 30
0.0
 10
625.681971720423
 20
591.0819675704175
 30
0.0
  0
SPLINE
  5
2A3
330
1F
100
AcDbEntity
  8
0
  6
Continuous
 62
     7
370
    25
100
AcDbSpline
210
0.0
220
0.0
230
1.0
 70
    24
 71
     3
 72
     9
 73
     5
 74
     0
 42
0.00000001
 43
0.00000001
 40
0.0
 40
0.0
 40
0.0
 40
0.0
 40
0.7043621865468928
 40
1.0
 40
1.0
 40
1.0
 40
1.0
 10
601.3886842105264
 20
583.8189805525327
 30
0.0
 10
603.1319376318864
 20
583.8189805525327
 30
0.0
 10
605.606876597458
 20
583.8189805525327
 30
0.0
 10
608.1517018293966
 20
583.8189805525327
 30
0.0
 10
608.9040483965873
 20
583.8189805525327
 30
0.0
  0
SPLINE
  5
2A4
330
1F
100
AcDbEntity
  8
0
  6
Continuous
 62
     7
370
    25
100
AcDbSpline
210
0.0
220
0.0
230
1.0
 70
    24
 71
     3
 72
     9
 73
     5
 74
     0
 42
0.00000001
 43
0.00000001
 40
0.0
 40
0.0
 40
0.0
 40
0.0
 40
0.4011862279665718
 40
1.0
 40
1.0
 40
1.0
 40
1.0
 10
613.6384787206972
 20
583.8189805525327
 30
0.0
 10
614.7063426581755
 20
583.8189805525327
 30
0.0
 10
617.3681088481336
 20
583.8189805525327
 30
0.0
 10
619.9453792184984
 20
583.8189805525327
 30
0.0
 10
621.4886842105265
 20
583.8189805525327
 30
0.0
  0
SPLINE
  5
2A5
330
1F
100
AcDbEntity
  8
0
  6
Continuous
 62
     7
370
    25
100
AcDbSpline
210
0.0
220
0.0
230
1.0
 70
    24
 71
     3
 72
     9
 73
     5
 74
     0
 42
0.00000001
 43
0.00000001
 40
0.0
 40
0.0
 40
0.0
 40
0.0
 40
0.3306358345621213
 40
1.0
 40
1.0
 40
1.0
 40
1.0
 10
522.6237348210465
 20
613.8959551659741
 30
0.0
 10
522.317555247272
 20
614.4262737439911
 30
0.0
 10
521.3915226102472
 20
616.0302093207853
 30
0.0
 10
520.4912766178896
 20
617.5894811188588
 30
0.0
 10
519.8886842105263
 20
618.6332017846671
 30
0.0
  0
SPLINE
  5
2A6
330
1F
100
AcDbEntity
  8
0
  6
Continuous
 62
     7
370
    25
100
AcDbSpline
210
0.0
220
0.0
230
1.0
 70
    24
 71
     3
 72
     9
 73
     5
 74
     0
 42
0.00000001
 43
0.00000001
 40
0.0
 40
0.0
 40
0.0
 40
0.0
 40
0.9639120830862293
 40
1.0
 40
1.0
 40
1.0
 40
1.0
 10
519.8886842105264
 20
583.8189805525327
 30
0.0
 10
520.7581815200683
 20
585.3249940697037
 30
0.0
 10
521.6602319505994
 20
586.8873912463728
 30
0.0
 10
522.5878164750854
 20
588.4940147710973
 30
0.0
 10
522.6212910683355
 20
588.5519944673692
 30
0.0
  0
SPLINE
  5
2A7
330
1F
100
AcDbEntity
  8
0
  6
Continuous
 62
     7
370
    25
100
AcDbSpline
210
0.0
220
0.0
230
1.0
 70
    24
 71
     3
 72
     9
 73
     5
 74
     0
 42
0.00000001
 43
0.00000001
 40
0.0
 40
0.0
 40
0.0
 40
0.0
 40
0.6746905598514228
 40
1.0
 40
1.0
 40
1.0
 40
1.0
 10
499.7886842105264
 20
583.8189805525327
 30
0.0
 10
501.5324244962351
 20
583.8189805525327
 30
0.0
 10
504.1169282516939
 20
583.8189805525327
 30
0.0
 10
506.7743917405732
 20
583.8189805525327
 30
0.0
 10
507.6388897003557
 20
583.8189805525327
 30
0.0
  0
SPLINE
  5
2A8
330
1F
100
AcDbEntity
  8
0
  6
Continuous
 62
     7
370
    25
100
AcDbSpline
210
0.0
220
0.0
230
1.0
 70
    24
 71
     3
 72
     9
 73
     5
 74
     0
 42
0.00000001
 43
0.00000001
 40
0.0
 40
0.0
 40
0.0
 40
0.0
 40
0.3748610078958908
 40
1.0
 40
1.0
 40
1.0
 40
1.0
 10
512.3733200244656
 20
583.8189805525327
 30
0.0
 10
513.3288281212351
 20
583.8189805525327
 30
0.0
 10
515.8777944758125
 20
583.8189805525327
 30
0.0
 10
518.3458232131704
 20
583.8189805525327
 30
0.0
 10
519.8886842105264
 20
583.8189805525327
 30
0.0
  0
SPLINE
  5
2A9
330
1F
100
AcDbEntity
  8
0
  6
Continuous
 62
     7
370
    25
100
AcDbSpline
210
0.0
220
0.0
230
1.0
 70
    24
 71
     3
 72
    10
 73
     6
 74
     0
 42
0.00000001
 43
0.00000001
 40
0.0
 40
0.0
 40
0.0
 40
0.0
 40
0.0797632091952436
 40
0.6917078881338741
 40
1.0
 40
1.0
 40
1.0
 40
1.0
 10
495.5953967006298
 20
591.0819675704176
 30
0.0
 10
495.7088716365238
 20
590.8854232160635
 30
0.0
 10
496.6929281840891
 20
589.1809872781597
 30
0.0
 10
498.1026190207493
 20
586.7393311260998
 30
0.0
 10
499.3655760549346
 20
584.5518253751145
 30
0.0
 10
499.7886842105264
 20
583.8189805525327
 30
0.0
  0
SPLINE
  5
2AA
330
1F
100
AcDbEntity
  8
0
  6
Continuous
 62
     7
370
    25
100
AcDbSpline
210
0.0
220
0.0
230
1.0
 70
    24
 71
     3
 72
     9
 73
     5
 74
     0
 42
0.00000001
 43
0.00000001
 40
0.0
 40
0.0
 40
0.0
 40
0.0
 40
0.6922870148049846
 40
1.0
 40
1.0
 40
1.0
 40
1.0
 10
499.7886842105264
 20
618.6332017846671
 30
0.0
 10
498.9169584326351
 20
617.1233284470918
 30
0.0
 10
497.6577613666076
 20
614.9423351519906
 30
0.0
 10
496.3630116740429
 20
612.6997629013841
 30
0.0
 10
495.9646003810634
 20
612.0096942996346
 30
0.0
  0
SPLINE
  5
2AB
330
1F
100
AcDbEntity
  8
0
  6
Continuous
 62
     7
370
    25
100
AcDbSpline
210
0.0
220
0.0
230
1.0
 70
    24
 71
     3
 72
    10
 73
     6
 74
     0
 42
0.00000001
 43
0.00000001
 40
0.0
 40
0.0
 40
0.0
 40
0.0
 40
0.6356305666134049
 40
0.9606789636350499
 40
1.0
 40
1.0
 40
1.0
 40
1.0
 10
519.8886842105263
 20
618.6332017846671
 30
0.0
 10
518.1439542248114
 20
618.6332017846671
 30
0.0
 10
515.5070052130137
 20
618.6332017846671
 30
0.0
 10
512.6902146352227
 20
618.6332017846671
 30
0.0
 10
511.6593422514697
 20
618.6332017846671
 30
0.0
 10
511.548095349905
 20
618.6332017846671
 30
0.0
  0
SPLINE
  5
2AC
330
1F
100
AcDbEntity
  8
0
  6
Continuous
 62
     7
370
    25
100
AcDbSpline
210
0.0
220
0.0
230
1.0
 70
    24
 71
     3
 72
     9
 73
     5
 74
     0
 42
0.00000001
 43
0.00000001
 40
0.0
 40
0.0
 40
0.0
 40
0.0
 40
0.4445456971929617
 40
1.0
 40
1.0
 40
1.0
 40
1.0
 10
508.2595860966743
 20
618.6332017846671
 30
0.0
 10
506.9833560334999
 20
618.6332017846671
 30
0.0
 10
504.1124924277262
 20
618.6332017846671
 30
0.0
 10
501.3327204926736
 20
618.6332017846671
 30
0.0
 10
499.7886842105264
 20
618.6332017846671
 30
0.0
  0
ARC
  5
2AD
330
1F
100
AcDbEntity
  8
0
  6
Continuous
 62
     7
370
    25
100
AcDbCircle
 10
611.4386842105
 20
601.2260911686
 30
0.0
 40
25.80000000000007
100
AcDbArc
 50
12.400215968
 51
90.0
  0
ARC
  5
2AE
330
1F
100
AcDbEntity
  8
0
  6
Continuous
 62
     7
370
    25
100
AcDbCircle
 10
611.4386842105
 20
601.2260911686
 30
0.0
 40
25.80000000000001
100
AcDbArc
 50
207.7177476896
 51
348.9141211324
  0
ARC
  5
2AF
330
1F
100
AcDbEntity
  8
0
  6
Continuous
 62
     7
370
    25
100
AcDbCircle
 10
611.4386842105
 20
601.2260911686
 30
0.0
 40
25.80000000000007
100
AcDbArc
 50
90.0
 51
152.2822523104
  0
ARC
  5
2B0
330
1F
100
AcDbEntity
  8
0
  6
Continuous
 62
     7
370
    25
100
AcDbCircle
 10
509.8386842105
 20
601.2260911686
 30
0.0
 40
25.80000000000004
100
AcDbArc
 50
191.7288923184
 51
270.0
  0
ARC
  5
2B1
330
1F
100
AcDbEntity
  8
0
  6
Continuous
 62
     7
370
    25
100
AcDbCircle
 10
509.8386842105
 20
601.2260911686
 30
0.0
 40
25.80000000000006
100
AcDbArc
 50
27.7177476896
 51
168.1324959273
  0
ARC
  5
2B2
330
1F
100
AcDbEntity
  8
0
  6
Continuous
 62
     7
370
    25
100
AcDbCircle
 10
509.8386842105
 20
601.2260911686
 30
0.0
 40
25.79999999999995
100
AcDbArc
 50
270.0
 51
332.2822523104
  0
SPLINE
  5
2B3
330
1F
100
AcDbEntity
  8
0
  6
Continuous
 62
     8
370
    25
100
AcDbSpline
210
0.0
220
0.0
230
1.0
 70
     8
 71
     3
 72
    16
 73
    12
 74
     0
 42
0.00000001
 43
0.00000001
 40
0.0
 40
0.0
 40
0.0
 40
0.0
 40
0.0972943154867509
 40
0.192072683980511
 40
0.2870939022568189
 40
0.2973997685862882
 40
0.4340548292666267
 40
0.5710799717662927
 40
0.7613056500857032
 40
0.9518083622882446
 40
1.0
 40
1.0
 40
1.0
 40
1.0
 10
538.8583522396611
 20
601.2260911685999
 30
0.0
 10
538.8927763868096
 20
601.756657657321
 30
0.0
 10
538.9607345023835
 20
602.8040706434649
 30
0.0
 10
539.47362126885
 20
604.2689407327941
 30
0.0
 10
539.9730211310114
 20
605.1928921913433
 30
0.0
 10
540.6623775153621
 20
606.2358467491496
 30
0.0
 10
541.5953439320945
 20
607.3486115508418
 30
0.0
 10
543.34169595693
 20
608.8571881560163
 30
0.0
 10
545.4848935721539
 20
610.1715346315
 30
0.0
 10
547.3371721217259
 20
611.1018531851716
 30
0.0
 10
548.4227888828264
 20
611.4038394750286
 30
0.0
 10
548.6419714887974
 20
611.4648095561382
 30
0.0
  0
SPLINE
  5
2B4
330
1F
100
AcDbEntity
  8
0
  6
Continuous
 62
     8
370
    25
100
AcDbSpline
210
0.0
220
0.0
230
1.0
 70
     8
 71
     3
 72
    23
 73
    19
 74
     0
 42
0.00000001
 43
0.00000001
 40
0.0
 40
0.0
 40
0.0
 40
0.0
 40
0.0734562751187568
 40
0.1803827076570147
 40
0.2871306388416817
 40
0.3579059145244633
 40
0.4284891639590255
 40
0.4743368582042833
 40
0.5200788954277762
 40
0.5851996823294728
 40
0.6100143174335756
 40
0.6477969226148363
 40
0.6856332129547343
 40
0.7023368726256349
 40
0.7625765207887003
 40
0.8229912273354296
 40
0.9113567430503744
 40
1.0
 40
1.0
 40
1.0
 40
1.0
 10
569.8479923000042
 20
612.2577412624086
 30
0.0
 10
570.5428628832826
 20
612.1086789488962
 30
0.0
 10
572.2492199927375
 20
611.742634473084
 30
0.0
 10
574.8672679116268
 20
610.6675619751245
 30
0.0
 10
577.3394678238245
 20
609.2829117243515
 30
0.0
 10
579.3152881797475
 20
607.7109556991263
 30
0.0
 10
580.6317089690809
 20
606.2622823916869
 30
0.0
 10
581.5557791565743
 20
604.7903114063733
 30
0.0
 10
582.221359522248
 20
603.2056406864391
 30
0.0
 10
582.4621746623773
 20
601.6767883439726
 30
0.0
 10
582.3781917458989
 20
600.2470620242995
 30
0.0
 10
582.1483137736569
 20
599.1471824002413
 30
0.0
 10
581.7858067945984
 20
598.1981285699258
 30
0.0
 10
581.2237160475926
 20
597.0917591104272
 30
0.0
 10
580.3872804199285
 20
595.8856255961065
 30
0.0
 10
578.8697522293724
 20
594.3424846904289
 30
0.0
 10
576.9395758191712
 20
592.8938877424796
 30
0.0
 10
575.372305087343
 20
592.1132643653175
 30
0.0
 10
574.5874401334779
 20
591.7223402457894
 30
0.0
  0
SPLINE
  5
2B5
330
1F
100
AcDbEntity
  8
0
  6
Continuous
 62
     8
370
    25
100
AcDbSpline
210
0.0
220
0.0
230
1.0
 70
     8
 71
     3
 72
    14
 73
    10
 74
     0
 42
0.00000001
 43
0.00000001
 40
0.0
 40
0.0
 40
0.0
 40
0.0
 40
0.0769482105964687
 40
0.3557517905498843
 40
0.5145635187348243
 40
0.6729151408068815
 40
0.7814302748978373
 40
0.8896874199506389
 40
1.0
 40
1.0
 40
1.0
 40
1.0
 10
546.6813433863699
 20
591.7837013955244
 30
0.0
 10
546.3917698395757
 20
591.9003947836214
 30
0.0
 10
545.0529952667905
 20
592.4398989701265
 30
0.0
 10
543.2615043267032
 20
593.6473213876169
 30
0.0
 10
541.3769742465539
 20
595.3256107137893
 30
0.0
 10
540.2183703846564
 20
596.7865701731043
 30
0.0
 10
539.4367330597172
 20
598.2717515946131
 30
0.0
 10
538.9539918208559
 20
599.6992218248104
 30
0.0
 10
538.8904313414893
 20
600.7139538657611
 30
0.0
 10
538.8583522396611
 20
601.2260911685999
 30
0.0
  0
SPLINE
  5
2B6
330
1F
100
AcDbEntity
  8
0
  6
Continuous
 62
     8
370
    25
100
AcDbSpline
210
0.0
220
0.0
230
1.0
 70
     8
 71
     3
 72
    13
 73
     9
 74
     0
 42
0.00000001
 43
0.00000001
 40
0.0
 40
0.0
 40
0.0
 40
0.0
 40
0.2467873741567919
 40
0.441227070744013
 40
0.6395935514046285
 40
0.7567081254724581
 40
0.8774280836143803
 40
1.0
 40
1.0
 40
1.0
 40
1.0
 10
588.8254137703623
 20
608.4260911685999
 30
0.0
 10
589.4762450476335
 20
609.0867069828432
 30
0.0
 10
590.6398555402698
 20
610.2678110875473
 30
0.0
 10
592.4156127407476
 20
611.5325981821443
 30
0.0
 10
593.7548169715318
 20
612.345717426217
 30
0.0
 10
594.7071235950092
 20
612.8559774917046
 30
0.0
 10
595.3320026249689
 20
613.1661495321604
 30
0.0
 10
595.39788436953
 20
613.1971173170525
 30
0.0
 10
595.4310759905051
 20
613.2127190741921
 30
0.0
  0
SPLINE
  5
2B7
330
1F
100
AcDbEntity
  8
0
  6
Continuous
 62
     8
370
    25
100
AcDbSpline
210
0.0
220
0.0
230
1.0
 70
     8
 71
     3
 72
    14
 73
    10
 74
     0
 42
0.00000001
 43
0.00000001
 40
0.0
 40
0.0
 40
0.0
 40
0.0
 40
0.0342345467031518
 40
0.123064236790742
 40
0.2396074403949735
 40
0.3607704619324265
 40
0.5547416753965471
 40
0.753354477842063
 40
1.0
 40
1.0
 40
1.0
 40
1.0
 10
525.8710867492911
 20
613.2008011796422
 30
0.0
 10
525.8542986261889
 20
613.2089098924762
 30
0.0
 10
525.7939497168072
 20
613.2380585931999
 30
0.0
 10
526.0472183312112
 20
613.1164064830234
 30
0.0
 10
526.5477972215032
 20
612.8669215068489
 30
0.0
 10
527.5088494929931
 20
612.3541787019915
 30
0.0
 10
528.8475207708188
 20
611.5414265433739
 30
0.0
 10
530.6268730107782
 20
610.2787385491379
 30
0.0
 10
531.8013610513516
 20
609.0865112294084
 30
0.0
 10
532.4519546506816
 20
608.4260911686099
 30
0.0
  0
SPLINE
  5
2B8
330
1F
100
AcDbEntity
  8
0
  6
Continuous
 62
     8
370
    25
100
AcDbSpline
210
0.0
220
0.0
230
1.0
 70
     8
 71
     3
 72
    15
 73
    11
 74
     0
 42
0.00000001
 43
0.00000001
 40
0.0
 40
0.0
 40
0.0
 40
0.0
 40
0.1537399056245761
 40
0.3075550373265116
 40
0.5120968903941614
 40
0.7158447756878905
 40
0.8815022199944129
 40
0.9339858951127663
 40
0.9968291290313042
 40
1.0
 40
1.0
 40
1.0
 40
1.0
 10
532.4519546506906
 20
594.0260911685998
 30
0.0
 10
532.0511305096873
 20
593.6029416858648
 30
0.0
 10
531.2492861014521
 20
592.756435670211
 30
0.0
 10
529.8349695349484
 20
591.602458508283
 30
0.0
 10
528.2801939756296
 20
590.5438872663964
 30
0.0
 10
526.8626489891162
 20
589.7409016949556
 30
0.0
 10
526.0870190428686
 20
589.3556597866756
 30
0.0
 10
525.8712864981188
 20
589.2513831593196
 30
0.0
 10
525.7738336353591
 20
589.2042371500135
 30
0.0
 10
525.8231724043893
 20
589.228285309047
 30
0.0
 10
525.8255423050433
 20
589.2294404199049
 30
0.0
  0
SPLINE
  5
2B9
330
1F
100
AcDbEntity
  8
0
  6
Continuous
 62
     8
370
    25
100
AcDbSpline
210
0.0
220
0.0
230
1.0
 70
     8
 71
     3
 72
    16
 73
    12
 74
     0
 42
0.00000001
 43
0.00000001
 40
0.0
 40
0.0
 40
0.0
 40
0.0
 40
0.0031485295685622
 40
0.0659697296979652
 40
0.1534409495978081
 40
0.2411155293295612
 40
0.284411207429427
 40
0.4899040436806977
 40
0.6962092310520258
 40
0.8481409180233906
 40
1.0
 40
1.0
 40
1.0
 40
1.0
 10
595.4518721323166
 20
589.2294179881015
 30
0.0
 10
595.4542237016834
 20
589.2282718010915
 30
0.0
 10
595.5034950812657
 20
589.204256258093
 30
0.0
 10
595.3831260264404
 20
589.2624976353234
 30
0.0
 10
595.1689883765504
 20
589.3659401194865
 30
0.0
 10
594.792161630755
 20
589.5554981560025
 30
0.0
 10
594.1150567296149
 20
589.9108319428948
 30
0.0
 10
592.9805933222423
 20
590.553341839839
 30
0.0
 10
591.4224673758134
 20
591.6172437326884
 30
0.0
 10
590.0133146548858
 20
592.7709583234839
 30
0.0
 10
589.2213176369759
 20
593.607780219455
 30
0.0
 10
588.8254137703623
 20
594.0260911685999
 30
0.0
  0
SPLINE
  5
2BA
330
1F
100
AcDbEntity
  8
0
  6
Continuous
 62
     8
370
    25
100
AcDbSpline
210
0.0
220
0.0
230
1.0
 70
     8
 71
     3
 72
     9
 73
     5
 74
     0
 42
0.00000001
 43
0.00000001
 40
0.0
 40
0.0
 40
0.0
 40
0.0
 40
0.5235409429432829
 40
1.0
 40
1.0
 40
1.0
 40
1.0
 10
546.1476662344129
 20
601.4408231259594
 30
0.0
 10
546.1113461766892
 20
601.1852926984005
 30
0.0
 10
546.0419723135494
 20
600.6972116208781
 30
0.0
 10
545.9913395078465
 20
600.2057928964093
 30
0.0
 10
545.9672150489853
 20
599.9716519943289
 30
0.0
  0
LWPOLYLINE
  5
2BB
330
1F
100
AcDbEntity
  8
0
  6
Continuous
 62
     8
370
    25
100
AcDbPolyline
 90
        3
 70
   128
 43
0.0
 10
546.1232440352
 20
598.750687865
 10
546.0324805793
 20
599.3594255628
 10
545.967215049
 20
599.9716519943
  0
LINE
  5
2BC
330
1F
100
AcDbEntity
  8
0
  6
Continuous
 62
     8
370
    25
100
AcDbLine
 10
545.8466928552
 20
596.5950014755
 30
0.0
 11
546.3409289562
 21
596.0915454514
 31
0.0
  0
ELLIPSE
  5
2BD
330
1F
100
AcDbEntity
  8
0
  6
Continuous
 62
     8
370
    25
100
AcDbEllipse
 10
454.3775987631
 20
597.8868553906
 30
0.0
 11
1.499999304622804
 21
-0.0828726334386829
 31
0.0
210
0.0
220
0.0
230
1.0
 40
0.0174284859
 41
3.125102257569402
 42
3.636655894267889
  0
ELLIPSE
  5
2BE
330
1F
100
AcDbEntity
  8
0
  6
Continuous
 62
     8
370
    25
100
AcDbEllipse
 10
666.899769658
 20
604.8107482354
 30
0.0
 11
1.499999304622861
 21
-0.0828726334386829
 31
0.0
210
0.0
220
0.0
230
1.0
 40
0.0174284859
 41
6.266694911160005
 42
6.778248547856912
  0
ARC
  5
2BF
330
1F
100
AcDbEntity
  8
0
  6
Continuous
 62
     8
370
    25
100
AcDbCircle
 10
611.4386842105
 20
601.2260911686
 30
0.0
 40
24.80000000000007
100
AcDbArc
 50
90.0
 51
151.0614722598
  0
ARC
  5
2C0
330
1F
100
AcDbEntity
  8
0
  6
Continuous
 62
     8
370
    25
100
AcDbCircle
 10
611.4386842105
 20
601.2260911686
 30
0.0
 40
24.80000000000002
100
AcDbArc
 50
208.9385277402
 51
347.8338847533
  0
ARC
  5
2C1
330
1F
100
AcDbEntity
  8
0
  6
Continuous
 62
     8
370
    25
100
AcDbCircle
 10
611.4386842105
 20
601.2260911686
 30
0.0
 40
24.80000000000007
100
AcDbArc
 50
13.3122630129
 51
90.0
  0
ARC
  5
2C2
330
1F
100
AcDbEntity
  8
0
  6
Continuous
 62
     8
370
    25
100
AcDbCircle
 10
509.8386842105
 20
601.2260911686
 30
0.0
 40
24.79999999999995
100
AcDbArc
 50
270.0
 51
331.0614722598
  0
ARC
  5
2C3
330
1F
100
AcDbEntity
  8
0
  6
Continuous
 62
     8
370
    25
100
AcDbCircle
 10
509.8386842105
 20
601.2260911686
 30
0.0
 40
24.80000000000003
100
AcDbArc
 50
28.9385277402
 51
167.2110259762
  0
ARC
  5
2C4
330
1F
100
AcDbEntity
  8
0
  6
Continuous
 62
     8
370
    25
100
AcDbCircle
 10
509.8386842105
 20
601.2260911686
 30
0.0
 40
24.80000000000011
100
AcDbArc
 50
192.7157639136
 51
270.0
  0
ENDSEC
  0
SECTION
  2
OBJECTS
  0
DICTIONARY
  5
C
330
0
100
AcDbDictionary
281
     1
  3
ACAD_GROUP
350
D
  3
ACAD_LAYOUT
350
1A
  3
ACAD_MLINESTYLE
350
17
  3
ACAD_PLOTSETTINGS
350
19
  3
ACAD_PLOTSTYLENAME
350
E
  3
ACAD_SCALELIST
350
47
  3
DWGPROPS
350
2C5
  0
DICTIONARY
  5
D
102
{ACAD_REACTORS
330
C
102
}
330
C
100
AcDbDictionary
281
     1
  0
DICTIONARY
  5
1A
102
{ACAD_REACTORS
330
C
102
}
330
C
100
AcDbDictionary
281
     1
  3
Layout1
350
1E
  3
Layout2
350
26
  3
Model
350
22
  0
DICTIONARY
  5
17
102
{ACAD_REACTORS
330
C
102
}
330
C
100
AcDbDictionary
281
     1
  3
Standard
350
18
  0
DICTIONARY
  5
19
102
{ACAD_REACTORS
330
C
102
}
330
C
100
AcDbDictionary
281
     1
  0
ACDBDICTIONARYWDFLT
  5
E
102
{ACAD_REACTORS
330
C
102
}
330
C
100
AcDbDictionary
281
     1
  3
Normal
350
F
100
AcDbDictionaryWithDefault
340
F
  0
DICTIONARY
  5
47
102
{ACAD_REACTORS
330
C
102
}
330
C
100
AcDbDictionary
281
     1
  3
A0
350
48
  3
A1
350
49
  3
A2
350
4A
  3
A3
350
4B
  3
A4
350
4C
  3
A5
350
4D
  3
A6
350
4E
  3
A7
350
4F
  3
A8
350
50
  3
A9
350
51
  3
B0
350
52
  3
B1
350
53
  3
B2
350
54
  3
B3
350
55
  3
B4
350
56
  3
B5
350
57
  3
B6
350
58
  3
B7
350
59
  3
B8
350
5A
  3
B9
350
5B
  3
C0
350
5C
  3
C1
350
5D
  3
C2
350
5E
  3
C3
350
5F
  3
C4
350
60
  3
C5
350
61
  3
C6
350
62
  3
C7
350
63
  3
C8
350
64
  3
C9
350
65
  3
D0
350
66
  3
D1
350
67
  3
D2
350
68
  0
XRECORD
  5
2C5
102
{ACAD_REACTORS
330
C
102
}
330
C
100
AcDbXrecord
280
     1
  1
DWGPROPS COOKIE
  2

  3

  4

  6

  7

  8
designer5
  9

300
=
301
=
302
=
303
=
304
=
305
=
306
=
307
=
308
=
309
=
 40
0.0
 41
2460383.260621042
 42
2460383.260621585
  1

 90
        0
  0
LAYOUT
  5
1E
102
{ACAD_REACTORS
330
1A
102
}
330
1A
100
AcDbPlotSettings
  1

  2
none_device
  4

  6

 40
0.0
 41
0.0
 42
0.0
 43
0.0
 44
0.0
 45
0.0
 46
0.0
 47
0.0
 48
0.0
 49
0.0
140
0.0
141
0.0
142
1.0
143
1.0
 70
   688
 72
     1
 73
     0
 74
     5
  7

 75
    16
147
1.0
148
0.0
149
0.0
100
AcDbLayout
  1
Layout1
 70
     1
 71
     1
 10
0.0
 20
0.0
 11
420.0
 21
297.0
 12
0.0
 22
0.0
 32
0.0
 14
1.0000000000E+20
 24
1.0000000000E+20
 34
1.0000000000E+20
 15
-1.0000000000E+20
 25
-1.0000000000E+20
 35
-1.0000000000E+20
146
0.0
 13
0.0
 23
0.0
 33
0.0
 16
1.0
 26
0.0
 36
0.0
 17
0.0
 27
1.0
 37
0.0
 76
     0
330
1B
  0
LAYOUT
  5
26
102
{ACAD_REACTORS
330
1A
102
}
330
1A
100
AcDbPlotSettings
  1

  2
none_device
  4

  6

 40
0.0
 41
0.0
 42
0.0
 43
0.0
 44
0.0
 45
0.0
 46
0.0
 47
0.0
 48
0.0
 49
0.0
140
0.0
141
0.0
142
1.0
143
1.0
 70
   688
 72
     1
 73
     0
 74
     5
  7

 75
    16
147
1.0
148
0.0
149
0.0
100
AcDbLayout
  1
Layout2
 70
     1
 71
     2
 10
0.0
 20
0.0
 11
0.0
 21
0.0
 12
0.0
 22
0.0
 32
0.0
 14
0.0
 24
0.0
 34
0.0
 15
0.0
 25
0.0
 35
0.0
146
0.0
 13
0.0
 23
0.0
 33
0.0
 16
1.0
 26
0.0
 36
0.0
 17
0.0
 27
1.0
 37
0.0
 76
     0
330
23
  0
LAYOUT
  5
22
102
{ACAD_REACTORS
330
1A
102
}
330
1A
100
AcDbPlotSettings
  1

  2
none_device
  4
Letter_(8.50_x_11.00_Inches)
  6

 40
6.35
 41
6.35
 42
6.35000508
 43
6.35000508
 44
215.9
 45
279.4
 46
0.0
 47
0.0
 48
0.0
 49
0.0
140
0.0
141
0.0
142
1.0
143
1.0
 70
  1712
 72
     1
 73
     0
 74
     0
  7

 75
     0
147
1.0
148
0.0
149
0.0
100
AcDbLayout
  1
Model
 70
     1
 71
     0
 10
0.0
 20
0.0
 11
1189.0
 21
841.0
 12
0.0
 22
0.0
 32
0.0
 14
0.0
 24
0.0
 34
0.0
 15
1189.0
 25
841.0
 35
0.0
146
0.0
 13
0.0
 23
0.0
 33
0.0
 16
1.0
 26
0.0
 36
0.0
 17
0.0
 27
1.0
 37
0.0
 76
     0
330
1F
331
29
  0
MLINESTYLE
  5
18
102
{ACAD_REACTORS
330
17
102
}
330
17
100
AcDbMlineStyle
  2
Standard
 70
     0
  3

 62
   256
 51
90.0
 52
90.0
 71
     2
 49
0.5
 62
   256
  6
BYLAYER
 49
-0.5
 62
   256
  6
BYLAYER
  0
ACDBPLACEHOLDER
  5
F
102
{ACAD_REACTORS
330
E
102
}
330
E
  0
SCALE
  5
48
102
{ACAD_REACTORS
330
47
102
}
330
47
100
AcDbScale
 70
     0
300
1:1
140
1.0
141
1.0
290
     1
  0
SCALE
  5
49
102
{ACAD_REACTORS
330
47
102
}
330
47
100
AcDbScale
 70
     0
300
1:2
140
1.0
141
2.0
290
     0
  0
SCALE
  5
4A
102
{ACAD_REACTORS
330
47
102
}
330
47
100
AcDbScale
 70
     0
300
1:4
140
1.0
141
4.0
290
     0
  0
SCALE
  5
4B
102
{ACAD_REACTORS
330
47
102
}
330
47
100
AcDbScale
 70
     0
300
1:5
140
1.0
141
5.0
290
     0
  0
SCALE
  5
4C
102
{ACAD_REACTORS
330
47
102
}
330
47
100
AcDbScale
 70
     0
300
1:8
140
1.0
141
8.0
290
     0
  0
SCALE
  5
4D
102
{ACAD_REACTORS
330
47
102
}
330
47
100
AcDbScale
 70
     0
300
1:10
140
1.0
141
10.0
290
     0
  0
SCALE
  5
4E
102
{ACAD_REACTORS
330
47
102
}
330
47
100
AcDbScale
 70
     0
300
1:16
140
1.0
141
16.0
290
     0
  0
SCALE
  5
4F
102
{ACAD_REACTORS
330
47
102
}
330
47
100
AcDbScale
 70
     0
300
1:20
140
1.0
141
20.0
290
     0
  0
SCALE
  5
50
102
{ACAD_REACTORS
330
47
102
}
330
47
100
AcDbScale
 70
     0
300
1:30
140
1.0
141
30.0
290
     0
  0
SCALE
  5
51
102
{ACAD_REACTORS
330
47
102
}
330
47
100
AcDbScale
 70
     0
300
1:40
140
1.0
141
40.0
290
     0
  0
SCALE
  5
52
102
{ACAD_REACTORS
330
47
102
}
330
47
100
AcDbScale
 70
     0
300
1:50
140
1.0
141
50.0
290
     0
  0
SCALE
  5
53
102
{ACAD_REACTORS
330
47
102
}
330
47
100
AcDbScale
 70
     0
300
1:100
140
1.0
141
100.0
290
     0
  0
SCALE
  5
54
102
{ACAD_REACTORS
330
47
102
}
330
47
100
AcDbScale
 70
     0
300
2:1
140
2.0
141
1.0
290
     0
  0
SCALE
  5
55
102
{ACAD_REACTORS
330
47
102
}
330
47
100
AcDbScale
 70
     0
300
4:1
140
4.0
141
1.0
290
     0
  0
SCALE
  5
56
102
{ACAD_REACTORS
330
47
102
}
330
47
100
AcDbScale
 70
     0
300
8:1
140
8.0
141
1.0
290
     0
  0
SCALE
  5
57
102
{ACAD_REACTORS
330
47
102
}
330
47
100
AcDbScale
 70
     0
300
10:1
140
10.0
141
1.0
290
     0
  0
SCALE
  5
58
102
{ACAD_REACTORS
330
47
102
}
330
47
100
AcDbScale
 70
     0
300
100:1
140
100.0
141
1.0
290
     0
  0
SCALE
  5
59
102
{ACAD_REACTORS
330
47
102
}
330
47
100
AcDbScale
 70
     0
300
1/128" = 1'-0"
140
0.0078125
141
12.0
290
     0
  0
SCALE
  5
5A
102
{ACAD_REACTORS
330
47
102
}
330
47
100
AcDbScale
 70
     0
300
1/64" = 1'-0"
140
0.015625
141
12.0
290
     0
  0
SCALE
  5
5B
102
{ACAD_REACTORS
330
47
102
}
330
47
100
AcDbScale
 70
     0
300
1/32" = 1'-0"
140
0.03125
141
12.0
290
     0
  0
SCALE
  5
5C
102
{ACAD_REACTORS
330
47
102
}
330
47
100
AcDbScale
 70
     0
300
1/16" = 1'-0"
140
0.0625
141
12.0
290
     0
  0
SCALE
  5
5D
102
{ACAD_REACTORS
330
47
102
}
330
47
100
AcDbScale
 70
     0
300
3/32" = 1'-0"
140
0.09375
141
12.0
290
     0
  0
SCALE
  5
5E
102
{ACAD_REACTORS
330
47
102
}
330
47
100
AcDbScale
 70
     0
300
1/8" = 1'-0"
140
0.125
141
12.0
290
     0
  0
SCALE
  5
5F
102
{ACAD_REACTORS
330
47
102
}
330
47
100
AcDbScale
 70
     0
300
3/16" = 1'-0"
140
0.1875
141
12.0
290
     0
  0
SCALE
  5
60
102
{ACAD_REACTORS
330
47
102
}
330
47
100
AcDbScale
 70
     0
300
1/4" = 1'-0"
140
0.25
141
12.0
290
     0
  0
SCALE
  5
61
102
{ACAD_REACTORS
330
47
102
}
330
47
100
AcDbScale
 70
     0
300
3/8" = 1'-0"
140
0.375
141
12.0
290
     0
  0
SCALE
  5
62
102
{ACAD_REACTORS
330
47
102
}
330
47
100
AcDbScale
 70
     0
300
1/2" = 1'-0"
140
0.5
141
12.0
290
     0
  0
SCALE
  5
63
102
{ACAD_REACTORS
330
47
102
}
330
47
100
AcDbScale
 70
     0
300
3/4" = 1'-0"
140
0.75
141
12.0
290
     0
  0
SCALE
  5
64
102
{ACAD_REACTORS
330
47
102
}
330
47
100
AcDbScale
 70
     0
300
1" = 1'-0"
140
1.0
141
12.0
290
     0
  0
SCALE
  5
65
102
{ACAD_REACTORS
330
47
102
}
330
47
100
AcDbScale
 70
     0
300
1-1/2" = 1'-0"
140
1.5
141
12.0
290
     0
  0
SCALE
  5
66
102
{ACAD_REACTORS
330
47
102
}
330
47
100
AcDbScale
 70
     0
300
3" = 1'-0"
140
3.0
141
12.0
290
     0
  0
SCALE
  5
67
102
{ACAD_REACTORS
330
47
102
}
330
47
100
AcDbScale
 70
     0
300
6" = 1'-0"
140
6.0
141
12.0
290
     0
  0
SCALE
  5
68
102
{ACAD_REACTORS
330
47
102
}
330
47
100
AcDbScale
 70
     0
300
1'-0" = 1'-0"
140
12.0
141
12.0
290
     0
  0
ENDSEC
  0
EOF
