  0
SECTION
  2
HEADER
  9
$ACADVER
  1
AC1015
  9
$ACADMAINTVER
 70
     6
  9
$DWGCODEPAGE
  3
ANSI_1252
  9
$INSBASE
 10
0.0
 20
0.0
 30
0.0
  9
$EXTMIN
 10
0.0
 20
0.0
 30
0.0
  9
$EXTMAX
 10
1189.0
 20
841.0
 30
0.0
  9
$LIMMIN
 10
0.0
 20
0.0
  9
$LIMMAX
 10
1189.0
 20
841.0
  9
$ORTHOMODE
 70
     0
  9
$REGENMODE
 70
     1
  9
$FILLMODE
 70
     1
  9
$QTEXTMODE
 70
     0
  9
$MIRRTEXT
 70
     1
  9
$LTSCALE
 40
1.0
  9
$ATTMODE
 70
     1
  9
$TEXTSIZE
 40
3.5
  9
$TRACEWID
 40
1.0
  9
$TEXTSTYLE
  7
Standard
  9
$CLAYER
  8
0
  9
$CELTYPE
  6
ByLayer
  9
$CECOLOR
 62
   256
  9
$CELTSCALE
 40
1.0
  9
$DISPSILH
 70
     0
  9
$DIMSCALE
 40
1.0
  9
$DIMASZ
 40
3.302
  9
$DIMEXO
 40
1.0
  9
$DIMDLI
 40
3.75
  9
$DIMRND
 40
0.0
  9
$DIMDLE
 40
0.0
  9
$DIMEXE
 40
1.0
  9
$DIMTP
 40
0.0
  9
$DIMTM
 40
0.0
  9
$DIMTXT
 40
3.5
  9
$DIMCEN
 40
2.5
  9
$DIMTSZ
 40
0.0
  9
$DIMTOL
 70
     0
  9
$DIMLIM
 70
     0
  9
$DIMTIH
 70
     1
  9
$DIMTOH
 70
     1
  9
$DIMSE1
 70
     0
  9
$DIMSE2
 70
     0
  9
$DIMTAD
 70
     1
  9
$DIMZIN
 70
     1
  9
$DIMBLK
  1

  9
$DIMASO
 70
     1
  9
$DIMSHO
 70
     1
  9
$DIMPOST
  1

  9
$DIMAPOST
  1

  9
$DIMALT
 70
     0
  9
$DIMALTD
 70
     3
  9
$DIMALTF
 40
0.0393700787
  9
$DIMLFAC
 40
1.0
  9
$DIMTOFL
 70
     1
  9
$DIMTVP
 40
0.0
  9
$DIMTIX
 70
     0
  9
$DIMSOXD
 70
     0
  9
$DIMSAH
 70
     0
  9
$DIMBLK1
  1

  9
$DIMBLK2
  1

  9
$DIMSTYLE
  2
ISO-25
  9
$DIMCLRD
 70
     0
  9
$DIMCLRE
 70
     0
  9
$DIMCLRT
 70
     0
  9
$DIMTFAC
 40
1.0
  9
$DIMGAP
 40
1.524
  9
$DIMJUST
 70
     0
  9
$DIMSD1
 70
     0
  9
$DIMSD2
 70
     0
  9
$DIMTOLJ
 70
     0
  9
$DIMTZIN
 70
     1
  9
$DIMALTZ
 70
     0
  9
$DIMALTTZ
 70
     0
  9
$DIMUPT
 70
     0
  9
$DIMDEC
 70
     2
  9
$DIMTDEC
 70
     2
  9
$DIMALTU
 70
     2
  9
$DIMALTTD
 70
     3
  9
$DIMTXSTY
  7
Standard
  9
$DIMAUNIT
 70
     0
  9
$DIMADEC
 70
     2
  9
$DIMALTRND
 40
0.0
  9
$DIMAZIN
 70
     0
  9
$DIMDSEP
 70
    44
  9
$DIMATFIT
 70
     3
  9
$DIMFRAC
 70
     0
  9
$DIMLDRBLK
  1

  9
$DIMLUNIT
 70
     2
  9
$DIMLWD
 70
    -2
  9
$DIMLWE
 70
    -2
  9
$DIMTMOVE
 70
     0
  9
$LUNITS
 70
     2
  9
$LUPREC
 70
     2
  9
$SKETCHINC
 40
1.0
  9
$FILLETRAD
 40
10.0
  9
$AUNITS
 70
     0
  9
$AUPREC
 70
     2
  9
$MENU
  1
.
  9
$ELEVATION
 40
0.0
  9
$PELEVATION
 40
0.0
  9
$THICKNESS
 40
0.0
  9
$LIMCHECK
 70
     0
  9
$CHAMFERA
 40
0.0
  9
$CHAMFERB
 40
0.0
  9
$CHAMFERC
 40
0.0
  9
$CHAMFERD
 40
0.0
  9
$SKPOLY
 70
     0
  9
$TDCREATE
 40
2460383.502879977
  9
$TDUCREATE
 40
2460383.27371331
  9
$TDUPDATE
 40
2460383.502880521
  9
$TDUUPDATE
 40
2460383.273713854
  9
$TDINDWG
 40
0.0000000116
  9
$TDUSRTIMER
 40
0.0000000116
  9
$USRTIMER
 70
     1
  9
$ANGBASE
 50
0.0
  9
$ANGDIR
 70
     0
  9
$PDMODE
 70
     0
  9
$PDSIZE
 40
-1.0
  9
$PLINEWID
 40
0.0
  9
$SPLFRAME
 70
     0
  9
$SPLINETYPE
 70
     6
  9
$SPLINESEGS
 70
     8
  9
$HANDSEED
  5
2C5
  9
$SURFTAB1
 70
     6
  9
$SURFTAB2
 70
     6
  9
$SURFTYPE
 70
     6
  9
$SURFU
 70
     6
  9
$SURFV
 70
     6
  9
$UCSBASE
  2

  9
$UCSNAME
  2

  9
$UCSORG
 10
0.0
 20
0.0
 30
0.0
  9
$UCSXDIR
 10
1.0
 20
0.0
 30
0.0
  9
$UCSYDIR
 10
0.0
 20
1.0
 30
0.0
  9
$UCSORTHOREF
  2

  9
$UCSORTHOVIEW
 70
     0
  9
$UCSORGTOP
 10
0.0
 20
0.0
 30
0.0
  9
$UCSORGBOTTOM
 10
0.0
 20
0.0
 30
0.0
  9
$UCSORGLEFT
 10
0.0
 20
0.0
 30
0.0
  9
$UCSORGRIGHT
 10
0.0
 20
0.0
 30
0.0
  9
$UCSORGFRONT
 10
0.0
 20
0.0
 30
0.0
  9
$UCSORGBACK
 10
0.0
 20
0.0
 30
0.0
  9
$PUCSBASE
  2

  9
$PUCSNAME
  2

  9
$PUCSORG
 10
0.0
 20
0.0
 30
0.0
  9
$PUCSXDIR
 10
1.0
 20
0.0
 30
0.0
  9
$PUCSYDIR
 10
0.0
 20
1.0
 30
0.0
  9
$PUCSORTHOREF
  2

  9
$PUCSORTHOVIEW
 70
     0
  9
$PUCSORGTOP
 10
0.0
 20
0.0
 30
0.0
  9
$PUCSORGBOTTOM
 10
0.0
 20
0.0
 30
0.0
  9
$PUCSORGLEFT
 10
0.0
 20
0.0
 30
0.0
  9
$PUCSORGRIGHT
 10
0.0
 20
0.0
 30
0.0
  9
$PUCSORGFRONT
 10
0.0
 20
0.0
 30
0.0
  9
$PUCSORGBACK
 10
0.0
 20
0.0
 30
0.0
  9
$USERI1
 70
     0
  9
$USERI2
 70
     0
  9
$USERI3
 70
     0
  9
$USERI4
 70
     0
  9
$USERI5
 70
     0
  9
$USERR1
 40
0.0
  9
$USERR2
 40
0.0
  9
$USERR3
 40
0.0
  9
$USERR4
 40
0.0
  9
$USERR5
 40
0.0
  9
$WORLDVIEW
 70
     1
  9
$SHADEDGE
 70
     3
  9
$SHADEDIF
 70
    70
  9
$TILEMODE
 70
     1
  9
$MAXACTVP
 70
    64
  9
$PINSBASE
 10
0.0
 20
0.0
 30
0.0
  9
$PLIMCHECK
 70
     0
  9
$PEXTMIN
 10
1.0000000000E+20
 20
1.0000000000E+20
 30
1.0000000000E+20
  9
$PEXTMAX
 10
-1.0000000000E+20
 20
-1.0000000000E+20
 30
-1.0000000000E+20
  9
$PLIMMIN
 10
0.0
 20
0.0
  9
$PLIMMAX
 10
420.0
 20
297.0
  9
$UNITMODE
 70
     0
  9
$VISRETAIN
 70
     1
  9
$PLINEGEN
 70
     0
  9
$PSLTSCALE
 70
     1
  9
$TREEDEPTH
 70
  3020
  9
$CMLSTYLE
  2
Standard
  9
$CMLJUST
 70
     0
  9
$CMLSCALE
 40
20.0
  9
$PROXYGRAPHICS
 70
     1
  9
$MEASUREMENT
 70
     1
  9
$CELWEIGHT
370
    -1
  9
$ENDCAPS
280
     0
  9
$JOINSTYLE
280
     0
  9
$LWDISPLAY
290
     1
  9
$INSUNITS
 70
     4
  9
$HYPERLINKBASE
  1

  9
$STYLESHEET
  1

  9
$XEDIT
290
     1
  9
$CEPSNTYPE
380
     0
  9
$PSTYLEMODE
290
     1
  9
$FINGERPRINTGUID
  2
{f2b390b4-99fd-47c5-8aa4-1121387535a0}
  9
$VERSIONGUID
  2
{FAEB1C32-E019-11D5-929B-00C0DF256EC4}
  9
$EXTNAMES
290
     1
  9
$PSVPSCALE
 40
0.0
  9
$OLESTARTUP
290
     0
  0
ENDSEC
  0
SECTION
  2
CLASSES
  0
CLASS
  1
ACDBDICTIONARYWDFLT
  2
AcDbDictionaryWithDefault
  3
ObjectDBX Classes
 90
        0
280
     0
281
     0
  0
CLASS
  1
VISUALSTYLE
  2
AcDbVisualStyle
  3
ObjectDBX Classes
 90
     4095
280
     0
281
     0
  0
CLASS
  1
MATERIAL
  2
AcDbMaterial
  3
ObjectDBX Classes
 90
     1153
280
     0
281
     0
  0
CLASS
  1
SCALE
  2
AcDbScale
  3
ObjectDBX Classes
 90
     1153
280
     0
281
     0
  0
CLASS
  1
TABLESTYLE
  2
AcDbTableStyle
  3
ObjectDBX Classes
 90
     4095
280
     0
281
     0
  0
CLASS
  1
MLEADERSTYLE
  2
AcDbMLeaderStyle
  3
ACDB_MLEADERSTYLE_CLASS
 90
     4095
280
     0
281
     0
  0
CLASS
  1
SUN
  2
AcDbSun
  3
SCENEOE
 90
     1153
280
     0
281
     0
  0
CLASS
  1
ACDBPLACEHOLDER
  2
AcDbPlaceHolder
  3
ObjectDBX Classes
 90
        0
280
     0
281
     0
  0
CLASS
  1
LAYOUT
  2
AcDbLayout
  3
ObjectDBX Classes
 90
        0
280
     0
281
     0
  0
ENDSEC
  0
SECTION
  2
TABLES
  0
TABLE
  2
VPORT
  5
8
330
0
100
AcDbSymbolTable
 70
     1
  0
VPORT
  5
29
330
8
100
AcDbSymbolTableRecord
100
AcDbViewportTableRecord
  2
*Active
 70
     0
 10
0.0
 20
0.0
 11
1.0
 21
1.0
 12
594.5
 22
420.5
 13
0.0
 23
0.0
 14
10.0
 24
10.0
 15
10.0
 25
10.0
 16
0.0
 26
0.0
 36
1.0
 17
0.0
 27
0.0
 37
0.0
 40
841.0
 41
1.4137931034
 42
50.0
 43
0.0
 44
0.0
 50
0.0
 51
0.0
 71
     0
 72
  2000
 73
     1
 74
     3
 75
     0
 76
     0
 77
     0
 78
     0
281
     0
 65
     1
110
0.0
120
0.0
130
0.0
111
1.0
121
0.0
131
0.0
112
0.0
122
1.0
132
0.0
 79
     0
146
0.0
  0
ENDTAB
  0
TABLE
  2
LTYPE
  5
5
330
0
100
AcDbSymbolTable
 70
     6
  0
LTYPE
  5
14
330
5
100
AcDbSymbolTableRecord
100
AcDbLinetypeTableRecord
  2
ByBlock
 70
     0
  3

 72
    65
 73
     0
 40
0.0
  0
LTYPE
  5
15
330
5
100
AcDbSymbolTableRecord
100
AcDbLinetypeTableRecord
  2
ByLayer
 70
     0
  3

 72
    65
 73
     0
 40
0.0
  0
LTYPE
  5
16
330
5
100
AcDbSymbolTableRecord
100
AcDbLinetypeTableRecord
  2
Continuous
 70
     0
  3
Solid line
 72
    65
 73
     0
 40
0.0
  0
LTYPE
  5
6E
330
5
100
AcDbSymbolTableRecord
100
AcDbLinetypeTableRecord
  2
HIDDEN
 70
     0
  3
Hidden __ __ __ __ __ __ __ __ __ __ __ __ __ __
 72
    65
 73
     2
 40
1.905
 49
1.27
 74
     0
 49
-0.635
 74
     0
  0
LTYPE
  5
6F
330
5
100
AcDbSymbolTableRecord
100
AcDbLinetypeTableRecord
  2
PHANTOM
 70
     0
  3
Phantom ______  __  __  ______  __  __  ______
 72
    65
 73
     6
 40
12.7
 49
6.35
 74
     0
 49
-1.27
 74
     0
 49
1.27
 74
     0
 49
-1.27
 74
     0
 49
1.27
 74
     0
 49
-1.27
 74
     0
  0
LTYPE
  5
70
330
5
100
AcDbSymbolTableRecord
100
AcDbLinetypeTableRecord
  2
CENTER
 70
     0
  3
Center ____ _ ____ _ ____ _ ____ _ ____ _ ____
 72
    65
 73
     4
 40
10.16
 49
6.35
 74
     0
 49
-1.27
 74
     0
 49
1.27
 74
     0
 49
-1.27
 74
     0
  0
LTYPE
  5
71
330
5
100
AcDbSymbolTableRecord
100
AcDbLinetypeTableRecord
  2
CENTERX2
 70
     0
  3
Center (2x) ________  __  ________  __  _____
 72
    65
 73
     4
 40
20.32
 49
12.7
 74
     0
 49
-2.54
 74
     0
 49
2.54
 74
     0
 49
-2.54
 74
     0
  0
LTYPE
  5
72
330
5
100
AcDbSymbolTableRecord
100
AcDbLinetypeTableRecord
  2
DOT2
 70
     0
  3
Dot (.5x) ........................................
 72
    65
 73
     2
 40
0.635
 49
0.0
 74
     0
 49
-0.635
 74
     0
  0
ENDTAB
  0
TABLE
  2
LAYER
  5
2
330
0
100
AcDbSymbolTable
 70
     1
  0
LAYER
  5
10
330
2
100
AcDbSymbolTableRecord
100
AcDbLayerTableRecord
  2
0
 70
     0
 62
     7
  6
Continuous
370
    -3
390
F
  0
ENDTAB
  0
TABLE
  2
STYLE
  5
3
330
0
100
AcDbSymbolTable
 70
     1
  0
STYLE
  5
11
330
3
100
AcDbSymbolTableRecord
100
AcDbTextStyleTableRecord
  2
Standard
 70
     0
 40
0.0
 41
1.0
 50
0.0
 71
     0
 42
3.5
  3
txt
  4

  0
ENDTAB
  0
TABLE
  2
VIEW
  5
6
330
0
100
AcDbSymbolTable
 70
     0
  0
ENDTAB
  0
TABLE
  2
UCS
  5
7
330
0
100
AcDbSymbolTable
 70
     0
  0
ENDTAB
  0
TABLE
  2
APPID
  5
9
330
0
100
AcDbSymbolTable
 70
     1
  0
APPID
  5
12
330
9
100
AcDbSymbolTableRecord
100
AcDbRegAppTableRecord
  2
ACAD
 70
     0
  0
ENDTAB
  0
TABLE
  2
DIMSTYLE
  5
A
330
0
100
AcDbSymbolTable
 70
     1
100
AcDbDimStyleTable
  0
DIMSTYLE
105
27
330
A
100
AcDbSymbolTableRecord
100
AcDbDimStyleTableRecord
  2
ISO-25
 70
     0
 41
2.5
 42
0.625
 43
3.75
 44
1.25
 73
     0
 74
     0
 77
     1
 78
     8
140
2.5
141
2.5
143
0.0393700787
147
0.625
171
     3
172
     1
178
     0
271
     2
272
     2
274
     3
278
    44
283
     0
284
     8
340
11
  0
ENDTAB
  0
TABLE
  2
BLOCK_RECORD
  5
1
330
0
100
AcDbSymbolTable
 70
     1
  0
BLOCK_RECORD
  5
1F
330
1
100
AcDbSymbolTableRecord
100
AcDbBlockTableRecord
  2
*Model_Space
340
22
  0
BLOCK_RECORD
  5
1B
330
1
100
AcDbSymbolTableRecord
100
AcDbBlockTableRecord
  2
*Paper_Space
340
1E
  0
BLOCK_RECORD
  5
23
330
1
100
AcDbSymbolTableRecord
100
AcDbBlockTableRecord
  2
*Paper_Space0
340
26
  0
ENDTAB
  0
ENDSEC
  0
SECTION
  2
BLOCKS
  0
BLOCK
  5
20
330
1F
100
AcDbEntity
  8
0
100
AcDbBlockBegin
  2
*Model_Space
 70
     0
 10
0.0
 20
0.0
 30
0.0
  3
*Model_Space
  1

  0
ENDBLK
  5
21
330
1F
100
AcDbEntity
  8
0
100
AcDbBlockEnd
  0
BLOCK
  5
1C
330
1B
100
AcDbEntity
 67
     1
  8
0
100
AcDbBlockBegin
  2
*Paper_Space
 70
     0
 10
0.0
 20
0.0
 30
0.0
  3
*Paper_Space
  1

  0
ENDBLK
  5
1D
330
1B
100
AcDbEntity
 67
     1
  8
0
100
AcDbBlockEnd
  0
BLOCK
  5
24
330
23
100
AcDbEntity
  8
0
100
AcDbBlockBegin
  2
*Paper_Space0
 70
     0
 10
0.0
 20
0.0
 30
0.0
  3
*Paper_Space0
  1

  0
ENDBLK
  5
25
330
23
100
AcDbEntity
  8
0
100
AcDbBlockEnd
  0
ENDSEC
  0
SECTION
  2
ENTITIES
  0
SPLINE
  5
73
330
1F
100
AcDbEntity
  8
0
  6
Continuous
 62
     7
370
    25
100
AcDbSpline
210
0.0
220
0.0
230
1.0
 70
     8
 71
     3
 72
     9
 73
     5
 74
     0
 42
0.00000001
 43
0.00000001
 40
0.0
 40
0.0
 40
0.0
 40
0.0
 40
0.2595028302647364
 40
1.0
 40
1.0
 40
1.0
 40
1.0
 10
589.0420434296021
 20
370.7951046530133
 30
0.0
 10
589.0431648718088
 20
370.8253565028783
 30
0.0
 10
589.0474863746059
 20
370.941932687555
 30
0.0
 10
589.048192329925
 20
371.0238354175594
 30
0.0
 10
589.0487150878408
 20
371.0844841573213
 30
0.0
  0
SPLINE
  5
74
330
1F
100
AcDbEntity
  8
0
  6
Continuous
 62
     7
370
    25
100
AcDbSpline
210
0.0
220
0.0
230
1.0
 70
     8
 71
     3
 72
     9
 73
     5
 74
     0
 42
0.00000001
 43
0.00000001
 40
0.0
 40
0.0
 40
0.0
 40
0.0
 40
0.1508412191363419
 40
1.0
 40
1.0
 40
1.0
 40
1.0
 10
565.5978605883205
 20
371.0972211755096
 30
0.0
 10
565.597894136277
 20
371.0829508487408
 30
0.0
 10
565.5981165420395
 20
370.9883458936064
 30
0.0
 10
565.6021936342821
 20
370.8746059490405
 30
0.0
 10
565.6056557329601
 20
370.7780226763775
 30
0.0
  0
SPLINE
  5
75
330
1F
100
AcDbEntity
  8
0
  6
Continuous
 62
     7
370
    25
100
AcDbSpline
210
0.0
220
0.0
230
1.0
 70
     8
 71
     3
 72
    16
 73
    12
 74
     0
 42
0.00000001
 43
0.00000001
 40
0.0
 40
0.0
 40
0.0
 40
0.0
 40
0.0971462335698692
 40
0.2883719688423559
 40
0.4642758377908231
 40
0.6225133591333162
 40
0.7593887236197557
 40
0.8673153237303225
 40
0.9388115589778606
 40
0.9870699706488402
 40
1.0
 40
1.0
 40
1.0
 40
1.0
 10
662.9372604953895
 20
564.1306290396435
 30
0.0
 10
663.1067687082732
 20
564.1343490971603
 30
0.0
 10
663.6099422775198
 20
564.1453918341857
 30
0.0
 10
664.4150860447037
 20
564.0253707409769
 30
0.0
 10
665.305133726169
 20
563.8061247401699
 30
0.0
 10
666.0761264759857
 20
563.5180331650183
 30
0.0
 10
666.7071009556456
 20
563.2114915527495
 30
0.0
 10
667.180613903938
 20
562.9321874986651
 30
0.0
 10
667.4913877872158
 20
562.7235415084788
 30
0.0
 10
667.6410868806727
 20
562.6154945241751
 30
0.0
 10
667.6808973036448
 20
562.5856280539303
 30
0.0
 10
667.6893098392302
 20
562.5793168237301
 30
0.0
  0
SPLINE
  5
76
330
1F
100
AcDbEntity
  8
0
  6
Continuous
 62
     7
370
    25
100
AcDbSpline
210
0.0
220
0.0
230
1.0
 70
     8
 71
     3
 72
    18
 73
    14
 74
     0
 42
0.00000001
 43
0.00000001
 40
0.0
 40
0.0
 40
0.0
 40
0.0
 40
0.0237165074583847
 40
0.2134021691216445
 40
0.3884285872044143
 40
0.5467250312955548
 40
0.6853628390615997
 40
0.7998913322852212
 40
0.8812483279041047
 40
0.9312917691038721
 40
0.9624204897948482
 40
0.9969707471297445
 40
1.0
 40
1.0
 40
1.0
 40
1.0
 10
491.7544217024256
 20
588.1523256403024
 30
0.0
 10
491.7122460800507
 20
588.1495871796561
 30
0.0
 10
491.3327479893368
 20
588.1249463912515
 30
0.0
 10
490.6396522998006
 20
588.2036512016019
 30
0.0
 10
489.7238311017516
 20
588.3748131563779
 30
0.0
 10
488.9206913883858
 20
588.6310575314448
 30
0.0
 10
488.2462917234674
 20
588.920167821972
 30
0.0
 10
487.7211995501922
 20
589.200413410181
 30
0.0
 10
487.351648588161
 20
589.4298122164934
 30
0.0
 10
487.1317663651326
 20
589.580076889209
 30
0.0
 10
487.0278435204166
 20
589.6543339388752
 30
0.0
 10
486.9824565198138
 20
589.687487763301
 30
0.0
 10
486.9703341264481
 20
589.6965333648395
 30
0.0
 10
486.9693569504631
 20
589.6972625232099
 30
0.0
  0
SPLINE
  5
77
330
1F
100
AcDbEntity
  8
0
  6
Continuous
 62
     7
370
    25
100
AcDbSpline
210
0.0
220
0.0
230
1.0
 70
     8
 71
     3
 72
    15
 73
    11
 74
     0
 42
0.00000001
 43
0.00000001
 40
0.0
 40
0.0
 40
0.0
 40
0.0
 40
0.0259813932021886
 40
0.0648744625680196
 40
0.1068682378631627
 40
0.2183140914954726
 40
0.4689163131597747
 40
0.6557711097354076
 40
0.9109407790990993
 40
1.0
 40
1.0
 40
1.0
 40
1.0
 10
667.6772544337896
 20
589.6964620883945
 30
0.0
 10
667.6683029456045
 20
589.6897848835935
 30
0.0
 10
667.6459514504145
 20
589.6731121798032
 30
0.0
 10
667.5576119698629
 20
589.6092739783205
 30
0.0
 10
667.3195754196768
 20
589.4442043577243
 30
0.0
 10
666.6968282410211
 20
589.055756248753
 30
0.0
 10
665.8148342641836
 20
588.645731112182
 30
0.0
 10
664.6287714316722
 20
588.2996660657109
 30
0.0
 10
663.6883835773104
 20
588.1382905867644
 30
0.0
 10
663.0755942288671
 20
588.1599778849306
 30
0.0
 10
662.917052794687
 20
588.165588843025
 30
0.0
  0
SPLINE
  5
78
330
1F
100
AcDbEntity
  8
0
  6
Continuous
 62
     7
370
    25
100
AcDbSpline
210
0.0
220
0.0
230
1.0
 70
     8
 71
     3
 72
    15
 73
    11
 74
     0
 42
0.00000001
 43
0.00000001
 40
0.0
 40
0.0
 40
0.0
 40
0.0
 40
0.0038460959766492
 40
0.0526176108159991
 40
0.1307077758418503
 40
0.2404554796156705
 40
0.4639608726159304
 40
0.6820823312495015
 40
0.932802041524483
 40
0.9999999999999999
 40
0.9999999999999999
 40
0.9999999999999999
 40
0.9999999999999999
 10
486.9585028353291
 20
562.5793269923909
 30
0.0
 10
486.96025327456
 20
562.5806608308496
 30
0.0
 10
486.9842006567289
 20
562.5989087875677
 30
0.0
 10
487.1373724015639
 20
562.7103882213994
 30
0.0
 10
487.4504971440903
 20
562.921944032067
 30
0.0
 10
488.0695203482604
 20
563.2876369289879
 30
0.0
 10
488.9448823456223
 20
563.6847587920145
 30
0.0
 10
490.1083484800365
 20
564.0098623750682
 30
0.0
 10
491.0394166287351
 20
564.1590579524635
 30
0.0
 10
491.5931947788889
 20
564.1357522954581
 30
0.0
 10
491.7102463453682
 20
564.1308262006681
 30
0.0
  0
LINE
  5
79
330
1F
100
AcDbEntity
  8
0
  6
Continuous
 62
     7
370
    25
100
AcDbLine
 10
566.74369355
 20
588.1447322816
 30
0.0
 11
491.7555580473
 21
588.1447322816
 31
0.0
  0
LINE
  5
7A
330
1F
100
AcDbEntity
  8
0
  6
Continuous
 62
     7
370
    25
100
AcDbLine
 10
662.9151203018
 20
588.1447322816
 30
0.0
 11
585.5826620827
 21
588.1447322816
 31
0.0
  0
LINE
  5
7B
330
1F
100
AcDbEntity
  8
0
  6
Continuous
 62
     7
370
    25
100
AcDbLine
 10
591.0619519406
 20
564.1447322816
 30
0.0
 11
662.9439827674
 21
564.1447322816
 31
0.0
  0
LINE
  5
7C
330
1F
100
AcDbEntity
  8
0
  6
Continuous
 62
     7
370
    25
100
AcDbLine
 10
491.7039577361
 20
564.1447322816
 30
0.0
 11
563.5770066364
 21
564.1447322816
 31
0.0
  0
SPLINE
  5
7D
330
1F
100
AcDbEntity
  8
0
  6
Continuous
 62
     7
370
    25
100
AcDbSpline
210
0.0
220
0.0
230
1.0
 70
     8
 71
     3
 72
    17
 73
    13
 74
     0
 42
0.00000001
 43
0.00000001
 40
0.0
 40
0.0
 40
0.0
 40
0.0
 40
0.0759330199909587
 40
0.1945411821184926
 40
0.2935630534145962
 40
0.3775185718458905
 40
0.4457621595276288
 40
0.4956812227117615
 40
0.5407934601134611
 40
0.6068334909435289
 40
0.7659518778486589
 40
1.0
 40
1.0
 40
1.0
 40
1.0
 10
418.3032261365144
 20
573.3268915320394
 30
0.0
 10
418.3053079848618
 20
573.2951687226636
 30
0.0
 10
418.3106417018475
 20
573.2138945571318
 30
0.0
 10
418.3723800730706
 20
573.1041690117431
 30
0.0
 10
418.4551665667415
 20
573.0102555587663
 30
0.0
 10
418.5404725018066
 20
572.9507327012498
 30
0.0
 10
418.6139998780429
 20
572.9174869958111
 30
0.0
 10
418.6660377964121
 20
572.9016418543207
 30
0.0
 10
418.7029014312647
 20
572.8932386208709
 30
0.0
 10
418.7462286216075
 20
572.8857787473814
 30
0.0
 10
418.7975662275041
 20
572.8788450675546
 30
0.0
 10
418.888052044322
 20
572.8713822661589
 30
0.0
 10
418.9419173533443
 20
572.8669397345279
 30
0.0
  0
SPLINE
  5
7E
330
1F
100
AcDbEntity
  8
0
  6
Continuous
 62
     7
370
    25
100
AcDbSpline
210
0.0
220
0.0
230
1.0
 70
     8
 71
     3
 72
    17
 73
    13
 74
     0
 42
0.00000001
 43
0.00000001
 40
0.0
 40
0.0
 40
0.0
 40
0.0
 40
0.1653910868707448
 40
0.4621021594077701
 40
0.5844056145997384
 40
0.6275022143592
 40
0.6628944383190422
 40
0.7153599903483175
 40
0.7806214134037804
 40
0.8631574594241073
 40
0.9536002344498132
 40
1.0
 40
1.0
 40
1.0
 40
1.0
 10
419.3064285330431
 20
579.451469331961
 30
0.0
 10
419.2268488294308
 20
579.4457983460571
 30
0.0
 10
419.00450339607
 20
579.4299536298655
 30
0.0
 10
418.8229050004046
 20
579.413178670433
 30
0.0
 10
418.7391332914733
 20
579.4031320129025
 30
0.0
 10
418.6790257055204
 20
579.391357592258
 30
0.0
 10
418.6152541948035
 20
579.3729561718119
 30
0.0
 10
418.5268262033721
 20
579.3323389688875
 30
0.0
 10
418.4234685509114
 20
579.252271148219
 30
0.0
 10
418.3336936180092
 20
579.1245370835916
 30
0.0
 10
418.2848029637343
 20
578.9840414723022
 30
0.0
 10
418.296233537297
 20
578.8951158242932
 30
0.0
 10
418.3001093490964
 20
578.8649634374575
 30
0.0
  0
LINE
  5
7F
330
1F
100
AcDbEntity
  8
0
  6
Continuous
 62
     7
370
    25
100
AcDbLine
 10
419.306428533
 20
572.8379952313
 30
0.0
 11
422.7897492239
 21
572.5958277029
 31
0.0
  0
LINE
  5
80
330
1F
100
AcDbEntity
  8
0
  6
Continuous
 62
     7
370
    25
100
AcDbLine
 10
422.7897492239
 20
579.6936368603
 30
0.0
 11
419.306428533
 21
579.451469332
 31
0.0
  0
ARC
  5
81
330
1F
100
AcDbEntity
  8
0
  6
Continuous
 62
     7
370
    25
100
AcDbCircle
 10
475.7239702517
 20
576.1447322816
 30
0.0
 40
9.141196303513937
100
AcDbArc
 50
295.4997205711
 51
0.0
  0
ARC
  5
82
330
1F
100
AcDbEntity
  8
0
  6
Continuous
 62
     7
370
    25
100
AcDbCircle
 10
475.7239702517
 20
576.1447322816
 30
0.0
 40
9.141196303513997
100
AcDbArc
 50
0.0
 51
64.4835187232
  0
SPLINE
  5
83
330
1F
100
AcDbEntity
  8
0
  6
Continuous
 62
     7
370
    25
100
AcDbSpline
210
0.0
220
0.0
230
1.0
 70
     8
 71
     3
 72
    17
 73
    13
 74
     0
 42
0.00000001
 43
0.00000001
 40
0.0
 40
0.0
 40
0.0
 40
0.0
 40
0.1653910868707446
 40
0.4621021594077696
 40
0.5844056145997377
 40
0.6275022143591993
 40
0.6628944383190414
 40
0.7153599903483288
 40
0.7806214134037807
 40
0.863157459424108
 40
0.9536002344497996
 40
1.0
 40
1.0
 40
1.0
 40
1.0
 10
735.3415119703895
 20
573.0834165200979
 30
0.0
 10
735.4210916740018
 20
573.0890875060016
 30
0.0
 10
735.6434371073626
 20
573.1049322221934
 30
0.0
 10
735.8250355030281
 20
573.1217071816259
 30
0.0
 10
735.9088072119594
 20
573.1317538391563
 30
0.0
 10
735.9689147979122
 20
573.1435282598009
 30
0.0
 10
736.0326863086291
 20
573.1619296802468
 30
0.0
 10
736.1211143000606
 20
573.2025468831714
 30
0.0
 10
736.2244719525212
 20
573.2826147038398
 30
0.0
 10
736.3142468854235
 20
573.4103487684673
 30
0.0
 10
736.3631375396983
 20
573.5508443797567
 30
0.0
 10
736.3517069661356
 20
573.6397700277656
 30
0.0
 10
736.3478311543362
 20
573.6699224146014
 30
0.0
  0
SPLINE
  5
84
330
1F
100
AcDbEntity
  8
0
  6
Continuous
 62
     7
370
    25
100
AcDbSpline
210
0.0
220
0.0
230
1.0
 70
     8
 71
     3
 72
    17
 73
    13
 74
     0
 42
0.00000001
 43
0.00000001
 40
0.0
 40
0.0
 40
0.0
 40
0.0
 40
0.0759330199909598
 40
0.1945411821184944
 40
0.2935630534145994
 40
0.3775185718458945
 40
0.4457621595276334
 40
0.4956812227117666
 40
0.5407934601134665
 40
0.6068334909435351
 40
0.7659518778486666
 40
1.0
 40
1.0
 40
1.0
 40
1.0
 10
736.3447143669183
 20
579.2079943200195
 30
0.0
 10
736.3426325185709
 20
579.2397171293952
 30
0.0
 10
736.3372988015851
 20
579.3209912949271
 30
0.0
 10
736.2755604303619
 20
579.4307168403158
 30
0.0
 10
736.1927739366911
 20
579.5246302932926
 30
0.0
 10
736.107468001626
 20
579.5841531508091
 30
0.0
 10
736.0339406253897
 20
579.6173988562477
 30
0.0
 10
735.9819027070206
 20
579.6332439977381
 30
0.0
 10
735.945039072168
 20
579.641647231188
 30
0.0
 10
735.9017118818251
 20
579.6491071046775
 30
0.0
 10
735.8503742759286
 20
579.6560407845043
 30
0.0
 10
735.7598884591108
 20
579.6635035859
 30
0.0
 10
735.7060231500884
 20
579.667946117531
 30
0.0
  0
LINE
  5
85
330
1F
100
AcDbEntity
  8
0
  6
Continuous
 62
     7
370
    25
100
AcDbLine
 10
731.8581912795
 20
572.8412489917
 30
0.0
 11
735.3415119704
 21
573.0834165201
 31
0.0
  0
LINE
  5
86
330
1F
100
AcDbEntity
  8
0
  6
Continuous
 62
     7
370
    25
100
AcDbLine
 10
735.3415119704
 20
579.6968906208
 30
0.0
 11
731.8581912795
 21
579.9390581492
 31
0.0
  0
ARC
  5
87
330
1F
100
AcDbEntity
  8
0
  6
Continuous
 62
     7
370
    25
100
AcDbCircle
 10
687.0329854569
 20
573.4182590946
 30
0.0
 40
8.999995138923122
100
AcDbArc
 50
257.1419190681
 51
270.0
  0
ARC
  5
88
330
1F
100
AcDbEntity
  8
0
  6
Continuous
 62
     7
370
    25
100
AcDbCircle
 10
687.0329854569
 20
573.4182590946
 30
0.0
 40
8.999995138923058
100
AcDbArc
 50
270.0
 51
305.1719294169
  0
SPLINE
  5
89
330
1F
100
AcDbEntity
  8
0
  6
Continuous
 62
     7
370
    25
100
AcDbSpline
210
0.0
220
0.0
230
1.0
 70
     8
 71
     3
 72
    16
 73
    12
 74
     0
 42
0.00000001
 43
0.00000001
 40
0.0
 40
0.0
 40
0.0
 40
0.0
 40
0.0962609359999919
 40
0.1959421162028152
 40
0.2938006509495217
 40
0.3945959697367962
 40
0.4987223162605979
 40
0.6057407305130916
 40
0.7149663963104298
 40
0.8273380647830928
 40
1.0
 40
1.0
 40
1.0
 40
1.0
 10
589.8571836937199
 20
574.1797645457008
 30
0.0
 10
589.8667772070037
 20
574.8269057009629
 30
0.0
 10
589.8863051003813
 20
576.1441815629389
 30
0.0
 10
589.4759458182223
 20
578.0801195431334
 30
0.0
 10
588.7560504740553
 20
579.934033191229
 30
0.0
 10
587.7183338328551
 20
581.6566364921545
 30
0.0
 10
586.3739259296489
 20
583.22361058434
 30
0.0
 10
584.7434244905718
 20
584.5848515781918
 30
0.0
 10
582.8565533121417
 20
585.6840316799614
 30
0.0
 10
580.3942963419208
 20
586.6560867096498
 30
0.0
 10
578.4822259029474
 20
586.854609701186
 30
0.0
 10
577.3239702517163
 20
586.9748669742231
 30
0.0
  0
SPLINE
  5
8A
330
1F
100
AcDbEntity
  8
0
  6
Continuous
 62
     7
370
    25
100
AcDbSpline
210
0.0
220
0.0
230
1.0
 70
    24
 71
     3
 72
    13
 73
     9
 74
     0
 42
0.00000001
 43
0.00000001
 40
0.0
 40
0.0
 40
0.0
 40
0.0
 40
0.0088769305891356
 40
0.1568018335478669
 40
0.3676799660841052
 40
0.5784774725819156
 40
0.7892380841704545
 40
1.0
 40
1.0
 40
1.0
 40
1.0
 10
577.3239702517163
 20
586.9748669742231
 30
0.0
 10
577.323970251718
 20
586.9890031861837
 30
0.0
 10
577.3239702517467
 20
587.2387048068732
 30
0.0
 10
577.3239702516962
 20
587.8260713806978
 30
0.0
 10
577.323970251723
 20
588.6790631418779
 30
0.0
 10
577.3239702517142
 20
589.4327602775671
 30
0.0
 10
577.3239702517169
 20
589.9399157337872
 30
0.0
 10
577.3239702517164
 20
589.9988015056424
 30
0.0
 10
577.3239702517162
 20
590.0282444826698
 30
0.0
  0
SPLINE
  5
8B
330
1F
100
AcDbEntity
  8
0
  6
Continuous
 62
     7
370
    25
100
AcDbSpline
210
0.0
220
0.0
230
1.0
 70
     8
 71
     3
 72
    17
 73
    13
 74
     0
 42
0.00000001
 43
0.00000001
 40
0.0
 40
0.0
 40
0.0
 40
0.0
 40
0.084498659021284
 40
0.1707523992472066
 40
0.2766477565163949
 40
0.3858653819358106
 40
0.4890481164110217
 40
0.5951098677618352
 40
0.6947410048160338
 40
0.7970236474831212
 40
0.89706606564905
 40
1.0
 40
1.0
 40
1.0
 40
1.0
 10
577.3239702517162
 20
590.0282444826698
 30
0.0
 10
578.004825924273
 20
589.9814724592765
 30
0.0
 10
579.3806789966968
 20
589.8869569331773
 30
0.0
 10
581.5531546869288
 20
589.3484031467714
 30
0.0
 10
583.8019570176039
 20
588.427623528102
 30
0.0
 10
585.965437841899
 20
587.0576452719831
 30
0.0
 10
587.8617867596361
 20
585.3477843608417
 30
0.0
 10
589.399817358121
 20
583.4061389455801
 30
0.0
 10
590.6009406777351
 20
581.2433318487551
 30
0.0
 10
591.4190366122473
 20
578.9539745795715
 30
0.0
 10
591.892621880369
 20
576.5264386397282
 30
0.0
 10
591.8687620552271
 20
574.8859323427197
 30
0.0
 10
591.8566621941136
 20
574.0539942110865
 30
0.0
  0
LWPOLYLINE
  5
8C
330
1F
100
AcDbEntity
  8
0
  6
Continuous
 62
     7
370
    25
100
AcDbPolyline
 90
        9
 70
   128
 43
0.0
 10
589.8571836937
 20
574.1797645457
 10
590.2788414124
 20
574.1533297157
 10
590.6669372999
 20
574.1289823404
 10
591.0122748296
 20
574.1072993683
 10
591.3066706997
 20
574.0887946106
 10
591.5431487489
 20
574.0739065659
 10
591.7161052676
 20
574.0629880292
 10
591.8214417861
 20
574.056297732
 10
591.8566621941
 20
574.0539942111
  0
SPLINE
  5
8D
330
1F
100
AcDbEntity
  8
0
  6
Continuous
 62
     7
370
    25
100
AcDbSpline
210
0.0
220
0.0
230
1.0
 70
     8
 71
     3
 72
    16
 73
    12
 74
     0
 42
0.00000001
 43
0.00000001
 40
0.0
 40
0.0
 40
0.0
 40
0.0
 40
0.1726622413664958
 40
0.2818848601443012
 40
0.3942600249464305
 40
0.4984159758268116
 40
0.6054047847486058
 40
0.7033215749073309
 40
0.8040581654821956
 40
0.9003567674661672
 40
1.0
 40
1.0
 40
1.0
 40
1.0
 10
577.3239702517163
 20
586.9748669742231
 30
0.0
 10
576.1656678557052
 20
586.8547241630739
 30
0.0
 10
574.2746469450514
 20
586.6585814554959
 30
0.0
 10
571.8107890088146
 20
585.693213538336
 30
0.0
 10
569.9369019535133
 20
584.6077025039922
 30
0.0
 10
568.2878652586567
 20
583.2371637513418
 30
0.0
 10
566.951788005546
 20
581.6872422885449
 30
0.0
 10
565.9006400514413
 20
579.9515976053252
 30
0.0
 10
565.1842110949644
 20
578.1199421504754
 30
0.0
 10
564.7644575362784
 20
576.1674263221491
 30
0.0
 10
564.7818911906054
 20
574.8498154605353
 30
0.0
 10
564.7907568097125
 20
574.1797645457015
 30
0.0
  0
LWPOLYLINE
  5
8E
330
1F
100
AcDbEntity
  8
0
  6
Continuous
 62
     7
370
    25
100
AcDbPolyline
 90
        9
 70
   128
 43
0.0
 10
562.7912783093
 20
574.0539942111
 10
562.8264987174
 20
574.056297732
 10
562.9318352358
 20
574.0629880292
 10
563.1047917545
 20
574.0739065659
 10
563.3412698037
 20
574.0887946106
 10
563.6356656738
 20
574.1072993683
 10
563.9810032035
 20
574.1289823404
 10
564.369099091
 20
574.1533297157
 10
564.7907568097
 20
574.1797645457
  0
SPLINE
  5
8F
330
1F
100
AcDbEntity
  8
0
  6
Continuous
 62
     7
370
    25
100
AcDbSpline
210
0.0
220
0.0
230
1.0
 70
     8
 71
     3
 72
    17
 73
    13
 74
     0
 42
0.00000001
 43
0.00000001
 40
0.0
 40
0.0
 40
0.0
 40
0.0
 40
0.1014813455380766
 40
0.2029743941065677
 40
0.3039242933362262
 40
0.4048891875406733
 40
0.5095134735212504
 40
0.61413447918445
 40
0.7217003758165351
 40
0.829244740238863
 40
0.9146247649584128
 40
1.0
 40
1.0
 40
1.0
 40
1.0
 10
562.7912783093188
 20
574.0539942110867
 30
0.0
 10
562.7796900160786
 20
574.8740027854723
 30
0.0
 10
562.7565120932129
 20
576.5141144992616
 30
0.0
 10
563.2217743920249
 20
578.9328083704795
 30
0.0
 10
564.0446198388464
 20
581.2322761113256
 30
0.0
 10
565.2349119726315
 20
583.3884181670247
 30
0.0
 10
566.7799887341873
 20
585.3373910789862
 30
0.0
 10
568.662088760252
 20
587.0437560025963
 30
0.0
 10
570.8354783704048
 20
588.4185275473209
 30
0.0
 10
573.0749877842904
 20
589.3435203012687
 30
0.0
 10
575.2604627151671
 20
589.8843804281922
 30
0.0
 10
576.6361472688313
 20
589.9802906946037
 30
0.0
 10
577.3239702517162
 20
590.0282444826698
 30
0.0
  0
SPLINE
  5
90
330
1F
100
AcDbEntity
  8
0
  6
Continuous
 62
     7
370
    25
100
AcDbSpline
210
0.0
220
0.0
230
1.0
 70
     8
 71
     3
 72
    14
 73
    10
 74
     0
 42
0.00000001
 43
0.00000001
 40
0.0
 40
0.0
 40
0.0
 40
0.0
 40
0.0987833063612635
 40
0.1976311348568207
 40
0.3995659501454711
 40
0.6222201593459447
 40
0.7426229038474768
 40
0.8630258668457546
 40
0.9999999999999999
 40
0.9999999999999999
 40
0.9999999999999999
 40
0.9999999999999999
 10
567.4522011654518
 20
371.1247455733484
 30
0.0
 10
567.4757857150756
 20
370.6508002231317
 30
0.0
 10
567.5229702190057
 20
369.7025999565714
 30
0.0
 10
568.046623723835
 20
367.8545037611644
 30
0.0
 10
569.3215602251963
 20
365.6927340111006
 30
0.0
 10
571.3024244737545
 20
364.0149112305357
 30
0.0
 10
573.2643198428057
 20
363.0399500530605
 30
0.0
 10
574.9828980819565
 20
362.4823652084596
 30
0.0
 10
576.2117931462979
 20
362.3587608795095
 30
0.0
 10
576.8658017534816
 20
362.2929795956846
 30
0.0
  0
LINE
  5
91
330
1F
100
AcDbEntity
  8
0
  6
Continuous
 62
     7
370
    25
100
AcDbLine
 10
567.9098144029
 20
382.7218468334
 30
0.0
 11
567.4522011655
 21
371.1247455733
 31
0.0
  0
SPLINE
  5
92
330
1F
100
AcDbEntity
  8
0
  6
Continuous
 62
     7
370
    25
100
AcDbSpline
210
0.0
220
0.0
230
1.0
 70
     8
 71
     3
 72
    16
 73
    12
 74
     0
 42
0.00000001
 43
0.00000001
 40
0.0
 40
0.0
 40
0.0
 40
0.0
 40
0.1240516992928627
 40
0.2481629400104114
 40
0.4356438474302239
 40
0.5294853726171694
 40
0.6233267781794967
 40
0.7174342496772249
 40
0.8115413501767695
 40
0.9057713920604678
 40
1.0
 40
1.0
 40
1.0
 40
1.0
 10
565.2571762396788
 20
568.4762142168378
 30
0.0
 10
565.9614828297591
 20
560.8156355575462
 30
0.0
 10
567.3704340578307
 20
545.4908013706099
 30
0.0
 10
569.158813033216
 20
518.5315379514758
 30
0.0
 10
570.217895778611
 20
493.4083333424404
 30
0.0
 10
570.638939875719
 20
470.148650234373
 30
0.0
 10
570.6780463201917
 20
452.6761955551358
 30
0.0
 10
570.4359497318484
 20
435.1900760460098
 30
0.0
 10
569.9005013833104
 20
417.6891194449307
 30
0.0
 10
569.0943351038359
 20
400.1929180340301
 30
0.0
 10
568.3046526337181
 20
388.5455076926713
 30
0.0
 10
567.9098144029272
 20
382.7218468333995
 30
0.0
  0
LINE
  5
93
330
1F
100
AcDbEntity
  8
0
  6
Continuous
 62
     7
370
    25
100
AcDbLine
 10
564.7907568097
 20
574.1797645457
 30
0.0
 11
565.2571762397
 21
568.4762142168
 31
0.0
  0
LINE
  5
94
330
1F
100
AcDbEntity
  8
0
  6
Continuous
 62
     7
370
    25
100
AcDbLine
 10
589.3907642638
 20
568.4762142168
 30
0.0
 11
589.8571836937
 21
574.1797645457
 31
0.0
  0
SPLINE
  5
95
330
1F
100
AcDbEntity
  8
0
  6
Continuous
 62
     7
370
    25
100
AcDbSpline
210
0.0
220
0.0
230
1.0
 70
     8
 71
     3
 72
    17
 73
    13
 74
     0
 42
0.00000001
 43
0.00000001
 40
0.0
 40
0.0
 40
0.0
 40
0.0
 40
0.1175912744314823
 40
0.2352544953891715
 40
0.3306092539664666
 40
0.4259643023163858
 40
0.521427984646408
 40
0.6168917583122016
 40
0.7126161308224634
 40
0.8083404621932818
 40
0.9041703404535814
 40
1.0
 40
1.0
 40
1.0
 40
1.0
 10
586.7381261005055
 20
382.721846833397
 30
0.0
 10
586.2543154547203
 20
389.9905517447672
 30
0.0
 10
585.2863981505806
 20
404.5324088198309
 30
0.0
 10
584.4772127455652
 20
425.0123307846145
 30
0.0
 10
584.0506379270047
 20
444.1253989581442
 30
0.0
 10
583.9541786414117
 20
461.86916253511
 30
0.0
 10
584.1448209106409
 20
479.6198690337201
 30
0.0
 10
584.622521121955
 20
497.3890711534387
 30
0.0
 10
585.3823087131927
 20
515.1654391602784
 30
0.0
 10
586.4291473433145
 20
532.9502803453744
 30
0.0
 10
587.735241634815
 20
550.7253584757443
 30
0.0
 10
588.8389238072664
 20
562.5592668045961
 30
0.0
 10
589.3907642637541
 20
568.4762142168404
 30
0.0
  0
LINE
  5
96
330
1F
100
AcDbEntity
  8
0
  6
Continuous
 62
     7
370
    25
100
AcDbLine
 10
587.195739338
 20
371.1247455733
 30
0.0
 11
586.7381261005
 21
382.7218468334
 31
0.0
  0
SPLINE
  5
97
330
1F
100
AcDbEntity
  8
0
  6
Continuous
 62
     7
370
    25
100
AcDbSpline
210
0.0
220
0.0
230
1.0
 70
     8
 71
     3
 72
    14
 73
    10
 74
     0
 42
0.00000001
 43
0.00000001
 40
0.0
 40
0.0
 40
0.0
 40
0.0
 40
0.136974133154264
 40
0.2573770961525397
 40
0.3777798406540724
 40
0.6004340498545296
 40
0.8023688651431833
 40
0.901216693638735
 40
1.0
 40
1.0
 40
1.0
 40
1.0
 10
577.782138749951
 20
362.2929795956848
 30
0.0
 10
578.4361473571348
 20
362.3587608795096
 30
0.0
 10
579.6650424214763
 20
362.4823652084594
 30
0.0
 10
581.3836206606271
 20
363.0399500530607
 30
0.0
 10
583.3455160296782
 20
364.0149112305361
 30
0.0
 10
585.3263802782366
 20
365.6927340111006
 30
0.0
 10
586.6013167795977
 20
367.8545037611645
 30
0.0
 10
587.1249702844268
 20
369.7025999565716
 30
0.0
 10
587.1721547883569
 20
370.6508002231319
 30
0.0
 10
587.1957393379807
 20
371.1247455733487
 30
0.0
  0
LINE
  5
98
330
1F
100
AcDbEntity
  8
0
  6
Continuous
 62
     7
370
    25
100
AcDbLine
 10
577.78213875
 20
362.2929795957
 30
0.0
 11
576.8658017535
 21
362.2929795957
 31
0.0
  0
ARC
  5
99
330
1F
100
AcDbEntity
  8
0
  6
Continuous
 62
     7
370
    25
100
AcDbCircle
 10
585.716177359
 20
524.0165425399
 30
0.0
 40
44.61126533223671
100
AcDbArc
 50
82.6676368741
 51
85.2752489515
  0
SPLINE
  5
9A
330
1F
100
AcDbEntity
  8
0
  6
Continuous
 62
     7
370
    25
100
AcDbSpline
210
0.0
220
0.0
230
1.0
 70
     8
 71
     3
 72
    14
 73
    10
 74
     0
 42
0.00000001
 43
0.00000001
 40
0.0
 40
0.0
 40
0.0
 40
0.0
 40
0.0957347695929048
 40
0.1914698005725108
 40
0.3831217047519852
 40
0.57388924944747
 40
0.7648285817217525
 40
0.8823900686868901
 40
1.0
 40
1.0
 40
1.0
 40
1.0
 10
591.4096835408628
 20
568.2629998206714
 30
0.0
 10
590.8934019450915
 20
562.3648853337352
 30
0.0
 10
589.8608373439338
 20
550.5686402561139
 30
0.0
 10
588.2303230831002
 20
526.9293941499925
 30
0.0
 10
586.8132977771867
 20
497.3884077955393
 30
0.0
 10
586.1589575969767
 20
461.9335538509342
 30
0.0
 10
586.4997767978163
 20
431.0612265994954
 30
0.0
 10
587.3782104759533
 20
404.7314651231625
 30
0.0
 10
588.1923115541324
 20
390.2227726300368
 30
0.0
 10
588.599445943964
 20
382.9669320178897
 30
0.0
  0
ARC
  5
9B
330
1F
100
AcDbEntity
  8
0
  6
Continuous
 62
     7
370
    25
100
AcDbCircle
 10
586.5774703168
 20
391.1324774313
 30
0.0
 40
8.412164842415436
100
AcDbArc
 50
271.0943030934
 51
283.907983084
  0
SPLINE
  5
9C
330
1F
100
AcDbEntity
  8
0
  6
Continuous
 62
     7
370
    25
100
AcDbSpline
210
0.0
220
0.0
230
1.0
 70
     8
 71
     3
 72
    11
 73
     7
 74
     0
 42
0.00000001
 43
0.00000001
 40
0.0
 40
0.0
 40
0.0
 40
0.0
 40
0.2725883468089079
 40
0.5858485104774235
 40
0.7928813469348502
 40
1.0
 40
1.0
 40
1.0
 40
1.0
 10
568.2679259352973
 20
457.2504509602193
 30
0.0
 10
568.2186413363424
 20
467.3506929135269
 30
0.0
 10
568.1127185805638
 20
489.0581935204953
 30
0.0
 10
566.8801144304722
 20
518.4194499900634
 30
0.0
 10
565.2193734257297
 20
545.3255509506721
 30
0.0
 10
563.8987203347606
 20
560.616127407138
 30
0.0
 10
563.2382569625701
 20
568.2629998206688
 30
0.0
  0
ARC
  5
9D
330
1F
100
AcDbEntity
  8
0
  6
Continuous
 62
     7
370
    25
100
AcDbCircle
 10
568.9317631444
 20
524.0165425403
 30
0.0
 40
44.6112653318248
100
AcDbArc
 50
94.7247510485
 51
97.3323631259
  0
ARC
  5
9E
330
1F
100
AcDbEntity
  8
0
  6
Continuous
 62
     7
370
    25
100
AcDbCircle
 10
568.0704701866
 20
391.1324774314
 30
0.0
 40
8.412164842419443
100
AcDbArc
 50
256.092016916
 51
268.9056969066
  0
LINE
  5
9F
330
1F
100
AcDbEntity
  8
0
  6
Continuous
 62
     7
370
    25
100
AcDbLine
 10
563.2382569626
 20
568.2629998207
 30
0.0
 11
562.7912783093
 21
574.0539942111
 31
0.0
  0
LINE
  5
A0
330
1F
100
AcDbEntity
  8
0
  6
Continuous
 62
     7
370
    25
100
AcDbLine
 10
591.8566621941
 20
574.0539942111
 30
0.0
 11
591.4096835409
 21
568.2629998207
 31
0.0
  0
LINE
  5
A1
330
1F
100
AcDbEntity
  8
0
  6
Continuous
 62
     7
370
    25
100
AcDbLine
 10
566.0484945595
 20
383.0379457456
 30
0.0
 11
566.0484945595
 21
382.9669320179
 31
0.0
  0
LINE
  5
A2
330
1F
100
AcDbEntity
  8
0
  6
Continuous
 62
     7
370
    25
100
AcDbLine
 10
588.599445944
 20
382.9669320179
 30
0.0
 11
588.599445944
 21
383.0379457456
 31
0.0
  0
ARC
  5
A3
330
1F
100
AcDbEntity
  8
0
  6
Continuous
 62
     7
370
    25
100
AcDbCircle
 10
567.1561349622
 20
386.2525550697
 30
0.0
 40
15.13070637332532
100
AcDbArc
 50
264.3793844061
 51
271.1211919754
  0
ARC
  5
A4
330
1F
100
AcDbEntity
  8
0
  6
Continuous
 62
     7
370
    25
100
AcDbCircle
 10
613.4307229762
 20
359.4080186749
 30
0.0
 40
36.67855590853489
100
AcDbArc
 50
175.4887264481
 51
180.0877343053
  0
SPLINE
  5
A5
330
1F
100
AcDbEntity
  8
0
  6
Continuous
 62
     7
370
    25
100
AcDbSpline
210
0.0
220
0.0
230
1.0
 70
     8
 71
     3
 72
    16
 73
    12
 74
     0
 42
0.00000001
 43
0.00000001
 40
0.0
 40
0.0
 40
0.0
 40
0.0
 40
0.1289418392257834
 40
0.2439400911840278
 40
0.3589702137075988
 40
0.4693438180688108
 40
0.5797228950311709
 40
0.6843248890190604
 40
0.788906798746852
 40
0.8944616416092039
 40
1.0
 40
1.0
 40
1.0
 40
1.0
 10
576.7522100683532
 20
359.3518545666269
 30
0.0
 10
575.9837664123913
 20
359.4404499065854
 30
0.0
 10
574.5299775054654
 20
359.6080600123332
 30
0.0
 10
572.511125999819
 20
360.3617494914216
 30
0.0
 10
570.7486183825547
 20
361.3635717199899
 30
0.0
 10
569.213258655486
 20
362.640653775471
 30
0.0
 10
567.9455088842801
 20
364.1009791419651
 30
0.0
 10
566.9467879468266
 20
365.7226010199438
 30
0.0
 10
566.2222980426242
 20
367.4574756440737
 30
0.0
 10
565.7602069562427
 20
369.2991087312986
 30
0.0
 10
565.7028799319421
 20
370.5627982976646
 30
0.0
 10
565.6742186581531
 20
371.1945937394795
 30
0.0
  0
ARC
  5
A6
330
1F
100
AcDbEntity
  8
0
  6
Continuous
 62
     7
370
    25
100
AcDbCircle
 10
587.4918055412
 20
386.2525550699
 30
0.0
 40
15.13070637348016
100
AcDbArc
 50
268.8788080246
 51
275.6206155938
  0
SPLINE
  5
A7
330
1F
100
AcDbEntity
  8
0
  6
Continuous
 62
     7
370
    25
100
AcDbSpline
210
0.0
220
0.0
230
1.0
 70
     8
 71
     3
 72
    16
 73
    12
 74
     0
 42
0.00000001
 43
0.00000001
 40
0.0
 40
0.0
 40
0.0
 40
0.0
 40
0.1040419239026736
 40
0.2110962820894851
 40
0.3143508318419102
 40
0.4202791470204338
 40
0.5291618722915319
 40
0.6410309509559917
 40
0.7542368876038535
 40
0.87106366361228
 40
1.0
 40
1.0
 40
1.0
 40
1.0
 10
588.9737218452796
 20
371.1945937394792
 30
0.0
 10
588.9464497189124
 20
370.5716834975713
 30
0.0
 10
588.891115827873
 20
369.3078272441514
 30
0.0
 10
588.4301865964679
 20
367.4737511223405
 30
0.0
 10
587.7063252484295
 20
365.728964198892
 30
0.0
 10
586.7115295544991
 20
364.1150325212283
 30
0.0
 10
585.4425324392824
 20
362.6456355396867
 30
0.0
 10
583.9146931984278
 20
361.3757822348302
 30
0.0
 10
582.1481642623643
 20
360.3641715572837
 30
0.0
 10
580.1285352921636
 20
359.6100807536039
 30
0.0
 10
578.6640520300969
 20
359.4407117523428
 30
0.0
 10
577.8957304350819
 20
359.3518545666271
 30
0.0
  0
ARC
  5
A8
330
1F
100
AcDbEntity
  8
0
  6
Continuous
 62
     7
370
    25
100
AcDbCircle
 10
541.2172175265
 20
359.4080186748
 30
0.0
 40
36.67855590927228
100
AcDbArc
 50
359.9122656948
 51
4.5112735519
  0
LINE
  5
A9
330
1F
100
AcDbEntity
  8
0
  6
Continuous
 62
     7
370
    25
100
AcDbLine
 10
576.7522100684
 20
359.3518545666
 30
0.0
 11
577.8957304351
 21
359.3518545666
 31
0.0
  0
LINE
  5
AA
330
1F
100
AcDbEntity
  8
0
  6
Continuous
 62
     7
370
    25
100
AcDbLine
 10
565.6742186582
 20
371.1945937395
 30
0.0
 11
566.0484945595
 21
382.9669320179
 31
0.0
  0
LINE
  5
AB
330
1F
100
AcDbEntity
  8
0
  6
Continuous
 62
     7
370
    25
100
AcDbLine
 10
588.599445944
 20
382.9669320179
 30
0.0
 11
588.9737218453
 21
371.1945937395
 31
0.0
  0
SPLINE
  5
AC
330
1F
100
AcDbEntity
  8
0
  6
Continuous
 62
     7
370
    25
100
AcDbSpline
210
0.0
220
0.0
230
1.0
 70
     8
 71
     3
 72
     9
 73
     5
 74
     0
 42
0.00000001
 43
0.00000001
 40
0.0
 40
0.0
 40
0.0
 40
0.0
 40
0.5173759112325205
 40
1.0
 40
1.0
 40
1.0
 40
1.0
 10
588.9737218452796
 20
371.1945937394792
 30
0.0
 10
588.9734954535645
 20
371.3745047214275
 30
0.0
 10
588.9730578767269
 20
371.7222421750708
 30
0.0
 10
588.9664684001159
 20
372.5446194596414
 30
0.0
 10
588.9632881599711
 20
372.9415185472304
 30
0.0
  0
SPLINE
  5
AD
330
1F
100
AcDbEntity
  8
0
  6
Continuous
 62
     7
370
    25
100
AcDbSpline
210
0.0
220
0.0
230
1.0
 70
     8
 71
     3
 72
     9
 73
     5
 74
     0
 42
0.00000001
 43
0.00000001
 40
0.0
 40
0.0
 40
0.0
 40
0.0
 40
0.5697240273731504
 40
1.0
 40
1.0
 40
1.0
 40
1.0
 10
588.9632881599711
 20
372.9415185472304
 30
0.0
 10
588.963271454719
 20
372.9433160347969
 30
0.0
 10
588.9632421330631
 20
372.9464710492951
 30
0.0
 10
588.9632036980037
 20
372.9496805282166
 30
0.0
 10
588.9631871603211
 20
372.9510614898811
 30
0.0
  0
LINE
  5
AE
330
1F
100
AcDbEntity
  8
0
  6
Continuous
 62
     7
370
    25
100
AcDbLine
 10
588.9572280555
 20
373.2169556083
 30
0.0
 11
588.9554673798
 21
373.2894541416
 31
0.0
  0
LINE
  5
AF
330
1F
100
AcDbEntity
  8
0
  6
Continuous
 62
     7
370
    25
100
AcDbLine
 10
565.6924731237
 20
373.2894541416
 30
0.0
 11
565.6907124479
 21
373.2169556083
 31
0.0
  0
SPLINE
  5
B0
330
1F
100
AcDbEntity
  8
0
  6
Continuous
 62
     7
370
    25
100
AcDbSpline
210
0.0
220
0.0
230
1.0
 70
     8
 71
     3
 72
     9
 73
     5
 74
     0
 42
0.00000001
 43
0.00000001
 40
0.0
 40
0.0
 40
0.0
 40
0.0
 40
0.430275971560599
 40
0.9999999999999999
 40
0.9999999999999999
 40
0.9999999999999999
 40
0.9999999999999999
 10
565.6847533431112
 20
372.9510614898597
 30
0.0
 10
565.6847368054288
 20
372.9496805282011
 30
0.0
 10
565.6846983703693
 20
372.9464710492855
 30
0.0
 10
565.6846690487135
 20
372.9433160347954
 30
0.0
 10
565.6846523434615
 20
372.9415185472303
 30
0.0
  0
SPLINE
  5
B1
330
1F
100
AcDbEntity
  8
0
  6
Continuous
 62
     7
370
    25
100
AcDbSpline
210
0.0
220
0.0
230
1.0
 70
     8
 71
     3
 72
     9
 73
     5
 74
     0
 42
0.00000001
 43
0.00000001
 40
0.0
 40
0.0
 40
0.0
 40
0.0
 40
0.4826240887677676
 40
0.9999999999999999
 40
0.9999999999999999
 40
0.9999999999999999
 40
0.9999999999999999
 10
565.6846523434615
 20
372.9415185472303
 30
0.0
 10
565.6814721033167
 20
372.5446194596413
 30
0.0
 10
565.6748826267057
 20
371.7222421750712
 30
0.0
 10
565.6744450498682
 20
371.3745047214278
 30
0.0
 10
565.6742186581531
 20
371.1945937394795
 30
0.0
  0
LINE
  5
B2
330
1F
100
AcDbEntity
  8
0
  6
Continuous
 62
     7
370
    25
100
AcDbLine
 10
565.6846523435
 20
372.9415176828
 30
0.0
 11
565.6846523435
 21
372.9415185472
 31
0.0
  0
SPLINE
  5
B3
330
1F
100
AcDbEntity
  8
0
  6
Continuous
 62
     7
370
    25
100
AcDbSpline
210
0.0
220
0.0
230
1.0
 70
     8
 71
     3
 72
    11
 73
     7
 74
     0
 42
0.00000001
 43
0.00000001
 40
0.0
 40
0.0
 40
0.0
 40
0.0
 40
0.2463151610525656
 40
0.4983517271562473
 40
0.9981628694346878
 40
0.9999999999999999
 40
0.9999999999999999
 40
0.9999999999999999
 40
0.9999999999999999
 10
566.0484945594686
 20
383.0379457455704
 30
0.0
 10
565.9964221177254
 20
382.1300730543023
 30
0.0
 10
565.8910676963042
 20
380.29323961783
 30
0.0
 10
565.7546467199702
 20
376.8907096347102
 30
0.0
 10
565.7013266156883
 20
374.5193050271016
 30
0.0
 10
565.6847131849773
 20
372.947274754105
 30
0.0
 10
565.6846523434615
 20
372.9415176828253
 30
0.0
  0
SPLINE
  5
B4
330
1F
100
AcDbEntity
  8
0
  6
Continuous
 62
     7
370
    25
100
AcDbSpline
210
0.0
220
0.0
230
1.0
 70
     8
 71
     3
 72
    11
 73
     7
 74
     0
 42
0.00000001
 43
0.00000001
 40
0.0
 40
0.0
 40
0.0
 40
0.0
 40
0.0018371419761989
 40
0.5016513886724339
 40
0.7485962555481136
 40
1.0
 40
1.0
 40
1.0
 40
1.0
 10
588.9632881599711
 20
372.9415176828255
 30
0.0
 10
588.9632273184999
 20
372.9472747536655
 30
0.0
 10
588.9466139000015
 20
374.5193049064673
 30
0.0
 10
588.8936392061039
 20
376.8748313047622
 30
0.0
 10
588.757704469698
 20
380.2751749982871
 30
0.0
 10
588.6525125140845
 20
382.1115453073771
 30
0.0
 10
588.599445943964
 20
383.0379457455677
 30
0.0
  0
LINE
  5
B5
330
1F
100
AcDbEntity
  8
0
  6
Continuous
 62
     7
370
    25
100
AcDbLine
 10
588.96328816
 20
372.9415185472
 30
0.0
 11
588.96328816
 21
372.9415176828
 31
0.0
  0
ARC
  5
B6
330
1F
100
AcDbEntity
  8
0
  6
Continuous
 62
     7
370
    25
100
AcDbCircle
 10
577.3239702517
 20
576.1447322816
 30
0.0
 40
14.22500000000002
100
AcDbArc
 50
22.6183957222
 51
156.4766990113
  0
LINE
  5
B7
330
1F
100
AcDbEntity
  8
0
  6
Continuous
 62
     7
370
    25
100
AcDbLine
 10
584.8051928761
 20
588.2435724345
 30
0.0
 11
584.9327654349
 21
588.4498863051
 31
0.0
  0
SPLINE
  5
B8
330
1F
100
AcDbEntity
  8
0
  6
Continuous
 62
     7
370
    25
100
AcDbSpline
210
0.0
220
0.0
230
1.0
 70
     8
 71
     3
 72
    11
 73
     7
 74
     0
 42
0.00000001
 43
0.00000001
 40
0.0
 40
0.0
 40
0.0
 40
0.0
 40
0.1446702591042529
 40
0.3907520209323639
 40
0.5962314811354595
 40
1.0
 40
1.0
 40
1.0
 40
1.0
 10
589.7676402777408
 20
583.5248173735961
 30
0.0
 10
589.562748204895
 20
583.7879187491137
 30
0.0
 10
589.0093380428252
 20
584.4985512925967
 30
0.0
 10
588.0971249794429
 20
585.5287376548043
 30
0.0
 10
586.7231535701814
 20
586.9458185247578
 30
0.0
 10
585.6463790503334
 20
587.8503943706828
 30
0.0
 10
584.9327654349128
 20
588.4498863050978
 30
0.0
  0
LINE
  5
B9
330
1F
100
AcDbEntity
  8
0
  6
Continuous
 62
     7
370
    25
100
AcDbLine
 10
589.5590039841
 20
583.4010794734
 30
0.0
 11
589.7676402777
 21
583.5248173736
 31
0.0
  0
SPLINE
  5
BA
330
1F
100
AcDbEntity
  8
0
  6
Continuous
 62
     7
370
    25
100
AcDbSpline
210
0.0
220
0.0
230
1.0
 70
     8
 71
     3
 72
    11
 73
     7
 74
     0
 42
0.00000001
 43
0.00000001
 40
0.0
 40
0.0
 40
0.0
 40
0.0
 40
0.1446702591042556
 40
0.3907520209323692
 40
0.596231481135486
 40
0.9999999999999999
 40
0.9999999999999999
 40
0.9999999999999999
 40
0.9999999999999999
 10
564.7107940669578
 20
583.2312240944732
 30
0.0
 10
564.5853876284119
 20
582.9222316665956
 30
0.0
 10
564.2466668740345
 20
582.0876481357893
 30
0.0
 10
563.8106058454216
 20
580.7825552681322
 30
0.0
 10
563.2703635174557
 20
578.8841206886617
 30
0.0
 10
563.0253651151589
 20
577.4993186773629
 30
0.0
 10
562.8629966783019
 20
576.5815651907147
 30
0.0
  0
LINE
  5
BB
330
1F
100
AcDbEntity
  8
0
  6
Continuous
 62
     7
370
    25
100
AcDbLine
 10
564.9222723788
 20
583.1124087142
 30
0.0
 11
564.710794067
 21
583.2312240945
 31
0.0
  0
LINE
  5
BC
330
1F
100
AcDbEntity
  8
0
  6
Continuous
 62
     7
370
    25
100
AcDbLine
 10
570.5866786352
 20
588.6730812021
 30
0.0
 11
570.4717918615
 21
588.8867192142
 31
0.0
  0
SPLINE
  5
BD
330
1F
100
AcDbEntity
  8
0
  6
Continuous
 62
     7
370
    25
100
AcDbSpline
210
0.0
220
0.0
230
1.0
 70
     8
 71
     3
 72
    11
 73
     7
 74
     0
 42
0.00000001
 43
0.00000001
 40
0.0
 40
0.0
 40
0.0
 40
0.0
 40
0.1446702591042546
 40
0.3907520209323574
 40
0.5962314811354746
 40
1.0
 40
1.0
 40
1.0
 40
1.0
 10
577.1544640929824
 20
590.6113091864539
 30
0.0
 10
576.8241655815906
 20
590.5654181340941
 30
0.0
 10
575.9320346651434
 20
590.4414671467707
 30
0.0
 10
574.5837605731482
 20
590.1665606413213
 30
0.0
 10
572.6695468359208
 20
589.6852069318041
 30
0.0
 10
571.3477739137759
 20
589.2049807664305
 30
0.0
 10
570.4717918614983
 20
588.8867192141973
 30
0.0
  0
LINE
  5
BE
330
1F
100
AcDbEntity
  8
0
  6
Continuous
 62
     7
370
    25
100
AcDbLine
 10
577.1573061112
 20
590.3687559059
 30
0.0
 11
577.154464093
 21
590.6113091865
 31
0.0
  0
SPLINE
  5
BF
330
1F
100
AcDbEntity
  8
0
  6
Continuous
 62
     7
370
    25
100
AcDbSpline
210
0.0
220
0.0
230
1.0
 70
     8
 71
     3
 72
     9
 73
     5
 74
     0
 42
0.00000001
 43
0.00000001
 40
0.0
 40
0.0
 40
0.0
 40
0.0
 40
0.5863847898283631
 40
1.0
 40
1.0
 40
1.0
 40
1.0
 10
590.7702716418189
 20
582.1466156465705
 30
0.0
 10
590.57900639133
 20
582.4198920798714
 30
0.0
 10
590.2528293591039
 20
582.8859280992929
 30
0.0
 10
589.9096036510953
 20
583.3378822588874
 30
0.0
 10
589.7676402777408
 20
583.5248173735961
 30
0.0
  0
ARC
  5
C0
330
1F
100
AcDbEntity
  8
0
  6
Continuous
 62
     7
370
    25
100
AcDbCircle
 10
577.3239702517
 20
576.1447322816
 30
0.0
 40
14.72500000000003
100
AcDbArc
 50
4.8870148383
 51
24.0540459638
  0
SPLINE
  5
C1
330
1F
100
AcDbEntity
  8
0
  6
Continuous
 62
     7
370
    25
100
AcDbSpline
210
0.0
220
0.0
230
1.0
 70
     8
 71
     3
 72
     9
 73
     5
 74
     0
 42
0.00000001
 43
0.00000001
 40
0.0
 40
0.0
 40
0.0
 40
0.0
 40
0.5862283062032898
 40
1.0
 40
1.0
 40
1.0
 40
1.0
 10
591.7849438251308
 20
575.7078993725157
 30
0.0
 10
591.8320385357922
 20
576.0373281264958
 30
0.0
 10
591.9123736376
 20
576.5992743008685
 30
0.0
 10
591.9711283686659
 20
577.1650637833765
 30
0.0
 10
591.9954394132575
 20
577.3991714558863
 30
0.0
  0
SPLINE
  5
C2
330
1F
100
AcDbEntity
  8
0
  6
Continuous
 62
     7
370
    25
100
AcDbSpline
210
0.0
220
0.0
230
1.0
 70
     8
 71
     3
 72
     9
 73
     5
 74
     0
 42
0.00000001
 43
0.00000001
 40
0.0
 40
0.0
 40
0.0
 40
0.0
 40
0.5862283062032932
 40
1.0
 40
1.0
 40
1.0
 40
1.0
 10
584.9327654349128
 20
588.4498863050978
 30
0.0
 10
584.6710191205598
 20
588.6553858979046
 30
0.0
 10
584.2245270088972
 20
589.0059312240721
 30
0.0
 10
583.7639163093843
 20
589.3397090550217
 30
0.0
 10
583.5733286400658
 20
589.4778168734855
 30
0.0
  0
SPLINE
  5
C3
330
1F
100
AcDbEntity
  8
0
  6
Continuous
 62
     7
370
    25
100
AcDbSpline
210
0.0
220
0.0
230
1.0
 70
     8
 71
     3
 72
     9
 73
     5
 74
     0
 42
0.00000001
 43
0.00000001
 40
0.0
 40
0.0
 40
0.0
 40
0.0
 40
0.5863847898283574
 40
1.0
 40
1.0
 40
1.0
 40
1.0
 10
578.8493374821652
 20
590.7905125548637
 30
0.0
 10
578.5170405234265
 20
590.7615102057297
 30
0.0
 10
577.9503529754159
 20
590.7120506194013
 30
0.0
 10
577.3873363378566
 20
590.6407855168313
 30
0.0
 10
577.1544640929824
 20
590.6113091864539
 30
0.0
  0
ARC
  5
C4
330
1F
100
AcDbEntity
  8
0
  6
Continuous
 62
     7
370
    25
100
AcDbCircle
 10
577.3239702517
 20
576.1447322816
 30
0.0
 40
14.72500000000008
100
AcDbArc
 50
64.8870148383
 51
84.0540459638
  0
SPLINE
  5
C5
330
1F
100
AcDbEntity
  8
0
  6
Continuous
 62
     7
370
    25
100
AcDbSpline
210
0.0
220
0.0
230
1.0
 70
     8
 71
     3
 72
     9
 73
     5
 74
     0
 42
0.00000001
 43
0.00000001
 40
0.0
 40
0.0
 40
0.0
 40
0.0
 40
0.586228306203287
 40
1.0
 40
1.0
 40
1.0
 40
1.0
 10
570.4717918614983
 20
588.8867192141973
 30
0.0
 10
570.1629508364838
 20
588.762790053024
 30
0.0
 10
569.6361236230136
 20
588.5513892048187
 30
0.0
 10
569.1167581924348
 20
588.3193775532603
 30
0.0
 10
568.9018594785247
 20
588.2233776992144
 30
0.0
  0
SPLINE
  5
C6
330
1F
100
AcDbEntity
  8
0
  6
Continuous
 62
     7
370
    25
100
AcDbSpline
210
0.0
220
0.0
230
1.0
 70
     8
 71
     3
 72
     9
 73
     5
 74
     0
 42
0.00000001
 43
0.00000001
 40
0.0
 40
0.0
 40
0.0
 40
0.0
 40
0.5863847898283611
 40
0.9999999999999999
 40
0.9999999999999999
 40
0.9999999999999999
 40
0.9999999999999999
 10
565.4030360920626
 20
584.7886291899085
 30
0.0
 10
565.2620043838128
 20
584.4863504074735
 30
0.0
 10
565.0214938680283
 20
583.9708548017237
 30
0.0
 10
564.8017029384778
 20
583.4476355395591
 30
0.0
 10
564.7107940669578
 20
583.2312240944732
 30
0.0
  0
ARC
  5
C7
330
1F
100
AcDbEntity
  8
0
  6
Continuous
 62
     7
370
    25
100
AcDbCircle
 10
577.3239702517
 20
576.1447322816
 30
0.0
 40
14.72500000000004
100
AcDbArc
 50
124.8870148383
 51
144.0540459638
  0
SPLINE
  5
C8
330
1F
100
AcDbEntity
  8
0
  6
Continuous
 62
     7
370
    25
100
AcDbSpline
210
0.0
220
0.0
230
1.0
 70
    24
 71
     3
 72
    12
 73
     8
 74
     0
 42
0.00000001
 43
0.00000001
 40
0.0
 40
0.0
 40
0.0
 40
0.0
 40
0.3013828945620926
 40
0.4108442493795682
 40
0.6247185195336458
 40
0.6986171054378634
 40
1.0
 40
1.0
 40
1.0
 40
1.0
 10
585.1541830510341
 20
588.5812045451687
 30
0.0
 10
585.6299459467214
 20
588.0965663420133
 30
0.0
 10
586.2785044856698
 20
587.4359090107953
 30
0.0
 10
587.2694218889887
 20
586.4265061461049
 30
0.0
 10
587.9006902294848
 20
585.7834615601982
 30
0.0
 10
588.8348707231717
 20
584.8318540263036
 30
0.0
 10
589.4272761957872
 20
584.2283972910466
 30
0.0
 10
589.9030280923887
 20
583.7437702921634
 30
0.0
  0
ARC
  5
C9
330
1F
100
AcDbEntity
  8
0
  6
Continuous
 62
     7
370
    25
100
AcDbCircle
 10
589.5229511467
 20
583.827453427
 30
0.0
 40
0.3891803587969673
100
AcDbArc
 50
308.956441591
 51
347.5830620401
  0
ARC
  5
CA
330
1F
100
AcDbEntity
  8
0
  6
Continuous
 62
     7
370
    25
100
AcDbCircle
 10
585.230827721
 20
588.1996459701
 30
0.0
 40
0.3891803587971892
100
AcDbArc
 50
101.357998762
 51
139.9846192111
  0
ARC
  5
CB
330
1F
100
AcDbEntity
  8
0
  6
Continuous
 62
     7
370
    25
100
AcDbCircle
 10
591.717260481
 20
575.3246496933
 30
0.0
 40
0.3891803588376552
100
AcDbArc
 50
41.3579987641
 51
79.984619209
  0
LINE
  5
CC
330
1F
100
AcDbEntity
  8
0
  6
Continuous
 62
     7
370
    25
100
AcDbLine
 10
592.0093775651
 20
575.5818052121
 30
0.0
 11
591.8380558191
 21
574.9652705311
 31
0.0
  0
SPLINE
  5
CD
330
1F
100
AcDbEntity
  8
0
  6
Continuous
 62
     7
370
    25
100
AcDbSpline
210
0.0
220
0.0
230
1.0
 70
    24
 71
     3
 72
    12
 73
     8
 74
     0
 42
0.00000001
 43
0.00000001
 40
0.0
 40
0.0
 40
0.0
 40
0.0
 40
0.3013828945620992
 40
0.4108442493795574
 40
0.6247185195336494
 40
0.6986171054378604
 40
0.9999999999999999
 40
0.9999999999999999
 40
0.9999999999999999
 40
0.9999999999999999
 10
570.4687757376774
 20
589.1441316146393
 30
0.0
 10
571.1263661810981
 20
589.3138352669047
 30
0.0
 10
572.0227914826035
 20
589.5451747718665
 30
0.0
 10
573.3924187077376
 20
589.8986329838476
 30
0.0
 10
574.2649458251468
 20
590.1238051103685
 30
0.0
 10
575.5561523707756
 20
590.457025382674
 30
0.0
 10
576.3749639699008
 20
590.6683352036713
 30
0.0
 10
577.0325392105941
 20
590.8380349325854
 30
0.0
  0
ARC
  5
CE
330
1F
100
AcDbEntity
  8
0
  6
Continuous
 62
     7
370
    25
100
AcDbCircle
 10
576.7700290171
 20
590.5507202097
 30
0.0
 40
0.389180358796414
100
AcDbArc
 50
8.956441591
 51
47.5830620402
  0
ARC
  5
CF
330
1F
100
AcDbEntity
  8
0
  6
Continuous
 62
     7
370
    25
100
AcDbCircle
 10
570.8375374917
 20
589.0197285584
 30
0.0
 40
0.3891803587970156
100
AcDbArc
 50
161.3579987619
 51
199.9846192111
  0
SPLINE
  5
D0
330
1F
100
AcDbEntity
  8
0
  6
Continuous
 62
     7
370
    25
100
AcDbSpline
210
0.0
220
0.0
230
1.0
 70
    24
 71
     3
 72
    12
 73
     8
 74
     0
 42
0.00000001
 43
0.00000001
 40
0.0
 40
0.0
 40
0.0
 40
0.0
 40
0.3013828945621526
 40
0.4108442493795541
 40
0.6247185195336458
 40
0.6986171054378584
 40
0.9999999999999999
 40
0.9999999999999999
 40
0.9999999999999999
 40
0.9999999999999999
 10
562.6385629383595
 20
576.7076593510859
 30
0.0
 10
562.8203904860931
 20
577.3620012065071
 30
0.0
 10
563.06825724865
 20
578.2539980426866
 30
0.0
 10
563.4469670704651
 20
579.616859119358
 30
0.0
 10
563.6882258473785
 20
580.4850758317857
 30
0.0
 10
564.0452518993203
 20
581.7699036379856
 30
0.0
 10
564.27165802583
 20
582.5846701942401
 30
0.0
 10
564.4534813699219
 20
583.2389969220371
 30
0.0
  0
ARC
  5
D1
330
1F
100
AcDbEntity
  8
0
  6
Continuous
 62
     7
370
    25
100
AcDbCircle
 10
564.5710481221
 20
582.8679990643
 30
0.0
 40
0.3891803587964162
100
AcDbArc
 50
68.956441591
 51
107.5830620402
  0
ARC
  5
D2
330
1F
100
AcDbEntity
  8
0
  6
Continuous
 62
     7
370
    25
100
AcDbCircle
 10
562.9306800224
 20
576.9648148699
 30
0.0
 40
0.3891803587983524
100
AcDbArc
 50
221.357998762
 51
259.984619211
  0
LINE
  5
D3
330
1F
100
AcDbEntity
  8
0
  6
Continuous
 62
     7
370
    25
100
AcDbLine
 10
564.4534813699
 20
583.238996922
 30
0.0
 11
564.9212896551
 21
584.9224961778
 31
0.0
  0
LINE
  5
D4
330
1F
100
AcDbEntity
  8
0
  6
Continuous
 62
     7
370
    25
100
AcDbLine
 10
564.9212896551
 20
584.9224961778
 30
0.0
 11
565.4030360921
 21
584.7886291899
 31
0.0
  0
LINE
  5
D5
330
1F
100
AcDbEntity
  8
0
  6
Continuous
 62
     7
370
    25
100
AcDbLine
 10
589.9030280924
 20
583.7437702922
 30
0.0
 11
591.1270770726
 21
582.4968868052
 31
0.0
  0
LINE
  5
D6
330
1F
100
AcDbEntity
  8
0
  6
Continuous
 62
     7
370
    25
100
AcDbLine
 10
591.1270770726
 20
582.4968868052
 30
0.0
 11
590.7702716418
 21
582.1466156466
 31
0.0
  0
LINE
  5
D7
330
1F
100
AcDbEntity
  8
0
  6
Continuous
 62
     7
370
    25
100
AcDbLine
 10
577.0325392106
 20
590.8380349326
 30
0.0
 11
578.724396476
 21
591.2746507014
 31
0.0
  0
LINE
  5
D8
330
1F
100
AcDbEntity
  8
0
  6
Continuous
 62
     7
370
    25
100
AcDbLine
 10
578.724396476
 20
591.2746507014
 30
0.0
 11
578.8493374822
 21
590.7905125549
 31
0.0
  0
LINE
  5
D9
330
1F
100
AcDbEntity
  8
0
  6
Continuous
 62
     7
370
    25
100
AcDbLine
 10
583.9301340708
 20
589.8280880321
 30
0.0
 11
585.154183051
 21
588.5812045452
 31
0.0
  0
LINE
  5
DA
330
1F
100
AcDbEntity
  8
0
  6
Continuous
 62
     7
370
    25
100
AcDbLine
 10
583.9301340708
 20
589.8280880321
 30
0.0
 11
583.5733286401
 21
589.4778168735
 31
0.0
  0
LINE
  5
DB
330
1F
100
AcDbEntity
  8
0
  6
Continuous
 62
     7
370
    25
100
AcDbLine
 10
591.9954394133
 20
577.3991714559
 30
0.0
 11
592.4771858502
 21
577.265304468
 31
0.0
  0
LINE
  5
DC
330
1F
100
AcDbEntity
  8
0
  6
Continuous
 62
     7
370
    25
100
AcDbLine
 10
592.4771858502
 20
577.265304468
 30
0.0
 11
592.0093775651
 21
575.5818052121
 31
0.0
  0
LINE
  5
DD
330
1F
100
AcDbEntity
  8
0
  6
Continuous
 62
     7
370
    25
100
AcDbLine
 10
568.7769184723
 20
588.7075158458
 30
0.0
 11
570.4687757377
 21
589.1441316146
 31
0.0
  0
LINE
  5
DE
330
1F
100
AcDbEntity
  8
0
  6
Continuous
 62
     7
370
    25
100
AcDbLine
 10
568.9018594785
 20
588.2233776992
 30
0.0
 11
568.7769184723
 21
588.7075158458
 31
0.0
  0
LINE
  5
DF
330
1F
100
AcDbEntity
  8
0
  6
Continuous
 62
     7
370
    25
100
AcDbLine
 10
562.1707546532
 20
575.0241600953
 30
0.0
 11
562.6385629384
 21
576.7076593511
 31
0.0
  0
LINE
  5
E0
330
1F
100
AcDbEntity
  8
0
  6
Continuous
 62
     7
370
    25
100
AcDbLine
 10
562.6525010902
 20
574.8902931073
 30
0.0
 11
562.1707546532
 21
575.0241600953
 31
0.0
  0
LINE
  5
E1
330
1F
100
AcDbEntity
  8
0
  6
Continuous
 62
     7
370
    25
100
AcDbLine
 10
582.5844441057
 20
591.198881704
 30
0.0
 11
582.2276386749
 21
590.8486105454
 31
0.0
  0
LINE
  5
E2
330
1F
100
AcDbEntity
  8
0
  6
Continuous
 62
     7
370
    25
100
AcDbLine
 10
582.3858215272
 20
591.3229291991
 30
0.0
 11
582.2276386749
 21
590.8486105454
 31
0.0
  0
ARC
  5
E3
330
1F
100
AcDbEntity
  8
0
  6
Continuous
 62
     7
370
    25
100
AcDbCircle
 10
582.2276386749
 20
590.8486105454
 30
0.0
 40
0.5000000000000555
100
AcDbArc
 50
44.470530401
 51
71.5567201596
  0
LINE
  5
E4
330
1F
100
AcDbEntity
  8
0
  6
Continuous
 62
     7
370
    25
100
AcDbLine
 10
583.5733286401
 20
589.4778168735
 30
0.0
 11
582.2276386749
 21
590.8486105454
 31
0.0
  0
LINE
  5
E5
330
1F
100
AcDbEntity
  8
0
  6
Continuous
 62
     7
370
    25
100
AcDbLine
 10
580.709324608
 20
591.2705174144
 30
0.0
 11
578.8493374822
 21
590.7905125549
 31
0.0
  0
ARC
  5
E6
330
1F
100
AcDbEntity
  8
0
  6
Continuous
 62
     7
370
    25
100
AcDbCircle
 10
577.3239702517
 20
576.1447322816
 30
0.0
 40
15.50000000000007
100
AcDbArc
 50
71.5567201596
 51
77.3843406425
  0
LINE
  5
E7
330
1F
100
AcDbEntity
  8
0
  6
Continuous
 62
     7
370
    25
100
AcDbLine
 10
582.5844441057
 20
591.198881704
 30
0.0
 11
583.9301340708
 21
589.8280880321
 31
0.0
  0
ARC
  5
E8
330
1F
100
AcDbEntity
  8
0
  6
Continuous
 62
     7
370
    25
100
AcDbCircle
 10
577.3239702517
 20
576.1447322816
 30
0.0
 40
16.0000000000001
100
AcDbArc
 50
71.5567201596
 51
77.3843406425
  0
LINE
  5
E9
330
1F
100
AcDbEntity
  8
0
  6
Continuous
 62
     7
370
    25
100
AcDbLine
 10
580.8185295872
 20
591.7584459671
 30
0.0
 11
580.709324608
 21
591.2705174144
 31
0.0
  0
ARC
  5
EA
330
1F
100
AcDbEntity
  8
0
  6
Continuous
 62
     7
370
    25
100
AcDbCircle
 10
562.1382039296
 20
573.0394945759
 30
0.0
 40
0.4999999999999958
100
AcDbArc
 50
164.470530401
 51
191.5567201596
  0
LINE
  5
EB
330
1F
100
AcDbEntity
  8
0
  6
Continuous
 62
     7
370
    25
100
AcDbLine
 10
562.1382039296
 20
573.0394945759
 30
0.0
 11
561.6564574926
 21
573.1733615639
 31
0.0
  0
LINE
  5
EC
330
1F
100
AcDbEntity
  8
0
  6
Continuous
 62
     7
370
    25
100
AcDbLine
 10
561.6483404998
 20
572.9393256177
 30
0.0
 11
562.1382039296
 21
573.0394945759
 31
0.0
  0
ARC
  5
ED
330
1F
100
AcDbEntity
  8
0
  6
Continuous
 62
     7
370
    25
100
AcDbCircle
 10
562.5319788964
 20
571.5136425886
 30
0.0
 40
0.5000000000000555
100
AcDbArc
 50
197.3843406425
 51
224.470530401
  0
LINE
  5
EE
330
1F
100
AcDbEntity
  8
0
  6
Continuous
 62
     7
370
    25
100
AcDbLine
 10
562.5319788964
 20
571.5136425886
 30
0.0
 11
562.054817885
 21
571.3642525985
 31
0.0
  0
LINE
  5
EF
330
1F
100
AcDbEntity
  8
0
  6
Continuous
 62
     7
370
    25
100
AcDbLine
 10
562.1751734657
 20
571.1633714299
 30
0.0
 11
562.5319788964
 21
571.5136425886
 31
0.0
  0
LINE
  5
F0
330
1F
100
AcDbEntity
  8
0
  6
Continuous
 62
     7
370
    25
100
AcDbLine
 10
591.9954394133
 20
577.3991714559
 30
0.0
 11
592.5097365739
 21
579.2499699873
 31
0.0
  0
LINE
  5
F1
330
1F
100
AcDbEntity
  8
0
  6
Continuous
 62
     7
370
    25
100
AcDbLine
 10
592.5097365739
 20
579.2499699873
 30
0.0
 11
592.9914830109
 21
579.1161029994
 31
0.0
  0
LINE
  5
F2
330
1F
100
AcDbEntity
  8
0
  6
Continuous
 62
     7
370
    25
100
AcDbLine
 10
592.9914830109
 20
579.1161029994
 30
0.0
 11
592.4771858502
 21
577.265304468
 31
0.0
  0
LINE
  5
F3
330
1F
100
AcDbEntity
  8
0
  6
Continuous
 62
     7
370
    25
100
AcDbLine
 10
591.1270770726
 20
582.4968868052
 30
0.0
 11
592.4727670378
 21
581.1260931333
 31
0.0
  0
LINE
  5
F4
330
1F
100
AcDbEntity
  8
0
  6
Continuous
 62
     7
370
    25
100
AcDbLine
 10
592.4727670378
 20
581.1260931333
 30
0.0
 11
592.115961607
 21
580.7758219747
 31
0.0
  0
LINE
  5
F5
330
1F
100
AcDbEntity
  8
0
  6
Continuous
 62
     7
370
    25
100
AcDbLine
 10
592.115961607
 20
580.7758219747
 30
0.0
 11
590.7702716418
 21
582.1466156466
 31
0.0
  0
LINE
  5
F6
330
1F
100
AcDbEntity
  8
0
  6
Continuous
 62
     7
370
    25
100
AcDbLine
 10
564.9212896551
 20
584.9224961778
 30
0.0
 11
565.4355868157
 21
586.7732947093
 31
0.0
  0
LINE
  5
F7
330
1F
100
AcDbEntity
  8
0
  6
Continuous
 62
     7
370
    25
100
AcDbLine
 10
565.4355868157
 20
586.7732947093
 30
0.0
 11
565.9173332527
 21
586.6394277213
 31
0.0
  0
LINE
  5
F8
330
1F
100
AcDbEntity
  8
0
  6
Continuous
 62
     7
370
    25
100
AcDbLine
 10
565.9173332527
 20
586.6394277213
 30
0.0
 11
565.4030360921
 21
584.7886291899
 31
0.0
  0
LINE
  5
F9
330
1F
100
AcDbEntity
  8
0
  6
Continuous
 62
     7
370
    25
100
AcDbLine
 10
565.5493772205
 20
586.9779662839
 30
0.0
 11
565.9173332527
 21
586.6394277213
 31
0.0
  0
ARC
  5
FA
330
1F
100
AcDbEntity
  8
0
  6
Continuous
 62
     7
370
    25
100
AcDbCircle
 10
565.9173332527
 20
586.6394277213
 30
0.0
 40
0.5000000000000844
100
AcDbArc
 50
137.3843406425
 51
164.470530401
  0
LINE
  5
FB
330
1F
100
AcDbEntity
  8
0
  6
Continuous
 62
     7
370
    25
100
AcDbLine
 10
578.724396476
 20
591.2746507014
 30
0.0
 11
580.5843836018
 21
591.754655561
 31
0.0
  0
LINE
  5
FC
330
1F
100
AcDbEntity
  8
0
  6
Continuous
 62
     7
370
    25
100
AcDbLine
 10
580.5843836018
 20
591.754655561
 30
0.0
 11
580.709324608
 21
591.2705174144
 31
0.0
  0
LINE
  5
FD
330
1F
100
AcDbEntity
  8
0
  6
Continuous
 62
     7
370
    25
100
AcDbLine
 10
592.5097365739
 20
579.2499699873
 30
0.0
 11
592.9996000036
 21
579.3501389455
 31
0.0
  0
ARC
  5
FE
330
1F
100
AcDbEntity
  8
0
  6
Continuous
 62
     7
370
    25
100
AcDbCircle
 10
592.5097365739
 20
579.2499699873
 30
0.0
 40
0.5000000000000413
100
AcDbArc
 50
344.4705304011
 51
11.5567201596
  0
LINE
  5
FF
330
1F
100
AcDbEntity
  8
0
  6
Continuous
 62
     7
370
    25
100
AcDbLine
 10
562.6525010902
 20
574.8902931073
 30
0.0
 11
562.1382039296
 21
573.0394945759
 31
0.0
  0
LINE
  5
100
330
1F
100
AcDbEntity
  8
0
  6
Continuous
 62
     7
370
    25
100
AcDbLine
 10
561.6564574926
 20
573.1733615639
 30
0.0
 11
562.1707546532
 21
575.0241600953
 31
0.0
  0
LINE
  5
101
330
1F
100
AcDbEntity
  8
0
  6
Continuous
 62
     7
370
    25
100
AcDbLine
 10
568.9018594785
 20
588.2233776992
 30
0.0
 11
567.0418723527
 21
587.7433728397
 31
0.0
  0
LINE
  5
102
330
1F
100
AcDbEntity
  8
0
  6
Continuous
 62
     7
370
    25
100
AcDbLine
 10
567.0418723527
 20
587.7433728397
 30
0.0
 11
566.9169313465
 21
588.2275109863
 31
0.0
  0
LINE
  5
103
330
1F
100
AcDbEntity
  8
0
  6
Continuous
 62
     7
370
    25
100
AcDbLine
 10
566.9169313465
 20
588.2275109863
 30
0.0
 11
568.7769184723
 21
588.7075158458
 31
0.0
  0
ARC
  5
104
330
1F
100
AcDbEntity
  8
0
  6
Continuous
 62
     7
370
    25
100
AcDbCircle
 10
577.3239702517
 20
576.1447322816
 30
0.0
 40
16.00000000000006
100
AcDbArc
 50
131.5567201596
 51
137.3843406425
  0
LINE
  5
105
330
1F
100
AcDbEntity
  8
0
  6
Continuous
 62
     7
370
    25
100
AcDbLine
 10
566.7101917753
 20
588.1175225351
 30
0.0
 11
567.0418723527
 21
587.7433728397
 31
0.0
  0
ARC
  5
106
330
1F
100
AcDbEntity
  8
0
  6
Continuous
 62
     7
370
    25
100
AcDbCircle
 10
577.3239702517
 20
576.1447322816
 30
0.0
 40
15.50000000000009
100
AcDbArc
 50
131.5567201596
 51
137.3843406425
  0
ARC
  5
107
330
1F
100
AcDbEntity
  8
0
  6
Continuous
 62
     7
370
    25
100
AcDbCircle
 10
577.3239702517
 20
576.1447322816
 30
0.0
 40
15.50000000000002
100
AcDbArc
 50
191.5567201596
 51
197.3843406425
  0
ARC
  5
108
330
1F
100
AcDbEntity
  8
0
  6
Continuous
 62
     7
370
    25
100
AcDbCircle
 10
580.709324608
 20
591.2705174144
 30
0.0
 40
0.5000000000000301
100
AcDbArc
 50
77.3843406425
 51
104.4705304011
  0
ARC
  5
109
330
1F
100
AcDbEntity
  8
0
  6
Continuous
 62
     7
370
    25
100
AcDbCircle
 10
567.0418723527
 20
587.7433728397
 30
0.0
 40
0.4999999999999603
100
AcDbArc
 50
104.470530401
 51
131.5567201596
  0
ARC
  5
10A
330
1F
100
AcDbEntity
  8
0
  6
Continuous
 62
     7
370
    25
100
AcDbCircle
 10
577.3239702517
 20
576.1447322816
 30
0.0
 40
16.00000000000005
100
AcDbArc
 50
191.5567201596
 51
197.3843406425
  0
LINE
  5
10B
330
1F
100
AcDbEntity
  8
0
  6
Continuous
 62
     7
370
    25
100
AcDbLine
 10
592.5931226185
 20
580.9252119648
 30
0.0
 11
592.115961607
 21
580.7758219747
 31
0.0
  0
ARC
  5
10C
330
1F
100
AcDbEntity
  8
0
  6
Continuous
 62
     7
370
    25
100
AcDbCircle
 10
592.115961607
 20
580.7758219747
 30
0.0
 40
0.5000000000000555
100
AcDbArc
 50
17.3843406425
 51
44.470530401
  0
ARC
  5
10D
330
1F
100
AcDbEntity
  8
0
  6
Continuous
 62
     7
370
    25
100
AcDbCircle
 10
577.3239702517
 20
576.1447322816
 30
0.0
 40
15.5
100
AcDbArc
 50
11.5567201596
 51
17.3843406425
  0
LINE
  5
10E
330
1F
100
AcDbEntity
  8
0
  6
Continuous
 62
     7
370
    25
100
AcDbLine
 10
563.0860055887
 20
570.2355478281
 30
0.0
 11
562.1751734657
 21
571.1633714299
 31
0.0
  0
ARC
  5
10F
330
1F
100
AcDbEntity
  8
0
  6
Continuous
 62
     7
370
    25
100
AcDbCircle
 10
577.3239702517
 20
576.1447322816
 30
0.0
 40
16.00000000000004
100
AcDbArc
 50
11.5567201596
 51
17.3843406425
  0
ARC
  5
110
330
1F
100
AcDbEntity
  8
0
  6
Continuous
 62
     7
370
    25
100
AcDbCircle
 10
475.7239702517
 20
576.1447322816
 30
0.0
 40
17.60000000000009
100
AcDbArc
 50
7.8922117353
 51
27.9531868834
  0
ARC
  5
111
330
1F
100
AcDbEntity
  8
0
  6
Continuous
 62
     7
370
    25
100
AcDbCircle
 10
475.7239702517
 20
576.1447322816
 30
0.0
 40
17.60000000000012
100
AcDbArc
 50
332.0468131166
 51
352.3772749857
  0
ARC
  5
112
330
1F
100
AcDbEntity
  8
0
  6
Continuous
 62
     7
370
    25
100
AcDbCircle
 10
475.7239702517
 20
576.1447322816
 30
0.0
 40
17.60000000000009
100
AcDbArc
 50
307.8892204724
 51
332.0468131166
  0
ARC
  5
113
330
1F
100
AcDbEntity
  8
0
  6
Continuous
 62
     7
370
    25
100
AcDbCircle
 10
475.7239702517
 20
576.1447322816
 30
0.0
 40
17.60000000000014
100
AcDbArc
 50
247.622853317
 51
292.6117357845
  0
ARC
  5
114
330
1F
100
AcDbEntity
  8
0
  6
Continuous
 62
     7
370
    25
100
AcDbCircle
 10
475.7239702517
 20
576.1447322816
 30
0.0
 40
17.60000000000014
100
AcDbArc
 50
211.5427743269
 51
232.8480419725
  0
ARC
  5
115
330
1F
100
AcDbEntity
  8
0
  6
Continuous
 62
     7
370
    25
100
AcDbCircle
 10
475.7239702517
 20
576.1447322816
 30
0.0
 40
17.60000000000011
100
AcDbArc
 50
125.9542148255
 51
148.4572256731
  0
ARC
  5
116
330
1F
100
AcDbEntity
  8
0
  6
Continuous
 62
     7
370
    25
100
AcDbCircle
 10
475.7239702517
 20
576.1447322816
 30
0.0
 40
17.60000000000016
100
AcDbArc
 50
66.7402099728
 51
113.4631901791
  0
ARC
  5
117
330
1F
100
AcDbEntity
  8
0
  6
Continuous
 62
     7
370
    25
100
AcDbCircle
 10
475.7239702517
 20
576.1447322816
 30
0.0
 40
17.60000000000013
100
AcDbArc
 50
27.9531868834
 51
53.8243527989
  0
ARC
  5
118
330
1F
100
AcDbEntity
  8
0
  6
Continuous
 62
     7
370
    25
100
AcDbCircle
 10
678.9239702517
 20
576.1447322816
 30
0.0
 40
17.60000000000009
100
AcDbArc
 50
152.0468131166
 51
172.4393995402
  0
ARC
  5
119
330
1F
100
AcDbEntity
  8
0
  6
Continuous
 62
     7
370
    25
100
AcDbCircle
 10
678.9239702517
 20
576.1447322816
 30
0.0
 40
17.60000000000019
100
AcDbArc
 50
188.0041940191
 51
207.9531868834
  0
ARC
  5
11A
330
1F
100
AcDbEntity
  8
0
  6
Continuous
 62
     7
370
    25
100
AcDbCircle
 10
678.9239702517
 20
576.1447322816
 30
0.0
 40
17.6000000000001
100
AcDbArc
 50
207.9531868834
 51
232.5581920934
  0
ARC
  5
11B
330
1F
100
AcDbEntity
  8
0
  6
Continuous
 62
     7
370
    25
100
AcDbCircle
 10
678.9239702517
 20
576.1447322816
 30
0.0
 40
17.60000000000014
100
AcDbArc
 50
247.7198813141
 51
292.9411922062
  0
ARC
  5
11C
330
1F
100
AcDbEntity
  8
0
  6
Continuous
 62
     7
370
    25
100
AcDbCircle
 10
678.9239702517
 20
576.1447322816
 30
0.0
 40
17.60000000000015
100
AcDbArc
 50
307.4916192612
 51
329.914091969
  0
ARC
  5
11D
330
1F
100
AcDbEntity
  8
0
  6
Continuous
 62
     7
370
    25
100
AcDbCircle
 10
678.9239702517
 20
576.1447322816
 30
0.0
 40
17.60000000000014
100
AcDbArc
 50
33.0957362986
 51
53.8739279082
  0
ARC
  5
11E
330
1F
100
AcDbEntity
  8
0
  6
Continuous
 62
     7
370
    25
100
AcDbCircle
 10
678.9239702517
 20
576.1447322816
 30
0.0
 40
17.60000000000015
100
AcDbArc
 50
66.8462960051
 51
113.5088907696
  0
ARC
  5
11F
330
1F
100
AcDbEntity
  8
0
  6
Continuous
 62
     7
370
    25
100
AcDbCircle
 10
678.9239702517
 20
576.1447322816
 30
0.0
 40
17.60000000000022
100
AcDbArc
 50
126.0555456286
 51
152.0468131166
  0
LWPOLYLINE
  5
120
330
1F
100
AcDbEntity
  8
0
  6
Continuous
 62
     7
370
    25
100
AcDbPolyline
 90
        9
 70
   128
 43
0.0
 10
663.3773468241
 20
567.8947322816
 10
662.9548627579
 20
568.4709485745
 10
662.3611389572
 20
568.9356654752
 10
661.6114774405
 20
569.2769058545
 10
660.7251992031
 20
569.4858749382
 10
659.7251462569
 20
569.557186975
 10
658.6370929248
 20
569.4890040426
 10
657.48908156
 20
569.2830834169
 10
656.3106998116
 20
568.9447322816
  0
LWPOLYLINE
  5
121
330
1F
100
AcDbEntity
  8
0
  6
Continuous
 62
     7
370
    25
100
AcDbPolyline
 90
        9
 70
   128
 43
0.0
 10
498.3372406919
 20
583.3447322816
 10
497.1588589434
 20
583.0063811464
 10
496.0108475786
 20
582.8004605207
 10
494.9227942465
 20
582.7322775883
 10
493.9227413003
 20
582.803589625
 10
493.0364630629
 20
583.0125587088
 10
492.2868015463
 20
583.3537990881
 10
491.6930777455
 20
583.8185159888
 10
491.2705936793
 20
584.3947322816
  0
LWPOLYLINE
  5
122
330
1F
100
AcDbEntity
  8
0
  6
Continuous
 62
     7
370
    25
100
AcDbPolyline
 90
        9
 70
   128
 43
0.0
 10
656.3106998116
 20
583.3447322816
 10
657.48908156
 20
583.0063811464
 10
658.6370929248
 20
582.8004605207
 10
659.7251462569
 20
582.7322775883
 10
660.7251992031
 20
582.803589625
 10
661.6114774405
 20
583.0125587088
 10
662.3611389572
 20
583.353799088
 10
662.9548627579
 20
583.8185159888
 10
663.3773468241
 20
584.3947322816
  0
SPLINE
  5
123
330
1F
100
AcDbEntity
  8
0
  6
Continuous
 62
     7
370
    25
100
AcDbSpline
210
0.0
220
0.0
230
1.0
 70
     8
 71
     3
 72
    26
 73
    22
 74
     0
 42
0.00000001
 43
0.00000001
 40
0.0
 40
0.0
 40
0.0
 40
0.0
 40
0.1250000000000003
 40
0.1250000000000003
 40
0.1875
 40
0.1875
 40
0.2499999999999997
 40
0.2499999999999997
 40
0.3749999999999996
 40
0.3749999999999996
 40
0.4374999999999996
 40
0.4374999999999996
 40
0.4999999999999997
 40
0.4999999999999997
 40
0.6249999999999998
 40
0.6249999999999998
 40
0.7499999999999998
 40
0.7499999999999998
 40
0.8749999999999999
 40
0.8749999999999999
 40
1.0
 40
1.0
 40
1.0
 40
1.0
 10
498.337240691872
 20
583.3447322816249
 30
0.0
 10
498.7300158494732
 20
582.9006357385759
 30
0.0
 10
499.053952607071
 20
582.4076150522534
 30
0.0
 10
499.4448252995657
 20
581.5866509554976
 30
0.0
 10
499.5595014465435
 20
581.2984207217631
 30
0.0
 10
499.7564492075601
 20
580.7036095302806
 30
0.0
 10
499.838790189771
 20
580.3972611645931
 30
0.0
 10
500.0439923004649
 20
579.4647072114087
 30
0.0
 10
500.1272217519619
 20
578.820530256167
 30
0.0
 10
500.2053362864746
 20
577.8241178365503
 30
0.0
 10
500.2233496237327
 20
577.4873364028766
 30
0.0
 10
500.2466710398783
 20
576.817467765909
 30
0.0
 10
500.2521371697838
 20
576.4826678722959
 30
0.0
 10
500.2522455774485
 20
575.4786589403693
 30
0.0
 10
500.2319051985332
 20
574.8079478246649
 30
0.0
 10
500.128023437913
 20
573.4755137152225
 30
0.0
 10
500.0448658984323
 20
572.8301966971046
 30
0.0
 10
499.7717424959188
 20
571.5860436135943
 30
0.0
 10
499.5780248982517
 20
570.983491638707
 30
0.0
 10
499.0548316358064
 20
569.8827882755171
 30
0.0
 10
498.729943682826
 20
569.3887472284608
 30
0.0
 10
498.3372406918805
 20
568.9447322816152
 30
0.0
  0
LWPOLYLINE
  5
124
330
1F
100
AcDbEntity
  8
0
  6
Continuous
 62
     7
370
    25
100
AcDbPolyline
 90
        9
 70
   128
 43
0.0
 10
491.2705936793
 20
567.8947322816
 10
491.6930777455
 20
568.4709485745
 10
492.2868015463
 20
568.9356654752
 10
493.0364630629
 20
569.2769058545
 10
493.9227413003
 20
569.4858749382
 10
494.9227942465
 20
569.557186975
 10
496.0108475786
 20
569.4890040426
 10
497.1588589434
 20
569.2830834169
 10
498.3372406919
 20
568.9447322816
  0
SPLINE
  5
125
330
1F
100
AcDbEntity
  8
0
  6
Continuous
 62
     7
370
    25
100
AcDbSpline
210
0.0
220
0.0
230
1.0
 70
     8
 71
     3
 72
    30
 73
    26
 74
     0
 42
0.00000001
 43
0.00000001
 40
0.0
 40
0.0
 40
0.0
 40
0.0
 40
0.1250000000000007
 40
0.1250000000000007
 40
0.1875000000000002
 40
0.1875000000000002
 40
0.2499999999999997
 40
0.2499999999999997
 40
0.3749999999999995
 40
0.3749999999999995
 40
0.4999999999999993
 40
0.4999999999999993
 40
0.5624999999999992
 40
0.5624999999999992
 40
0.6249999999999991
 40
0.6249999999999991
 40
0.7499999999999992
 40
0.7499999999999992
 40
0.8124999999999994
 40
0.8124999999999994
 40
0.8749999999999997
 40
0.8749999999999997
 40
0.9374999999999999
 40
0.9374999999999999
 40
1.0
 40
1.0
 40
1.0
 40
1.0
 10
656.3106998115521
 20
568.9447322816152
 30
0.0
 10
655.917587183471
 20
569.3892103902273
 30
0.0
 10
655.5924316243896
 20
569.8838189218726
 30
0.0
 10
655.1998249037601
 20
570.7103841284969
 30
0.0
 10
655.0861440463067
 20
570.9975939330848
 30
0.0
 10
654.8917867891591
 20
571.5853477174414
 30
0.0
 10
654.8104282571375
 20
571.8872860281697
 30
0.0
 10
654.6054372156995
 20
572.8162359122588
 30
0.0
 10
654.5203853428874
 20
573.47099493916
 30
0.0
 10
654.4161014237698
 20
574.8056198049604
 30
0.0
 10
654.3957387134019
 20
575.4762073140927
 30
0.0
 10
654.3957812160579
 20
576.480914118311
 30
0.0
 10
654.4012327388817
 20
576.8159468160369
 30
0.0
 10
654.424537985522
 20
577.4862814135387
 30
0.0
 10
654.4425497451437
 20
577.823297433224
 30
0.0
 10
654.5206905867086
 20
578.8204218071307
 30
0.0
 10
654.6039748240654
 20
579.465045993291
 30
0.0
 10
654.8093857754808
 20
580.3982221374125
 30
0.0
 10
654.89204890556
 20
580.7054258335935
 30
0.0
 10
655.0885664527874
 20
581.298672774191
 30
0.0
 10
655.2016518154875
 20
581.5830083423458
 30
0.0
 10
655.4604213951842
 20
582.1276391708446
 30
0.0
 10
655.6060981382343
 20
582.3879357986242
 30
0.0
 10
655.9325930775414
 20
582.8850678845838
 30
0.0
 10
656.1140568708812
 20
583.1223952817393
 30
0.0
 10
656.3106998115516
 20
583.3447322816155
 30
0.0
  0
CIRCLE
  5
126
330
1F
100
AcDbEntity
  8
0
  6
Continuous
 62
     7
370
    25
100
AcDbCircle
 10
678.9239702517
 20
576.1447322816
 30
0.0
 40
5.328914336627577
  0
CIRCLE
  5
127
330
1F
100
AcDbEntity
  8
0
  6
Continuous
 62
     7
370
    25
100
AcDbCircle
 10
678.9239702517
 20
576.1447322816
 30
0.0
 40
5.925127771161442
  0
CIRCLE
  5
128
330
1F
100
AcDbEntity
  8
0
  6
Continuous
 62
     7
370
    25
100
AcDbCircle
 10
678.9239702517
 20
576.1447322816
 30
0.0
 40
4.452105871057256
  0
CIRCLE
  5
129
330
1F
100
AcDbEntity
  8
0
  6
Continuous
 62
     7
370
    25
100
AcDbCircle
 10
678.9239702517
 20
576.1447322816
 30
0.0
 40
5.074569253689106
  0
CIRCLE
  5
12A
330
1F
100
AcDbEntity
  8
0
  6
Continuous
 62
     7
370
    25
100
AcDbCircle
 10
678.9239702517
 20
576.1447322816
 30
0.0
 40
7.149999999999977
  0
LINE
  5
12B
330
1F
100
AcDbEntity
  8
0
  6
Continuous
 62
     7
370
    25
100
AcDbLine
 10
678.9173972925
 20
578.8130569988
 30
0.0
 11
680.0873278611
 21
578.5461066949
 31
0.0
  0
LINE
  5
12C
330
1F
100
AcDbEntity
  8
0
  6
Continuous
 62
     7
370
    25
100
AcDbLine
 10
678.6393240593
 20
577.5943793232
 30
0.0
 11
678.9173972925
 21
578.8130569988
 31
0.0
  0
LINE
  5
12D
330
1F
100
AcDbEntity
  8
0
  6
Continuous
 62
     7
370
    25
100
AcDbLine
 10
676.5225958385
 20
577.308089891
 30
0.0
 11
677.741273514
 21
577.0300166578
 31
0.0
  0
LINE
  5
12E
330
1F
100
AcDbEntity
  8
0
  6
Continuous
 62
     7
370
    25
100
AcDbLine
 10
676.2556455346
 20
576.1381593224
 30
0.0
 11
676.5225958385
 21
577.308089891
 31
0.0
  0
LINE
  5
12F
330
1F
100
AcDbEntity
  8
0
  6
Continuous
 62
     7
370
    25
100
AcDbLine
 10
677.4743232101
 20
575.8600860892
 30
0.0
 11
676.2556455346
 21
576.1381593224
 31
0.0
  0
LINE
  5
130
330
1F
100
AcDbEntity
  8
0
  6
Continuous
 62
     7
370
    25
100
AcDbLine
 10
677.7606126423
 20
573.7433578684
 30
0.0
 11
678.0386858756
 21
574.9620355439
 31
0.0
  0
LINE
  5
131
330
1F
100
AcDbEntity
  8
0
  6
Continuous
 62
     7
370
    25
100
AcDbLine
 10
678.9305432109
 20
573.4764075645
 30
0.0
 11
677.7606126423
 21
573.7433578684
 31
0.0
  0
LINE
  5
132
330
1F
100
AcDbEntity
  8
0
  6
Continuous
 62
     7
370
    25
100
AcDbLine
 10
679.2086164441
 20
574.69508524
 30
0.0
 11
678.9305432109
 21
573.4764075645
 31
0.0
  0
LINE
  5
133
330
1F
100
AcDbEntity
  8
0
  6
Continuous
 62
     7
370
    25
100
AcDbLine
 10
681.325344665
 20
574.9813746722
 30
0.0
 11
680.1066669894
 21
575.2594479055
 31
0.0
  0
LINE
  5
134
330
1F
100
AcDbEntity
  8
0
  6
Continuous
 62
     7
370
    25
100
AcDbLine
 10
681.5922949689
 20
576.1513052408
 30
0.0
 11
681.325344665
 21
574.9813746722
 31
0.0
  0
LINE
  5
135
330
1F
100
AcDbEntity
  8
0
  6
Continuous
 62
     7
370
    25
100
AcDbLine
 10
680.3736172933
 20
576.429378474
 30
0.0
 11
681.5922949689
 21
576.1513052408
 31
0.0
  0
LINE
  5
136
330
1F
100
AcDbEntity
  8
0
  6
Continuous
 62
     7
370
    25
100
AcDbLine
 10
680.0873278611
 20
578.5461066949
 30
0.0
 11
679.8092546279
 21
577.3274290193
 31
0.0
  0
CIRCLE
  5
137
330
1F
100
AcDbEntity
  8
0
  6
Continuous
 62
     7
370
    25
100
AcDbCircle
 10
678.9239702517
 20
576.1447322816
 30
0.0
 40
4.197433366238944
  0
SPLINE
  5
138
330
1F
100
AcDbEntity
  8
0
  6
Continuous
 62
     7
370
    25
100
AcDbSpline
210
0.0
220
0.0
230
1.0
 70
     8
 71
     3
 72
    12
 73
     8
 74
     0
 42
0.00000001
 43
0.00000001
 40
0.0
 40
0.0
 40
0.0
 40
0.0
 40
0.2133534395476132
 40
0.4267919313634478
 40
0.638353973909154
 40
0.8490950351927532
 40
1.0
 40
1.0
 40
1.0
 40
1.0
 10
678.0386858755516
 20
574.9620355439356
 30
0.0
 10
678.0493612332926
 20
575.0452394180896
 30
0.0
 10
678.0707162044523
 20
575.2116803352006
 30
0.0
 10
677.9963018885416
 20
575.4582497008676
 30
0.0
 10
677.8512181360414
 20
575.6647859034141
 30
0.0
 10
677.6661420838557
 20
575.8020590170015
 30
0.0
 10
677.5307984114388
 20
575.8430017923479
 30
0.0
 10
677.4743232101384
 20
575.8600860892212
 30
0.0
  0
SPLINE
  5
139
330
1F
100
AcDbEntity
  8
0
  6
Continuous
 62
     7
370
    25
100
AcDbSpline
210
0.0
220
0.0
230
1.0
 70
     8
 71
     3
 72
    12
 73
     8
 74
     0
 42
0.00000001
 43
0.00000001
 40
0.0
 40
0.0
 40
0.0
 40
0.0
 40
0.2133534395476136
 40
0.4267919313634463
 40
0.6383539739091494
 40
0.8490950351927551
 40
1.0
 40
1.0
 40
1.0
 40
1.0
 10
680.106666989396
 20
575.2594479054503
 30
0.0
 10
680.0234631152421
 20
575.2701232631915
 30
0.0
 10
679.857022198131
 20
575.2914782343512
 30
0.0
 10
679.6104528324641
 20
575.2170639184404
 30
0.0
 10
679.4039166299176
 20
575.0719801659404
 30
0.0
 10
679.2666435163301
 20
574.8869041137546
 30
0.0
 10
679.2257007409836
 20
574.7515604413377
 30
0.0
 10
679.2086164441104
 20
574.6950852400373
 30
0.0
  0
SPLINE
  5
13A
330
1F
100
AcDbEntity
  8
0
  6
Continuous
 62
     7
370
    25
100
AcDbSpline
210
0.0
220
0.0
230
1.0
 70
     8
 71
     3
 72
    12
 73
     8
 74
     0
 42
0.00000001
 43
0.00000001
 40
0.0
 40
0.0
 40
0.0
 40
0.0
 40
0.2133534395476131
 40
0.4267919313634476
 40
0.6383539739091537
 40
0.8490950351927532
 40
1.0
 40
1.0
 40
1.0
 40
1.0
 10
679.8092546278814
 20
577.327429019295
 30
0.0
 10
679.7985792701401
 20
577.244225145141
 30
0.0
 10
679.7772242989805
 20
577.0777842280298
 30
0.0
 10
679.8516386148912
 20
576.831214862363
 30
0.0
 10
679.9967223673912
 20
576.6246786598165
 30
0.0
 10
680.181798419577
 20
576.487405546229
 30
0.0
 10
680.3171420919939
 20
576.4464627708825
 30
0.0
 10
680.3736172932943
 20
576.4293784740094
 30
0.0
  0
SPLINE
  5
13B
330
1F
100
AcDbEntity
  8
0
  6
Continuous
 62
     7
370
    25
100
AcDbSpline
210
0.0
220
0.0
230
1.0
 70
     8
 71
     3
 72
    12
 73
     8
 74
     0
 42
0.00000001
 43
0.00000001
 40
0.0
 40
0.0
 40
0.0
 40
0.0
 40
0.2133534395476135
 40
0.4267919313634461
 40
0.638353973909149
 40
0.8490950351927548
 40
0.9999999999999999
 40
0.9999999999999999
 40
0.9999999999999999
 40
0.9999999999999999
 10
677.7412735140367
 20
577.0300166577802
 30
0.0
 10
677.8244773881906
 20
577.019341300039
 30
0.0
 10
677.9909183053018
 20
576.9979863288793
 30
0.0
 10
678.2374876709687
 20
577.07240064479
 30
0.0
 10
678.4440238735152
 20
577.2174843972901
 30
0.0
 10
678.5812969871026
 20
577.4025604494759
 30
0.0
 10
678.6222397624491
 20
577.5379041218928
 30
0.0
 10
678.6393240593223
 20
577.5943793231932
 30
0.0
  0
LINE
  5
13C
330
1F
100
AcDbEntity
  8
0
  6
Continuous
 62
     7
370
    25
100
AcDbLine
 10
476.8873278611
 20
573.7433578684
 30
0.0
 11
475.7173972925
 21
573.4764075645
 31
0.0
  0
LINE
  5
13D
330
1F
100
AcDbEntity
  8
0
  6
Continuous
 62
     7
370
    25
100
AcDbLine
 10
476.6092546279
 20
574.9620355439
 30
0.0
 11
476.8873278611
 21
573.7433578684
 31
0.0
  0
LINE
  5
13E
330
1F
100
AcDbEntity
  8
0
  6
Continuous
 62
     7
370
    25
100
AcDbLine
 10
478.3922949689
 20
576.1381593224
 30
0.0
 11
477.1736172933
 21
575.8600860892
 31
0.0
  0
LINE
  5
13F
330
1F
100
AcDbEntity
  8
0
  6
Continuous
 62
     7
370
    25
100
AcDbLine
 10
478.125344665
 20
577.308089891
 30
0.0
 11
478.3922949689
 21
576.1381593224
 31
0.0
  0
LINE
  5
140
330
1F
100
AcDbEntity
  8
0
  6
Continuous
 62
     7
370
    25
100
AcDbLine
 10
476.9066669894
 20
577.0300166578
 30
0.0
 11
478.125344665
 21
577.308089891
 31
0.0
  0
LINE
  5
141
330
1F
100
AcDbEntity
  8
0
  6
Continuous
 62
     7
370
    25
100
AcDbLine
 10
475.7305432109
 20
578.8130569988
 30
0.0
 11
476.0086164441
 21
577.5943793232
 31
0.0
  0
LINE
  5
142
330
1F
100
AcDbEntity
  8
0
  6
Continuous
 62
     7
370
    25
100
AcDbLine
 10
474.5606126423
 20
578.5461066949
 30
0.0
 11
475.7305432109
 21
578.8130569988
 31
0.0
  0
LINE
  5
143
330
1F
100
AcDbEntity
  8
0
  6
Continuous
 62
     7
370
    25
100
AcDbLine
 10
474.8386858756
 20
577.3274290193
 30
0.0
 11
474.5606126423
 21
578.5461066949
 31
0.0
  0
LINE
  5
144
330
1F
100
AcDbEntity
  8
0
  6
Continuous
 62
     7
370
    25
100
AcDbLine
 10
473.0556455346
 20
576.1513052408
 30
0.0
 11
474.2743232101
 21
576.429378474
 31
0.0
  0
LINE
  5
145
330
1F
100
AcDbEntity
  8
0
  6
Continuous
 62
     7
370
    25
100
AcDbLine
 10
473.3225958385
 20
574.9813746722
 30
0.0
 11
473.0556455346
 21
576.1513052408
 31
0.0
  0
LINE
  5
146
330
1F
100
AcDbEntity
  8
0
  6
Continuous
 62
     7
370
    25
100
AcDbLine
 10
474.541273514
 20
575.2594479055
 30
0.0
 11
473.3225958385
 21
574.9813746722
 31
0.0
  0
LINE
  5
147
330
1F
100
AcDbEntity
  8
0
  6
Continuous
 62
     7
370
    25
100
AcDbLine
 10
475.7173972925
 20
573.4764075645
 30
0.0
 11
475.4393240593
 21
574.69508524
 31
0.0
  0
CIRCLE
  5
148
330
1F
100
AcDbEntity
  8
0
  6
Continuous
 62
     7
370
    25
100
AcDbCircle
 10
475.7239702517
 20
576.1447322816
 30
0.0
 40
4.197433366238889
  0
SPLINE
  5
149
330
1F
100
AcDbEntity
  8
0
  6
Continuous
 62
     7
370
    25
100
AcDbSpline
210
0.0
220
0.0
230
1.0
 70
     8
 71
     3
 72
    12
 73
     8
 74
     0
 42
0.00000001
 43
0.00000001
 40
0.0
 40
0.0
 40
0.0
 40
0.0
 40
0.2133534395476119
 40
0.4267919313634478
 40
0.6383539739091497
 40
0.849095035192757
 40
0.9999999999999999
 40
0.9999999999999999
 40
0.9999999999999999
 40
0.9999999999999999
 10
477.1736172932942
 20
575.8600860892212
 30
0.0
 10
477.0940179423652
 20
575.8336136267587
 30
0.0
 10
476.934787508629
 20
575.7806581487209
 30
0.0
 10
476.7449010913621
 20
575.6066550135901
 30
0.0
 10
476.6217397046402
 20
575.3863421201349
 30
0.0
 10
476.5783334478306
 20
575.1600393369519
 30
0.0
 10
476.6001508320244
 20
575.0203317055807
 30
0.0
 10
476.6092546278812
 20
574.9620355439356
 30
0.0
  0
SPLINE
  5
14A
330
1F
100
AcDbEntity
  8
0
  6
Continuous
 62
     7
370
    25
100
AcDbSpline
210
0.0
220
0.0
230
1.0
 70
     8
 71
     3
 72
    12
 73
     8
 74
     0
 42
0.00000001
 43
0.00000001
 40
0.0
 40
0.0
 40
0.0
 40
0.0
 40
0.213353439547612
 40
0.426791931363448
 40
0.63835397390915
 40
0.8490950351927569
 40
1.0
 40
1.0
 40
1.0
 40
1.0
 10
474.2743232101384
 20
576.4293784740094
 30
0.0
 10
474.3539225610674
 20
576.4558509364716
 30
0.0
 10
474.5131529948036
 20
576.5088064145096
 30
0.0
 10
474.7030394120705
 20
576.6828095496404
 30
0.0
 10
474.8262007987925
 20
576.9031224430956
 30
0.0
 10
474.869607055602
 20
577.1294252262787
 30
0.0
 10
474.8477896714082
 20
577.2691328576498
 30
0.0
 10
474.8386858755514
 20
577.327429019295
 30
0.0
  0
SPLINE
  5
14B
330
1F
100
AcDbEntity
  8
0
  6
Continuous
 62
     7
370
    25
100
AcDbSpline
210
0.0
220
0.0
230
1.0
 70
     8
 71
     3
 72
    12
 73
     8
 74
     0
 42
0.00000001
 43
0.00000001
 40
0.0
 40
0.0
 40
0.0
 40
0.0
 40
0.2133534395476159
 40
0.4267919313634425
 40
0.6383539739091564
 40
0.849095035192758
 40
1.0
 40
1.0
 40
1.0
 40
1.0
 10
476.0086164441104
 20
577.5943793231932
 30
0.0
 10
476.0350889065728
 20
577.5147799722641
 30
0.0
 10
476.0880443846107
 20
577.3555495385281
 30
0.0
 10
476.2620475197415
 20
577.1656631212611
 30
0.0
 10
476.4823604131966
 20
577.0425017345391
 30
0.0
 10
476.7086631963799
 20
576.9990954777295
 30
0.0
 10
476.8483708277508
 20
577.0209128619233
 30
0.0
 10
476.9066669893961
 20
577.0300166577802
 30
0.0
  0
SPLINE
  5
14C
330
1F
100
AcDbEntity
  8
0
  6
Continuous
 62
     7
370
    25
100
AcDbSpline
210
0.0
220
0.0
230
1.0
 70
     8
 71
     3
 72
    12
 73
     8
 74
     0
 42
0.00000001
 43
0.00000001
 40
0.0
 40
0.0
 40
0.0
 40
0.0
 40
0.2133534395476155
 40
0.4267919313634422
 40
0.6383539739091563
 40
0.8490950351927579
 40
0.9999999999999999
 40
0.9999999999999999
 40
0.9999999999999999
 40
0.9999999999999999
 10
475.4393240593222
 20
574.6950852400373
 30
0.0
 10
475.4128515968599
 20
574.7746845909663
 30
0.0
 10
475.3598961188219
 20
574.9339150247025
 30
0.0
 10
475.1858929836911
 20
575.1238014419694
 30
0.0
 10
474.965580090236
 20
575.2469628286914
 30
0.0
 10
474.7392773070528
 20
575.290369085501
 30
0.0
 10
474.5995696756818
 20
575.2685517013072
 30
0.0
 10
474.5412735140366
 20
575.2594479054503
 30
0.0
  0
CIRCLE
  5
14D
330
1F
100
AcDbEntity
  8
0
  6
Continuous
 62
     7
370
    25
100
AcDbCircle
 10
475.7239702517
 20
576.1447322816
 30
0.0
 40
4.452105871057256
  0
CIRCLE
  5
14E
330
1F
100
AcDbEntity
  8
0
  6
Continuous
 62
     7
370
    25
100
AcDbCircle
 10
475.7239702517
 20
576.1447322816
 30
0.0
 40
5.074569253689219
  0
CIRCLE
  5
14F
330
1F
100
AcDbEntity
  8
0
  6
Continuous
 62
     7
370
    25
100
AcDbCircle
 10
475.7239702517
 20
576.1447322816
 30
0.0
 40
5.328914336627577
  0
CIRCLE
  5
150
330
1F
100
AcDbEntity
  8
0
  6
Continuous
 62
     7
370
    25
100
AcDbCircle
 10
475.7239702517
 20
576.1447322816
 30
0.0
 40
5.925127771161442
  0
CIRCLE
  5
151
330
1F
100
AcDbEntity
  8
0
  6
Continuous
 62
     7
370
    25
100
AcDbCircle
 10
475.7239702517
 20
576.1447322816
 30
0.0
 40
7.149999999999977
  0
SPLINE
  5
152
330
1F
100
AcDbEntity
  8
0
  6
Continuous
 62
     7
370
    25
100
AcDbSpline
210
0.0
220
0.0
230
1.0
 70
     8
 71
     3
 72
    11
 73
     7
 74
     0
 42
0.00000001
 43
0.00000001
 40
0.0
 40
0.0
 40
0.0
 40
0.0
 40
0.2200386424382255
 40
0.6637869905998169
 40
0.8890365590789576
 40
1.0
 40
1.0
 40
1.0
 40
1.0
 10
469.0463801071244
 20
570.3698352634926
 30
0.0
 10
468.8421586441229
 20
570.6348538747515
 30
0.0
 10
468.2260870812394
 20
571.4343312050562
 30
0.0
 10
467.7025377302222
 20
572.697500475584
 30
0.0
 10
467.450908530461
 20
573.8640702889081
 30
0.0
 10
467.4716157251834
 20
574.3753500875675
 30
0.0
 10
467.4784499092095
 20
574.5440924150399
 30
0.0
  0
SPLINE
  5
153
330
1F
100
AcDbEntity
  8
0
  6
Continuous
 62
     7
370
    25
100
AcDbSpline
210
0.0
220
0.0
230
1.0
 70
     8
 71
     3
 72
     9
 73
     5
 74
     0
 42
0.00000001
 43
0.00000001
 40
0.0
 40
0.0
 40
0.0
 40
0.0
 40
0.9209630919903056
 40
1.0
 40
1.0
 40
1.0
 40
1.0
 10
467.4063377438771
 20
570.6901585391262
 30
0.0
 10
467.92075928175
 20
570.6333314802075
 30
0.0
 10
468.4793283952648
 20
570.5716275320116
 30
0.0
 10
469.0048449069341
 20
570.3846160711237
 30
0.0
 10
469.0463801071244
 20
570.3698352634927
 30
0.0
  0
SPLINE
  5
154
330
1F
100
AcDbEntity
  8
0
  6
Continuous
 62
     7
370
    25
100
AcDbSpline
210
0.0
220
0.0
230
1.0
 70
     8
 71
     3
 72
    10
 73
     6
 74
     0
 42
0.00000001
 43
0.00000001
 40
0.0
 40
0.0
 40
0.0
 40
0.0
 40
0.2596150688488836
 40
0.629760644481066
 40
0.9999999999999999
 40
0.9999999999999999
 40
0.9999999999999999
 40
0.9999999999999999
 10
420.2311767899399
 20
573.2817161081152
 30
0.0
 10
424.3089970086629
 20
572.9819619710169
 30
0.0
 10
434.2007598420282
 20
572.2548340758526
 30
0.0
 10
449.9303325247014
 20
571.4289872059626
 30
0.0
 10
461.5805107859661
 20
570.936455556697
 30
0.0
 10
467.4063377438771
 20
570.6901585391262
 30
0.0
  0
SPLINE
  5
155
330
1F
100
AcDbEntity
  8
0
  6
Continuous
 62
     7
370
    25
100
AcDbSpline
210
0.0
220
0.0
230
1.0
 70
     8
 71
     3
 72
    11
 73
     7
 74
     0
 42
0.00000001
 43
0.00000001
 40
0.0
 40
0.0
 40
0.0
 40
0.0
 40
0.061464119541392
 40
0.4999988937835378
 40
0.9375097801832794
 40
1.0
 40
1.0
 40
1.0
 40
1.0
 10
420.2311767899401
 20
579.0077484551172
 30
0.0
 10
420.2195075937377
 20
578.891291482665
 30
0.0
 10
420.1245809074683
 20
577.9439362153338
 30
0.0
 10
420.0408780802022
 20
576.1466920168856
 30
0.0
 10
420.1244480037223
 20
574.3474939926448
 30
0.0
 10
420.2193197087676
 20
573.4001191682116
 30
0.0
 10
420.2311767899399
 20
573.2817161081152
 30
0.0
  0
SPLINE
  5
156
330
1F
100
AcDbEntity
  8
0
  6
Continuous
 62
     7
370
    25
100
AcDbSpline
210
0.0
220
0.0
230
1.0
 70
     8
 71
     3
 72
    11
 73
     7
 74
     0
 42
0.00000001
 43
0.00000001
 40
0.0
 40
0.0
 40
0.0
 40
0.0
 40
0.259458927729189
 40
0.6296002946237427
 40
0.8147836738016297
 40
1.0
 40
1.0
 40
1.0
 40
1.0
 10
467.4063377438771
 20
581.5993060241044
 30
0.0
 10
463.3233370945322
 20
581.4338074376835
 30
0.0
 10
453.4155708277277
 20
581.0322103152319
 30
0.0
 10
440.6004338687667
 20
580.3539574992085
 30
0.0
 10
428.9561616025071
 20
579.6765366069964
 30
0.0
 10
423.1396775193745
 20
579.2306910583841
 30
0.0
 10
420.2311767899401
 20
579.0077484551172
 30
0.0
  0
SPLINE
  5
157
330
1F
100
AcDbEntity
  8
0
  6
Continuous
 62
     7
370
    25
100
AcDbSpline
210
0.0
220
0.0
230
1.0
 70
     8
 71
     3
 72
     9
 73
     5
 74
     0
 42
0.00000001
 43
0.00000001
 40
0.0
 40
0.0
 40
0.0
 40
0.0
 40
0.0790369080192139
 40
1.0
 40
1.0
 40
1.0
 40
1.0
 10
469.0463801071236
 20
581.9196292997377
 30
0.0
 10
469.0048449069283
 20
581.904848492105
 30
0.0
 10
468.4793283952591
 20
581.7178370312171
 30
0.0
 10
467.9207592817445
 20
581.6561330830218
 30
0.0
 10
467.4063377438771
 20
581.5993060241044
 30
0.0
  0
SPLINE
  5
158
330
1F
100
AcDbEntity
  8
0
  6
Continuous
 62
     7
370
    25
100
AcDbSpline
210
0.0
220
0.0
230
1.0
 70
     8
 71
     3
 72
    11
 73
     7
 74
     0
 42
0.00000001
 43
0.00000001
 40
0.0
 40
0.0
 40
0.0
 40
0.0
 40
0.0728838064943292
 40
0.4140719411596029
 40
0.9209668754550567
 40
1.0
 40
1.0
 40
1.0
 40
1.0
 10
467.4784499092132
 20
577.7453721481758
 30
0.0
 10
467.4707347600756
 20
577.8558185824148
 30
0.0
 10
467.4269029827109
 20
578.4832936227459
 30
0.0
 10
467.771394694149
 20
579.8662856532109
 30
0.0
 10
468.4110840436355
 20
581.1362171709884
 30
0.0
 10
468.9708727930682
 20
581.8265178371614
 30
0.0
 10
469.0463801071236
 20
581.9196292997377
 30
0.0
  0
SPLINE
  5
159
330
1F
100
AcDbEntity
  8
0
  6
Continuous
 62
     7
370
    25
100
AcDbSpline
210
0.0
220
0.0
230
1.0
 70
     8
 71
     3
 72
    10
 73
     6
 74
     0
 42
0.00000001
 43
0.00000001
 40
0.0
 40
0.0
 40
0.0
 40
0.0
 40
0.3880207377811389
 40
0.979063776650686
 40
1.0
 40
1.0
 40
1.0
 40
1.0
 10
467.4784499092095
 20
574.5440924150399
 30
0.0
 10
467.5517644399688
 20
574.9549322768956
 30
0.0
 10
467.7367535252921
 20
575.9915738467439
 30
0.0
 10
467.6410465994612
 20
577.0853431683151
 30
0.0
 10
467.4838284482132
 20
577.7235390370347
 30
0.0
 10
467.4784499092132
 20
577.7453721481758
 30
0.0
  0
ARC
  5
15A
330
1F
100
AcDbEntity
  8
0
  6
Continuous
 62
     7
370
    25
100
AcDbCircle
 10
475.7239702517
 20
576.1447322816
 30
0.0
 40
8.399443654264505
100
AcDbArc
 50
190.985757993
 51
169.0142420071
  0
SPLINE
  5
15B
330
1F
100
AcDbEntity
  8
0
  6
Continuous
 62
     7
370
    25
100
AcDbSpline
210
0.0
220
0.0
230
1.0
 70
     8
 71
     3
 72
     9
 73
     5
 74
     0
 42
0.00000001
 43
0.00000001
 40
0.0
 40
0.0
 40
0.0
 40
0.0
 40
0.6817923421274312
 40
1.0
 40
1.0
 40
1.0
 40
1.0
 10
469.0463801071236
 20
581.9196292997377
 30
0.0
 10
469.1886436677667
 20
582.1095396548428
 30
0.0
 10
469.3973047979271
 20
582.3880853987164
 30
0.0
 10
469.6267306318075
 20
582.6209897716594
 30
0.0
 10
469.699735689062
 20
582.6951017266819
 30
0.0
  0
ARC
  5
15C
330
1F
100
AcDbEntity
  8
0
  6
Continuous
 62
     7
370
    25
100
AcDbCircle
 10
475.7239702517
 20
576.1447322816
 30
0.0
 40
8.899367501836336
100
AcDbArc
 50
227.3959191961
 51
132.6040808039
  0
LINE
  5
15D
330
1F
100
AcDbEntity
  8
0
  6
Continuous
 62
     7
370
    25
100
AcDbLine
 10
469.6997356891
 20
569.5943628365
 30
0.0
 11
469.0463801071
 21
570.3698352635
 31
0.0
  0
SPLINE
  5
15E
330
1F
100
AcDbEntity
  8
0
  6
Continuous
 62
     7
370
    25
100
AcDbSpline
210
0.0
220
0.0
230
1.0
 70
     8
 71
     3
 72
    10
 73
     6
 74
     0
 42
0.00000001
 43
0.00000001
 40
0.0
 40
0.0
 40
0.0
 40
0.0
 40
0.3702896688583046
 40
0.7405318123903298
 40
0.9999999999999999
 40
0.9999999999999999
 40
0.9999999999999999
 40
0.9999999999999999
 10
420.2196573267616
 20
579.4506080359504
 30
0.0
 10
426.0397211729801
 20
579.7707990504766
 30
0.0
 10
437.6791018814837
 20
580.4111399841822
 30
0.0
 10
453.3979702882584
 20
581.2803743160455
 30
0.0
 10
463.2951441042682
 20
581.8291153176547
 30
0.0
 10
467.3732124247323
 20
582.0552206014866
 30
0.0
  0
ARC
  5
15F
330
1F
100
AcDbEntity
  8
0
  6
Continuous
 62
     7
370
    25
100
AcDbCircle
 10
460.1581232173
 20
581.3018342348
 30
0.0
 40
7.254316183380317
100
AcDbArc
 50
2.3501399448
 51
5.9611177313
  0
ARC
  5
160
330
1F
100
AcDbEntity
  8
0
  6
Continuous
 62
     7
370
    25
100
AcDbCircle
 10
424.4801798679
 20
579.339851212
 30
0.0
 40
4.26196191887559
100
AcDbArc
 50
178.5108705386
 51
184.4691613065
  0
SPLINE
  5
161
330
1F
100
AcDbEntity
  8
0
  6
Continuous
 62
     7
370
    25
100
AcDbSpline
210
0.0
220
0.0
230
1.0
 70
     8
 71
     3
 72
    10
 73
     6
 74
     0
 42
0.00000001
 43
0.00000001
 40
0.0
 40
0.0
 40
0.0
 40
0.0
 40
0.3702717503651152
 40
0.7405122151371749
 40
1.0
 40
1.0
 40
1.0
 40
1.0
 10
467.3732124247323
 20
570.234243961744
 30
0.0
 10
461.5535403630632
 20
570.556772447412
 30
0.0
 10
449.9146879647663
 20
571.2018021671549
 30
0.0
 10
434.1955483808117
 20
572.070616654634
 30
0.0
 10
424.298050957113
 20
572.6146715654008
 30
0.0
 10
420.219657326765
 20
572.83885652728
 30
0.0
  0
ARC
  5
162
330
1F
100
AcDbEntity
  8
0
  6
Continuous
 62
     7
370
    25
100
AcDbCircle
 10
424.4801798709
 20
572.9496133512
 30
0.0
 40
4.261961921828019
100
AcDbArc
 50
175.530838696
 51
181.4891294598
  0
ARC
  5
163
330
1F
100
AcDbEntity
  8
0
  6
Continuous
 62
     7
370
    25
100
AcDbCircle
 10
460.1581232173
 20
570.9876303284
 30
0.0
 40
7.254316183419453
100
AcDbArc
 50
354.0388822687
 51
357.6498600551
  0
SPLINE
  5
164
330
1F
100
AcDbEntity
  8
0
  6
Continuous
 62
     7
370
    25
100
AcDbSpline
210
0.0
220
0.0
230
1.0
 70
     8
 71
     3
 72
    12
 73
     8
 74
     0
 42
0.00000001
 43
0.00000001
 40
0.0
 40
0.0
 40
0.0
 40
0.0
 40
0.1224290494151349
 40
0.3423522449770471
 40
0.5614228816909413
 40
0.7807229538533572
 40
1.0
 40
1.0
 40
1.0
 40
1.0
 10
418.2954493570924
 20
573.3923904777714
 30
0.0
 10
418.3044534329564
 20
573.3900317933305
 30
0.0
 10
418.3296318166875
 20
573.3834361290058
 30
0.0
 10
418.5456195003322
 20
573.3664281612666
 30
0.0
 10
418.9815176300613
 20
573.3409171871123
 30
0.0
 10
419.5654432434914
 20
573.3113650045528
 30
0.0
 10
420.0092733750595
 20
573.2915987276738
 30
0.0
 10
420.2311767899399
 20
573.2817161081152
 30
0.0
  0
SPLINE
  5
165
330
1F
100
AcDbEntity
  8
0
  6
Continuous
 62
     7
370
    25
100
AcDbSpline
210
0.0
220
0.0
230
1.0
 70
     8
 71
     3
 72
    11
 73
     7
 74
     0
 42
0.00000001
 43
0.00000001
 40
0.0
 40
0.0
 40
0.0
 40
0.0
 40
0.0800485240044433
 40
0.5000005853538798
 40
0.9209248322279645
 40
1.0
 40
1.0
 40
1.0
 40
1.0
 10
418.2954493570924
 20
573.3923904777714
 30
0.0
 10
418.2957356015066
 20
573.5386349028721
 30
0.0
 10
418.2975235467111
 20
574.4521095617052
 30
0.0
 10
418.2987592435411
 20
576.1465191494636
 30
0.0
 10
418.2975215454462
 20
577.8391460013183
 30
0.0
 10
418.2957323234782
 20
578.7526093769623
 30
0.0
 10
418.2954493570924
 20
578.8970740854536
 30
0.0
  0
SPLINE
  5
166
330
1F
100
AcDbEntity
  8
0
  6
Continuous
 62
     7
370
    25
100
AcDbSpline
210
0.0
220
0.0
230
1.0
 70
     8
 71
     3
 72
    12
 73
     8
 74
     0
 42
0.00000001
 43
0.00000001
 40
0.0
 40
0.0
 40
0.0
 40
0.0
 40
0.1130367476169362
 40
0.3328594693548023
 40
0.5544127937945006
 40
0.7774207483513244
 40
1.0
 40
1.0
 40
1.0
 40
1.0
 10
420.2311767899401
 20
579.0077484551172
 30
0.0
 10
420.1171059499532
 20
579.0027332094157
 30
0.0
 10
419.7812013873453
 20
578.9879648083601
 30
0.0
 10
419.2471335309506
 20
578.9623726042506
 30
0.0
 10
418.7306078930634
 20
578.9344973413796
 30
0.0
 10
418.3737131759089
 20
578.9110554677891
 30
0.0
 10
418.3215205583904
 20
578.9017315560294
 30
0.0
 10
418.2954493570924
 20
578.8970740854536
 30
0.0
  0
SPLINE
  5
167
330
1F
100
AcDbEntity
  8
0
  6
Continuous
 62
     7
370
    25
100
AcDbSpline
210
0.0
220
0.0
230
1.0
 70
     8
 71
     3
 72
     9
 73
     5
 74
     0
 42
0.00000001
 43
0.00000001
 40
0.0
 40
0.0
 40
0.0
 40
0.0
 40
0.500010612381544
 40
1.0
 40
1.0
 40
1.0
 40
1.0
 10
470.199343537905
 20
569.1625311473023
 30
0.0
 10
469.7696221710841
 20
569.4503716853956
 30
0.0
 10
468.9101976785235
 20
570.0260405431471
 30
0.0
 10
467.8855335932453
 20
570.1648438042338
 30
0.0
 10
467.3732124247323
 20
570.234243961744
 30
0.0
  0
SPLINE
  5
168
330
1F
100
AcDbEntity
  8
0
  6
Continuous
 62
     7
370
    25
100
AcDbSpline
210
0.0
220
0.0
230
1.0
 70
     8
 71
     3
 72
     9
 73
     5
 74
     0
 42
0.00000001
 43
0.00000001
 40
0.0
 40
0.0
 40
0.0
 40
0.0
 40
0.9838702326459385
 40
1.0
 40
1.0
 40
1.0
 40
1.0
 10
469.699735689062
 20
569.5943628365486
 30
0.0
 10
469.8610765039967
 20
569.4495304235296
 30
0.0
 10
470.0250623728451
 20
569.3023235986728
 30
0.0
 10
470.1965770461271
 20
569.1647501746263
 30
0.0
 10
470.199343537905
 20
569.1625311473023
 30
0.0
  0
SPLINE
  5
169
330
1F
100
AcDbEntity
  8
0
  6
Continuous
 62
     7
370
    25
100
AcDbSpline
210
0.0
220
0.0
230
1.0
 70
     8
 71
     3
 72
     9
 73
     5
 74
     0
 42
0.00000001
 43
0.00000001
 40
0.0
 40
0.0
 40
0.0
 40
0.0
 40
0.5055561057107305
 40
1.0
 40
1.0
 40
1.0
 40
1.0
 10
467.3732124247323
 20
582.0552206014866
 30
0.0
 10
467.8912719420654
 20
582.1258766357565
 30
0.0
 10
468.9160039381407
 20
582.2656356723339
 30
0.0
 10
469.7747445069023
 20
582.8419689471297
 30
0.0
 10
470.199343537905
 20
583.1269334159282
 30
0.0
  0
SPLINE
  5
16A
330
1F
100
AcDbEntity
  8
0
  6
Continuous
 62
     7
370
    25
100
AcDbSpline
210
0.0
220
0.0
230
1.0
 70
     8
 71
     3
 72
     9
 73
     5
 74
     0
 42
0.00000001
 43
0.00000001
 40
0.0
 40
0.0
 40
0.0
 40
0.0
 40
0.0161297673533178
 40
0.9999999999999999
 40
0.9999999999999999
 40
0.9999999999999999
 40
0.9999999999999999
 10
470.199343537905
 20
583.1269334159282
 30
0.0
 10
470.1965770461272
 20
583.1247143886043
 30
0.0
 10
470.0250623728411
 20
582.9871409645547
 30
0.0
 10
469.8610765039947
 20
582.8399341396994
 30
0.0
 10
469.699735689062
 20
582.6951017266819
 30
0.0
  0
SPLINE
  5
16B
330
1F
100
AcDbEntity
  8
0
  6
Continuous
 62
     7
370
    25
100
AcDbSpline
210
0.0
220
0.0
230
1.0
 70
     8
 71
     3
 72
    12
 73
     8
 74
     0
 42
0.00000001
 43
0.00000001
 40
0.0
 40
0.0
 40
0.0
 40
0.0
 40
0.2230315344150378
 40
0.4461337558340359
 40
0.6675099896777023
 40
0.8870667292265011
 40
1.0
 40
1.0
 40
1.0
 40
1.0
 10
418.7678036221769
 20
579.396237156502
 30
0.0
 10
418.7873374083028
 20
579.3943469092072
 30
0.0
 10
418.8264111715393
 20
579.3905658155278
 30
0.0
 10
419.0940003535954
 20
579.3975086517985
 30
0.0
 10
419.4815294374206
 20
579.4130974742884
 30
0.0
 10
419.8822515498836
 20
579.4324347543526
 30
0.0
 10
420.1341109721415
 20
579.4460003555291
 30
0.0
 10
420.2196573267616
 20
579.4506080359504
 30
0.0
  0
ARC
  5
16C
330
1F
100
AcDbEntity
  8
0
  6
Continuous
 62
     7
370
    25
100
AcDbCircle
 10
418.7955492447
 20
578.8969075001
 30
0.0
 40
0.5000999153469574
100
AcDbArc
 50
93.1804119247
 51
179.9809145383
  0
SPLINE
  5
16D
330
1F
100
AcDbEntity
  8
0
  6
Continuous
 62
     7
370
    25
100
AcDbSpline
210
0.0
220
0.0
230
1.0
 70
     8
 71
     3
 72
    12
 73
     8
 74
     0
 42
0.00000001
 43
0.00000001
 40
0.0
 40
0.0
 40
0.0
 40
0.0
 40
0.2190444340109334
 40
0.4380981679380241
 40
0.6571027493691853
 40
0.8772791087290019
 40
1.0
 40
1.0
 40
1.0
 40
1.0
 10
420.219657326765
 20
572.83885652728
 30
0.0
 10
420.0532395859942
 20
572.8476853402296
 30
0.0
 10
419.7203970388951
 20
572.8653433409719
 30
0.0
 10
419.2822385962519
 20
572.884861830381
 30
0.0
 10
418.9552727694923
 20
572.8961676140133
 30
0.0
 10
418.7934288924782
 20
572.89799148209
 30
0.0
 10
418.774557560066
 20
572.8944830527652
 30
0.0
 10
418.7678036221769
 20
572.8932274067286
 30
0.0
  0
ARC
  5
16E
330
1F
100
AcDbEntity
  8
0
  6
Continuous
 62
     7
370
    25
100
AcDbCircle
 10
418.7955492447
 20
573.3925570631
 30
0.0
 40
0.5000999153469574
100
AcDbArc
 50
180.0190854623
 51
266.8195880753
  0
LINE
  5
16F
330
1F
100
AcDbEntity
  8
0
  6
Continuous
 62
     7
370
    25
100
AcDbLine
 10
467.3732124247
 20
582.0552206015
 30
0.0
 11
467.346226243
 21
582.1265108768
 31
0.0
  0
LINE
  5
170
330
1F
100
AcDbEntity
  8
0
  6
Continuous
 62
     7
370
    25
100
AcDbLine
 10
418.7631132615
 20
579.4006756096
 30
0.0
 11
418.7678036222
 21
579.3962371565
 31
0.0
  0
ELLIPSE
  5
171
330
1F
100
AcDbEntity
  8
0
  6
Continuous
 62
     7
370
    25
100
AcDbEllipse
 10
420.2628848042
 20
579.4839680596
 30
0.0
 11
1.499999304622804
 21
0.0828726334386829
 31
0.0
210
0.0
220
0.0
230
1.0
 40
0.0174284859
 41
2.255125316697012
 42
3.158083049610953
  0
LINE
  5
172
330
1F
100
AcDbEntity
  8
0
  6
Continuous
 62
     7
370
    25
100
AcDbLine
 10
422.7784994733
 20
579.6927276476
 30
0.0
 11
419.3135362638
 21
579.4518363686
 31
0.0
  0
LINE
  5
173
330
1F
100
AcDbEntity
  8
0
  6
Continuous
 62
     7
370
    25
100
AcDbLine
 10
422.7784994733
 20
579.6926292564
 30
0.0
 11
422.7784994733
 21
579.6927276476
 31
0.0
  0
ELLIPSE
  5
174
330
1F
100
AcDbEntity
  8
0
  6
Continuous
 62
     7
370
    25
100
AcDbEllipse
 10
432.2279858942
 20
580.0222753078
 30
0.0
 11
14.49999327802038
 21
0.8011021232406392
 31
0.0
210
0.0
220
0.0
230
1.0
 40
0.0174284859
 41
1.543516838852423
 42
2.279642175407966
  0
ELLIPSE
  5
175
330
1F
100
AcDbEntity
  8
0
  6
Continuous
 62
     7
370
    25
100
AcDbEllipse
 10
433.5489958098
 20
580.9725588571
 30
0.0
 11
35.70262504606012
 21
1.972514619921867
 31
0.0
210
0.0
220
0.0
230
1.0
 40
0.0174284859
 41
4.685109492442213
 42
5.167309992307977
  0
ELLIPSE
  5
176
330
1F
100
AcDbEntity
  8
0
  6
Continuous
 62
     7
370
    25
100
AcDbEllipse
 10
452.5692232818
 20
581.3449549168
 30
0.0
 11
7.499996523113964
 21
0.4143631671934145
 31
0.0
210
0.0
220
0.0
230
1.0
 40
0.0174284859
 41
1.834826681007968
 42
2.025717338718135
  0
LINE
  5
177
330
1F
100
AcDbEntity
  8
0
  6
Continuous
 62
     7
370
    25
100
AcDbLine
 10
450.6245708808
 20
581.2126104656
 30
0.0
 11
450.6049526234
 21
581.3630010102
 31
0.0
  0
SPLINE
  5
178
330
1F
100
AcDbEntity
  8
0
  6
Continuous
 62
     7
370
    25
100
AcDbSpline
210
0.0
220
0.0
230
1.0
 70
     8
 71
     3
 72
    10
 73
     6
 74
     0
 42
0.00000001
 43
0.00000001
 40
0.0
 40
0.0
 40
0.0
 40
0.0
 40
0.0186368637457253
 40
0.3939469944633057
 40
1.0
 40
1.0
 40
1.0
 40
1.0
 10
450.8083421664626
 20
581.2130968328903
 30
0.0
 10
450.8058859592139
 20
581.2130090824111
 30
0.0
 10
450.7539665227368
 20
581.2111542082181
 30
0.0
 10
450.649967674259
 20
581.2084742268399
 30
0.0
 10
450.6342670169097
 20
581.2110313082376
 30
0.0
 10
450.6245708807661
 20
581.2126104656454
 30
0.0
  0
LINE
  5
179
330
1F
100
AcDbEntity
  8
0
  6
Continuous
 62
     7
370
    25
100
AcDbLine
 10
467.346226243
 20
582.1265108768
 30
0.0
 11
450.8083421665
 21
581.2130968329
 31
0.0
  0
LINE
  5
17A
330
1F
100
AcDbEntity
  8
0
  6
Continuous
 62
     7
370
    25
100
AcDbLine
 10
450.8062764345
 20
571.0601640815
 30
0.0
 11
467.340184858
 21
570.1469696193
 31
0.0
  0
SPLINE
  5
17B
330
1F
100
AcDbEntity
  8
0
  6
Continuous
 62
     7
370
    25
100
AcDbSpline
210
0.0
220
0.0
230
1.0
 70
     8
 71
     3
 72
    11
 73
     7
 74
     0
 42
0.00000001
 43
0.00000001
 40
0.0
 40
0.0
 40
0.0
 40
0.0
 40
0.4177469294495291
 40
0.8392770662410922
 40
0.9817832068819584
 40
1.0
 40
1.0
 40
1.0
 40
1.0
 10
450.6225709938943
 20
571.0615135267985
 30
0.0
 10
450.6272080219262
 20
571.0625967179822
 30
0.0
 10
450.6365240719275
 20
571.0647729099653
 30
0.0
 10
450.7120205376777
 20
571.0635707330739
 30
0.0
 10
450.7822807382496
 20
571.0611002057339
 30
0.0
 10
450.8038335749073
 20
571.060259382777
 30
0.0
 10
450.8062764345373
 20
571.0601640815183
 30
0.0
  0
LINE
  5
17C
330
1F
100
AcDbEntity
  8
0
  6
Continuous
 62
     7
370
    25
100
AcDbLine
 10
450.6049526234
 20
570.926463553
 30
0.0
 11
450.6225709939
 21
571.0615135268
 31
0.0
  0
ELLIPSE
  5
17D
330
1F
100
AcDbEntity
  8
0
  6
Continuous
 62
     7
370
    25
100
AcDbEllipse
 10
452.5692232818
 20
570.9445096464
 30
0.0
 11
7.499996523113964
 21
-0.4143631671935282
 31
0.0
210
0.0
220
0.0
230
1.0
 40
0.0174284859
 41
4.257467968461774
 42
4.448358626171959
  0
ELLIPSE
  5
17E
330
1F
100
AcDbEntity
  8
0
  6
Continuous
 62
     7
370
    25
100
AcDbEllipse
 10
433.5489958098
 20
571.3169057061
 30
0.0
 11
35.70262504606006
 21
-1.972514619921981
 31
0.0
210
0.0
220
0.0
230
1.0
 40
0.0174284859
 41
1.115875314871871
 42
1.598075814737369
  0
ELLIPSE
  5
17F
330
1F
100
AcDbEntity
  8
0
  6
Continuous
 62
     7
370
    25
100
AcDbEllipse
 10
432.2279858942
 20
572.2671892554
 30
0.0
 11
14.49999327802038
 21
-0.8011021232406392
 31
0.0
210
0.0
220
0.0
230
1.0
 40
0.0174284859
 41
4.003543131771966
 42
4.739668468327164
  0
LINE
  5
180
330
1F
100
AcDbEntity
  8
0
  6
Continuous
 62
     7
370
    25
100
AcDbLine
 10
422.7784994733
 20
572.5967369156
 30
0.0
 11
422.7784994733
 21
572.5968353069
 31
0.0
  0
LINE
  5
181
330
1F
100
AcDbEntity
  8
0
  6
Continuous
 62
     7
370
    25
100
AcDbLine
 10
419.3135362638
 20
572.8376281946
 30
0.0
 11
422.7784994733
 21
572.5967369156
 31
0.0
  0
ELLIPSE
  5
182
330
1F
100
AcDbEntity
  8
0
  6
Continuous
 62
     7
370
    25
100
AcDbEllipse
 10
420.2628848042
 20
572.8054965037
 30
0.0
 11
1.499999304622804
 21
-0.0828726334386829
 31
0.0
210
0.0
220
0.0
230
1.0
 40
0.0174284859
 41
3.623784136966104
 42
4.028059990483511
  0
LINE
  5
183
330
1F
100
AcDbEntity
  8
0
  6
Continuous
 62
     7
370
    25
100
AcDbLine
 10
418.7678036222
 20
572.8932274067
 30
0.0
 11
418.7631132615
 21
572.8887889537
 31
0.0
  0
LINE
  5
184
330
1F
100
AcDbEntity
  8
0
  6
Continuous
 62
     7
370
    25
100
AcDbLine
 10
467.340184858
 20
570.1469696193
 30
0.0
 11
467.3732124247
 21
570.2342439617
 31
0.0
  0
SPLINE
  5
185
330
1F
100
AcDbEntity
  8
0
  6
Continuous
 62
     7
370
    25
100
AcDbSpline
210
0.0
220
0.0
230
1.0
 70
     8
 71
     3
 72
     9
 73
     5
 74
     0
 42
0.00000001
 43
0.00000001
 40
0.0
 40
0.0
 40
0.0
 40
0.0
 40
0.5001021276704695
 40
1.0
 40
1.0
 40
1.0
 40
1.0
 10
470.1661246718495
 20
583.1926248628882
 30
0.0
 10
469.7371768961422
 20
582.9060992287998
 30
0.0
 10
468.8794565386916
 20
582.333164985502
 30
0.0
 10
467.8572334100765
 20
582.1953861990479
 30
0.0
 10
467.3462262430358
 20
582.1265108768473
 30
0.0
  0
LINE
  5
186
330
1F
100
AcDbEntity
  8
0
  6
Continuous
 62
     7
370
    25
100
AcDbLine
 10
470.1661246718
 20
583.1926248629
 30
0.0
 11
470.1993435379
 21
583.1269334159
 31
0.0
  0
SPLINE
  5
187
330
1F
100
AcDbEntity
  8
0
  6
Continuous
 62
     7
370
    25
100
AcDbSpline
210
0.0
220
0.0
230
1.0
 70
     8
 71
     3
 72
     9
 73
     5
 74
     0
 42
0.00000001
 43
0.00000001
 40
0.0
 40
0.0
 40
0.0
 40
0.0
 40
0.400722737156528
 40
1.0
 40
1.0
 40
1.0
 40
1.0
 10
467.3401848579841
 20
570.146969619304
 30
0.0
 10
467.7488709813934
 20
570.0985623572382
 30
0.0
 10
468.7687435404332
 20
569.9777624684945
 30
0.0
 10
469.6378195842591
 20
569.4176551951408
 30
0.0
 10
470.158637097006
 20
569.0819956414666
 30
0.0
  0
LINE
  5
188
330
1F
100
AcDbEntity
  8
0
  6
Continuous
 62
     7
370
    25
100
AcDbLine
 10
470.1993435379
 20
569.1625311473
 30
0.0
 11
470.158637097
 21
569.0819956415
 31
0.0
  0
ARC
  5
189
330
1F
100
AcDbEntity
  8
0
  6
Continuous
 62
     7
370
    25
100
AcDbCircle
 10
475.7239702517
 20
576.1447322816
 30
0.0
 40
8.975658044222099
100
AcDbArc
 50
65.1648853947
 51
128.2586979829
  0
LWPOLYLINE
  5
18A
330
1F
100
AcDbEntity
  8
0
  6
Continuous
 62
     7
370
    25
100
AcDbPolyline
 90
        3
 70
   128
 43
0.0
 10
479.659283676
 20
584.3953920049
 10
479.5547021118
 20
584.3291395937
 10
479.4938215691
 20
584.2903236273
  0
ARC
  5
18B
330
1F
100
AcDbEntity
  8
0
  6
Continuous
 62
     7
370
    25
100
AcDbCircle
 10
475.7239702517
 20
576.1447322816
 30
0.0
 40
9.141120151092082
100
AcDbArc
 50
295.4997164176
 51
64.5002794289
  0
LWPOLYLINE
  5
18C
330
1F
100
AcDbEntity
  8
0
  6
Continuous
 62
     7
370
    25
100
AcDbPolyline
 90
        3
 70
   128
 43
0.0
 10
479.5101144795
 20
567.9887348652
 10
479.5547021118
 20
567.9603249696
 10
479.6592836763
 20
567.8940725581
  0
ARC
  5
18D
330
1F
100
AcDbEntity
  8
0
  6
Continuous
 62
     7
370
    25
100
AcDbCircle
 10
475.7239702517
 20
576.1447322816
 30
0.0
 40
8.991950954660663
100
AcDbArc
 50
231.762407147
 51
294.9014811666
  0
LINE
  5
18E
330
1F
100
AcDbEntity
  8
0
  6
Continuous
 62
     7
370
    25
100
AcDbLine
 10
418.2907589964
 20
573.3879520247
 30
0.0
 11
418.2954493571
 21
573.3923904778
 31
0.0
  0
LINE
  5
18F
330
1F
100
AcDbEntity
  8
0
  6
Continuous
 62
     7
370
    25
100
AcDbLine
 10
418.2907589964
 20
578.9015125385
 30
0.0
 11
418.2907589964
 21
573.3879520247
 31
0.0
  0
LINE
  5
190
330
1F
100
AcDbEntity
  8
0
  6
Continuous
 62
     7
370
    25
100
AcDbLine
 10
418.2954493571
 20
578.8970740855
 30
0.0
 11
418.2907589964
 21
578.9015125385
 31
0.0
  0
ARC
  5
191
330
1F
100
AcDbEntity
  8
0
  6
Continuous
 62
     7
370
    25
100
AcDbCircle
 10
418.790858884
 20
573.3881186101
 30
0.0
 40
0.5000999153470841
100
AcDbArc
 50
180.0190854617
 51
266.8195880752
  0
ARC
  5
192
330
1F
100
AcDbEntity
  8
0
  6
Continuous
 62
     7
370
    25
100
AcDbCircle
 10
418.790858884
 20
578.9013459532
 30
0.0
 40
0.5000999153470841
100
AcDbArc
 50
93.1804119248
 51
179.9809145383
  0
LINE
  5
193
330
1F
100
AcDbEntity
  8
0
  6
Continuous
 62
     7
370
    25
100
AcDbLine
 10
419.3135362638
 20
572.8376281946
 30
0.0
 11
419.306428533
 21
572.8379952313
 31
0.0
  0
LINE
  5
194
330
1F
100
AcDbEntity
  8
0
  6
Continuous
 62
     7
370
    25
100
AcDbLine
 10
419.3135362638
 20
579.4518363686
 30
0.0
 11
419.306428533
 21
579.451469332
 31
0.0
  0
SPLINE
  5
195
330
1F
100
AcDbEntity
  8
0
  6
Continuous
 62
     7
370
    25
100
AcDbSpline
210
0.0
220
0.0
230
1.0
 70
     8
 71
     3
 72
    12
 73
     8
 74
     0
 42
0.00000001
 43
0.00000001
 40
0.0
 40
0.0
 40
0.0
 40
0.0
 40
0.1662426524176545
 40
0.3368059756191297
 40
0.6054181071254586
 40
0.8801435087136193
 40
1.0
 40
1.0
 40
1.0
 40
1.0
 10
469.6019110044057
 20
587.8213926632862
 30
0.0
 10
470.2395925249418
 20
587.6659074878032
 30
0.0
 10
471.5315290017425
 20
587.350896054448
 30
0.0
 10
473.7157153840918
 20
586.6879309494495
 30
0.0
 10
476.0776897276517
 20
585.835736032644
 30
0.0
 10
478.0432272895442
 20
584.993107354032
 30
0.0
 10
479.1570022743398
 20
584.4552492613368
 30
0.0
 10
479.4953177524973
 20
584.2918718105095
 30
0.0
  0
LINE
  5
196
330
1F
100
AcDbEntity
  8
0
  6
Continuous
 62
     7
370
    25
100
AcDbLine
 10
469.6019110044
 20
587.8213926633
 30
0.0
 11
469.6177690813
 21
587.8908661949
 31
0.0
  0
ARC
  5
197
330
1F
100
AcDbEntity
  8
0
  6
Continuous
 62
     7
370
    25
100
AcDbCircle
 10
458.8959908449
 20
540.9192313826
 30
0.0
 40
48.17977797259062
100
AcDbArc
 50
64.4718479123
 51
77.1419190681
  0
LWPOLYLINE
  5
198
330
1F
100
AcDbEntity
  8
0
  6
Continuous
 62
     7
370
    25
100
AcDbPolyline
 90
        3
 70
   128
 43
0.0
 10
479.4953177525
 20
584.2918718105
 10
479.5547056028
 20
584.3293955141
 10
479.6592836757
 20
584.395393544
  0
SPLINE
  5
199
330
1F
100
AcDbEntity
  8
0
  6
Continuous
 62
     7
370
    25
100
AcDbSpline
210
0.0
220
0.0
230
1.0
 70
     8
 71
     3
 72
    11
 73
     7
 74
     0
 42
0.00000001
 43
0.00000001
 40
0.0
 40
0.0
 40
0.0
 40
0.0
 40
0.1345990676765959
 40
0.4126978815969493
 40
0.6969472592954598
 40
1.0
 40
1.0
 40
1.0
 40
1.0
 10
479.4946001755403
 20
584.2911302444355
 30
0.0
 10
479.0652941552919
 20
584.4820141295968
 30
0.0
 10
477.7489872285677
 20
585.0672884290166
 30
0.0
 10
475.3731771776845
 20
585.6897563130402
 30
0.0
 10
472.3194877928034
 20
586.0662589955406
 30
0.0
 10
470.1284578844427
 20
586.0934003238733
 30
0.0
 10
468.9978683669047
 20
586.1074054733184
 30
0.0
  0
ARC
  5
19A
330
1F
100
AcDbEntity
  8
0
  6
Continuous
 62
     7
370
    25
100
AcDbCircle
 10
473.4903993599
 20
585.4875814287
 30
0.0
 40
4.535087272519733
100
AcDbArc
 50
149.0284626407
 51
172.1446266983
  0
LINE
  5
19B
330
1F
100
AcDbEntity
  8
0
  6
Continuous
 62
     7
370
    25
100
AcDbLine
 10
479.4953177525
 20
584.2918718105
 30
0.0
 11
479.4946001755
 21
584.2911302444
 31
0.0
  0
LINE
  5
19C
330
1F
100
AcDbEntity
  8
0
  6
Continuous
 62
     7
370
    25
100
AcDbLine
 10
470.1661246718
 20
583.1926248629
 30
0.0
 11
467.9682527517
 21
585.9797417372
 31
0.0
  0
ARC
  5
19D
330
1F
100
AcDbEntity
  8
0
  6
Continuous
 62
     7
370
    25
100
AcDbCircle
 10
475.7239702517
 20
576.1447322816
 30
0.0
 40
12.52511736202731
100
AcDbArc
 50
127.8583068702
 51
128.2586979829
  0
LINE
  5
19E
330
1F
100
AcDbEntity
  8
0
  6
Continuous
 62
     7
370
    25
100
AcDbLine
 10
468.9978683669
 20
586.1074054733
 30
0.0
 11
468.037170018
 21
586.0336992196
 31
0.0
  0
LINE
  5
19F
330
1F
100
AcDbEntity
  8
0
  6
Continuous
 62
     7
370
    25
100
AcDbLine
 10
479.4938215691
 20
584.2903236273
 30
0.0
 11
479.4946001755
 21
584.2911302444
 31
0.0
  0
LINE
  5
1A0
330
1F
100
AcDbEntity
  8
0
  6
Continuous
 62
     7
370
    25
100
AcDbLine
 10
465.0503996912
 20
585.5545777326
 30
0.0
 11
467.1504822073
 21
585.6705686813
 31
0.0
  0
LINE
  5
1A1
330
1F
100
AcDbEntity
  8
0
  6
Continuous
 62
     7
370
    25
100
AcDbLine
 10
467.346226243
 20
582.1265108768
 30
0.0
 11
467.1504822073
 21
585.6705686813
 31
0.0
  0
SPLINE
  5
1A2
330
1F
100
AcDbEntity
  8
0
  6
Continuous
 62
     7
370
    25
100
AcDbSpline
210
0.0
220
0.0
230
1.0
 70
     8
 71
     3
 72
    17
 73
    13
 74
     0
 42
0.00000001
 43
0.00000001
 40
0.0
 40
0.0
 40
0.0
 40
0.0
 40
0.2859834379244703
 40
0.5215922644122238
 40
0.759239901680938
 40
0.85214924050605
 40
0.9266708633836014
 40
0.9605058393195369
 40
0.9835417153308584
 40
0.9930790992390832
 40
0.9972256067114875
 40
1.0
 40
1.0
 40
1.0
 40
1.0
 10
463.6097313291568
 20
585.0304340506004
 30
0.0
 10
462.3809531454094
 20
584.49856592658
 30
0.0
 10
460.1398401635787
 20
583.5285156985324
 30
0.0
 10
456.8008914766768
 20
582.4862850277477
 30
0.0
 10
454.29823610997
 20
581.8684664668211
 30
0.0
 10
452.5279298259338
 20
581.514491157603
 30
0.0
 10
451.6628089905966
 20
581.3597901229901
 30
0.0
 10
451.1372215613212
 20
581.2712901321584
 30
0.0
 10
450.9035594476638
 20
581.2321783693359
 30
0.0
 10
450.8259092881745
 20
581.2178586025739
 30
0.0
 10
450.8098276339744
 20
581.2141248502564
 30
0.0
 10
450.8087672459985
 20
581.2133910090614
 30
0.0
 10
450.8083421664626
 20
581.2130968328903
 30
0.0
  0
LINE
  5
1A3
330
1F
100
AcDbEntity
  8
0
  6
Continuous
 62
     7
370
    25
100
AcDbLine
 10
465.0503996912
 20
585.5545777326
 30
0.0
 11
463.6097313292
 21
585.0304340506
 31
0.0
  0
ARC
  5
1A4
330
1F
100
AcDbEntity
  8
0
  6
Continuous
 62
     7
370
    25
100
AcDbCircle
 10
457.806298538
 20
581.4213316698
 30
0.0
 40
6.834138728218236
100
AcDbArc
 50
31.8771071303
 51
46.9488007428
  0
SPLINE
  5
1A5
330
1F
100
AcDbEntity
  8
0
  6
Continuous
 62
     7
370
    25
100
AcDbSpline
210
0.0
220
0.0
230
1.0
 70
     8
 71
     3
 72
    10
 73
     6
 74
     0
 42
0.00000001
 43
0.00000001
 40
0.0
 40
0.0
 40
0.0
 40
0.0
 40
0.5975855365574454
 40
0.9790563563181981
 40
1.0
 40
1.0
 40
1.0
 40
1.0
 10
450.6983168467748
 20
581.2222237302298
 30
0.0
 10
450.6957977074215
 20
581.2184844325035
 30
0.0
 10
450.6916704666408
 20
581.21235814098
 30
0.0
 10
450.7660415931964
 20
581.2119815821234
 30
0.0
 10
450.8062495453007
 20
581.2130416611237
 30
0.0
 10
450.8083421664626
 20
581.2130968328903
 30
0.0
  0
SPLINE
  5
1A6
330
1F
100
AcDbEntity
  8
0
  6
Continuous
 62
     7
370
    25
100
AcDbSpline
210
0.0
220
0.0
230
1.0
 70
     8
 71
     3
 72
    14
 73
    10
 74
     0
 42
0.00000001
 43
0.00000001
 40
0.0
 40
0.0
 40
0.0
 40
0.0
 40
0.0129036569231464
 40
0.0519665716781148
 40
0.131889182426121
 40
0.2280032005552168
 40
0.4679440229400842
 40
0.7079115564493631
 40
0.9999999999999999
 40
0.9999999999999999
 40
0.9999999999999999
 40
0.9999999999999999
 10
450.6983168467748
 20
581.2222237302298
 30
0.0
 10
450.7317854232392
 20
581.230068704291
 30
0.0
 10
450.8665725760719
 20
581.2616625702236
 30
0.0
 10
451.3058460210644
 20
581.3640446175175
 30
0.0
 10
452.1172734392903
 20
581.5664461263344
 30
0.0
 10
453.7707506211109
 20
582.0334968071006
 30
0.0
 10
456.1150406933546
 20
582.8709538664909
 30
0.0
 10
459.2601348698518
 20
584.3158941068413
 30
0.0
 10
461.3334335440443
 20
585.6712649896359
 30
0.0
 10
462.4716344267915
 20
586.4153373967857
 30
0.0
  0
LWPOLYLINE
  5
1A7
330
1F
100
AcDbEntity
  8
0
  6
Continuous
 62
     7
370
    25
100
AcDbPolyline
 90
        4
 70
   128
 43
0.0
 10
450.6787900327
 20
581.3733193065
 10
450.6810346684
 20
581.3559611596
 10
450.6900097023
 20
581.2865284135
 10
450.6983168468
 20
581.2222237302
  0
LINE
  5
1A8
330
1F
100
AcDbEntity
  8
0
  6
Continuous
 62
     7
370
    25
100
AcDbLine
 10
452.4669143165
 20
581.8028468098
 30
0.0
 11
450.6787900327
 21
581.3733193065
 31
0.0
  0
ARC
  5
1A9
330
1F
100
AcDbEntity
  8
0
  6
Continuous
 62
     7
370
    25
100
AcDbCircle
 10
444.2813559179
 20
612.2285404036
 30
0.0
 40
31.50755777528337
100
AcDbArc
 50
285.0579972479
 51
305.1719294169
  0
LINE
  5
1AA
330
1F
100
AcDbEntity
  8
0
  6
Continuous
 62
     7
370
    25
100
AcDbLine
 10
462.4716344268
 20
586.4153373968
 30
0.0
 11
462.4307145406
 21
586.4734054098
 31
0.0
  0
SPLINE
  5
1AB
330
1F
100
AcDbEntity
  8
0
  6
Continuous
 62
     7
370
    25
100
AcDbSpline
210
0.0
220
0.0
230
1.0
 70
     8
 71
     3
 72
     9
 73
     5
 74
     0
 42
0.00000001
 43
0.00000001
 40
0.0
 40
0.0
 40
0.0
 40
0.0
 40
0.4998978730609624
 40
1.0
 40
1.0
 40
1.0
 40
1.0
 10
467.1504822073305
 20
585.6705686812912
 30
0.0
 10
467.2986771232263
 20
585.6905350192934
 30
0.0
 10
467.5951275061583
 20
585.7304758533681
 30
0.0
 10
467.8438607349349
 20
585.8966417959386
 30
0.0
 10
467.9682527516865
 20
585.9797417372431
 30
0.0
  0
ARC
  5
1AC
330
1F
100
AcDbEntity
  8
0
  6
Continuous
 62
     7
370
    25
100
AcDbCircle
 10
450.5969815319
 20
581.7119251701
 30
0.0
 40
0.5000763403841317
100
AcDbArc
 50
273.16262964
 51
281.6913635617
  0
ARC
  5
1AD
330
1F
100
AcDbEntity
  8
0
  6
Continuous
 62
     7
370
    25
100
AcDbCircle
 10
458.8959908449
 20
611.3702331806
 30
0.0
 40
48.10950076354644
100
AcDbArc
 50
282.8580809319
 51
283.1066633214
  0
SPLINE
  5
1AE
330
1F
100
AcDbEntity
  8
0
  6
Continuous
 62
     7
370
    25
100
AcDbSpline
210
0.0
220
0.0
230
1.0
 70
     8
 71
     3
 72
    13
 73
     9
 74
     0
 42
0.00000001
 43
0.00000001
 40
0.0
 40
0.0
 40
0.0
 40
0.0
 40
0.0460329529079877
 40
0.249242584819372
 40
0.4775225570272876
 40
0.7051721168687834
 40
0.8526808263814666
 40
1.0
 40
1.0
 40
1.0
 40
1.0
 10
479.5113487261875
 20
567.9874605215127
 30
0.0
 10
479.3830140741491
 20
567.9249515530762
 30
0.0
 10
478.6881540146637
 20
567.5865005981988
 30
0.0
 10
477.328490780087
 20
566.96852317417
 30
0.0
 10
475.3205181632686
 20
566.1580508474567
 30
0.0
 10
473.3060079013654
 20
565.465426046192
 30
0.0
 10
471.4437246201201
 20
564.9151922444939
 30
0.0
 10
470.3513550568815
 20
564.647676133388
 30
0.0
 10
469.8055214008744
 20
564.5140040668277
 30
0.0
  0
LWPOLYLINE
  5
1AF
330
1F
100
AcDbEntity
  8
0
  6
Continuous
 62
     7
370
    25
100
AcDbPolyline
 90
        3
 70
   128
 43
0.0
 10
479.5113487262
 20
567.9874605215
 10
479.5547056028
 20
567.9600690492
 10
479.659283676
 20
567.8940710191
  0
ARC
  5
1B0
330
1F
100
AcDbEntity
  8
0
  6
Continuous
 62
     7
370
    25
100
AcDbCircle
 10
458.8959908449
 20
611.3702331806
 30
0.0
 40
48.17977797259051
100
AcDbArc
 50
282.8580809319
 51
295.5281512988
  0
LINE
  5
1B1
330
1F
100
AcDbEntity
  8
0
  6
Continuous
 62
     7
370
    25
100
AcDbLine
 10
469.6021298094
 20
564.467113325
 30
0.0
 11
469.6177690813
 21
564.3985983684
 31
0.0
  0
LINE
  5
1B2
330
1F
100
AcDbEntity
  8
0
  6
Continuous
 62
     7
370
    25
100
AcDbLine
 10
469.352061323
 20
566.461606596
 30
0.0
 11
469.8055214009
 21
564.5140040668
 31
0.0
  0
SPLINE
  5
1B3
330
1F
100
AcDbEntity
  8
0
  6
Continuous
 62
     7
370
    25
100
AcDbSpline
210
0.0
220
0.0
230
1.0
 70
     8
 71
     3
 72
    13
 73
     9
 74
     0
 42
0.00000001
 43
0.00000001
 40
0.0
 40
0.0
 40
0.0
 40
0.0
 40
0.2574896950994368
 40
0.4890886589321025
 40
0.7206004760683485
 40
0.9447506334961274
 40
0.9460032291293288
 40
1.0
 40
1.0
 40
1.0
 40
1.0
 10
469.3520613229874
 20
566.4616065960417
 30
0.0
 10
470.2707868989753
 20
566.433543631927
 30
0.0
 10
472.0158596861133
 20
566.3802394502616
 30
0.0
 10
474.5104249320268
 20
566.5448035690996
 30
0.0
 10
476.8260747380277
 20
566.9581775641099
 30
0.0
 10
478.3031833396317
 20
567.4577347506731
 30
0.0
 10
479.1744447841724
 20
567.8319776056031
 30
0.0
 10
479.3444911929953
 20
567.9109580240882
 30
0.0
 10
479.5106823650506
 20
567.9881478242629
 30
0.0
  0
LINE
  5
1B4
330
1F
100
AcDbEntity
  8
0
  6
Continuous
 62
     7
370
    25
100
AcDbLine
 10
479.5106823651
 20
567.9881478243
 30
0.0
 11
479.5113487262
 21
567.9874605215
 31
0.0
  0
LINE
  5
1B5
330
1F
100
AcDbEntity
  8
0
  6
Continuous
 62
     7
370
    25
100
AcDbLine
 10
463.2467420072
 20
567.7694910035
 30
0.0
 11
462.1172665897
 21
566.1193192139
 31
0.0
  0
SPLINE
  5
1B6
330
1F
100
AcDbEntity
  8
0
  6
Continuous
 62
     7
370
    25
100
AcDbSpline
210
0.0
220
0.0
230
1.0
 70
     8
 71
     3
 72
    15
 73
    11
 74
     0
 42
0.00000001
 43
0.00000001
 40
0.0
 40
0.0
 40
0.0
 40
0.0
 40
0.2255198391625377
 40
0.4515645943751947
 40
0.6337799820516974
 40
0.8158790324473547
 40
0.8946729146060268
 40
0.9638048440471935
 40
0.9940832206369723
 40
0.9999999999999999
 40
0.9999999999999999
 40
0.9999999999999999
 40
0.9999999999999999
 10
462.1172665897186
 20
566.119319213885
 30
0.0
 10
461.2718180488647
 20
566.6643268832265
 30
0.0
 10
459.5789531158569
 20
567.7556107722689
 30
0.0
 10
457.1026369221774
 20
568.9727141618616
 30
0.0
 10
454.7742260074663
 20
569.9036139702969
 30
0.0
 10
453.0337465176438
 20
570.4594045151104
 30
0.0
 10
451.7760776612741
 20
570.7959573420748
 30
0.0
 10
451.1319447633618
 20
570.9513044483991
 30
0.0
 10
450.8039994732798
 20
571.0268578466666
 30
0.0
 10
450.7114620296556
 20
571.0483785547167
 30
0.0
 10
450.6963350431203
 20
571.0518965194254
 30
0.0
  0
SPLINE
  5
1B7
330
1F
100
AcDbEntity
  8
0
  6
Continuous
 62
     7
370
    25
100
AcDbSpline
210
0.0
220
0.0
230
1.0
 70
     8
 71
     3
 72
    11
 73
     7
 74
     0
 42
0.00000001
 43
0.00000001
 40
0.0
 40
0.0
 40
0.0
 40
0.0
 40
0.0195561212295927
 40
0.1681891996744411
 40
0.5898876540792777
 40
1.0
 40
1.0
 40
1.0
 40
1.0
 10
450.8062764345373
 20
571.0601640815183
 30
0.0
 10
450.8043177213893
 20
571.0602221952341
 30
0.0
 10
450.7874721315665
 20
571.0607219926749
 30
0.0
 10
450.7355715678074
 20
571.0615684100884
 30
0.0
 10
450.6862869357417
 20
571.0594791115664
 30
0.0
 10
450.6930169208182
 20
571.0544004703828
 30
0.0
 10
450.6963350431203
 20
571.0518965194254
 30
0.0
  0
SPLINE
  5
1B8
330
1F
100
AcDbEntity
  8
0
  6
Continuous
 62
     7
370
    25
100
AcDbSpline
210
0.0
220
0.0
230
1.0
 70
     8
 71
     3
 72
    17
 73
    13
 74
     0
 42
0.00000001
 43
0.00000001
 40
0.0
 40
0.0
 40
0.0
 40
0.0
 40
0.0068263121770685
 40
0.0088448507297254
 40
0.0223990310416126
 40
0.0309593028397538
 40
0.0563218912149143
 40
0.1198824177066684
 40
0.1957460556357056
 40
0.5558621944880031
 40
0.77803360979772
 40
1.0
 40
1.0
 40
1.0
 40
1.0
 10
450.8062764345373
 20
571.0601640815183
 30
0.0
 10
450.8098965796989
 20
571.0591258984733
 30
0.0
 10
450.8145872007465
 20
571.0577807249996
 30
0.0
 10
450.8581199134497
 20
571.0501907369247
 30
0.0
 10
450.9326518358822
 20
571.0384392301181
 30
0.0
 10
451.0994840813841
 20
571.0127203348949
 30
0.0
 10
451.4810601984515
 20
570.9542057558727
 30
0.0
 10
452.1639611651858
 20
570.8450087712855
 30
0.0
 10
454.2689604821035
 20
570.4778365388614
 30
0.0
 10
457.0818950638896
 20
569.843658854896
 30
0.0
 10
460.4806792784563
 20
568.8307185630375
 30
0.0
 10
462.32500489322
 20
568.123124642351
 30
0.0
 10
463.2467420072106
 20
567.7694910035239
 30
0.0
  0
LINE
  5
1B9
330
1F
100
AcDbEntity
  8
0
  6
Continuous
 62
     7
370
    25
100
AcDbLine
 10
467.340184858
 20
570.1469696193
 30
0.0
 11
467.196823029
 21
567.5513216499
 31
0.0
  0
LINE
  5
1BA
330
1F
100
AcDbEntity
  8
0
  6
Continuous
 62
     7
370
    25
100
AcDbLine
 10
467.196823029
 20
567.5513216499
 30
0.0
 11
463.2467420072
 21
567.7694910035
 31
0.0
  0
LINE
  5
1BB
330
1F
100
AcDbEntity
  8
0
  6
Continuous
 62
     7
370
    25
100
AcDbLine
 10
470.158637097
 20
569.0819956415
 30
0.0
 11
468.5496801037
 21
567.0401341405
 31
0.0
  0
LINE
  5
1BC
330
1F
100
AcDbEntity
  8
0
  6
Continuous
 62
     7
370
    25
100
AcDbLine
 10
479.5106823651
 20
567.9881478243
 30
0.0
 11
479.5101144795
 21
567.9887348652
 31
0.0
  0
ARC
  5
1BD
330
1F
100
AcDbEntity
  8
0
  6
Continuous
 62
     7
370
    25
100
AcDbCircle
 10
475.7239702517
 20
576.1447322816
 30
0.0
 40
11.59155496206734
100
AcDbArc
 50
231.762407147
 51
236.6533814372
  0
LWPOLYLINE
  5
1BE
330
1F
100
AcDbEntity
  8
0
  6
Continuous
 62
     7
370
    25
100
AcDbPolyline
 90
        4
 70
   128
 43
0.0
 10
450.6963350431
 20
571.0518965194
 10
450.6940927968
 20
571.0345382644
 10
450.6851203139
 20
570.9651054028
 10
450.6787900327
 20
570.9161452567
  0
ARC
  5
1BF
330
1F
100
AcDbEntity
  8
0
  6
Continuous
 62
     7
370
    25
100
AcDbCircle
 10
444.2813559179
 20
540.0609241596
 30
0.0
 40
31.57783498432758
100
AcDbArc
 50
54.8280705831
 51
55.6099480104
  0
LINE
  5
1C0
330
1F
100
AcDbEntity
  8
0
  6
Continuous
 62
     7
370
    25
100
AcDbLine
 10
462.4711964554
 20
565.8735056562
 30
0.0
 11
462.4307145406
 21
565.8160591534
 31
0.0
  0
ARC
  5
1C1
330
1F
100
AcDbEntity
  8
0
  6
Continuous
 62
     7
370
    25
100
AcDbCircle
 10
444.2813559179
 20
540.0609241596
 30
0.0
 40
31.50755777528343
100
AcDbArc
 50
54.8280705831
 51
74.9420027521
  0
LINE
  5
1C2
330
1F
100
AcDbEntity
  8
0
  6
Continuous
 62
     7
370
    25
100
AcDbLine
 10
450.6787900327
 20
570.9161452567
 30
0.0
 11
452.4669143165
 21
570.4866177534
 31
0.0
  0
LINE
  5
1C3
330
1F
100
AcDbEntity
  8
0
  6
Continuous
 62
     7
370
    25
100
AcDbLine
 10
450.6049526234
 20
581.3630010102
 30
0.0
 11
450.6787900327
 21
581.3733193065
 31
0.0
  0
SPLINE
  5
1C4
330
1F
100
AcDbEntity
  8
0
  6
Continuous
 62
     7
370
    25
100
AcDbSpline
210
0.0
220
0.0
230
1.0
 70
     8
 71
     3
 72
    10
 73
     6
 74
     0
 42
0.00000001
 43
0.00000001
 40
0.0
 40
0.0
 40
0.0
 40
0.0
 40
0.0490769085761659
 40
0.599580584366531
 40
1.0
 40
1.0
 40
1.0
 40
1.0
 10
468.5496801037475
 20
567.0401341404904
 30
0.0
 10
468.5307325653783
 20
567.0547568760918
 30
0.0
 10
468.2992474034718
 20
567.2334052182808
 30
0.0
 10
467.8533736286545
 20
567.4674572117021
 30
0.0
 10
467.3913670517701
 20
567.5264715847197
 30
0.0
 10
467.1968230290165
 20
567.551321649852
 30
0.0
  0
ARC
  5
1C5
330
1F
100
AcDbEntity
  8
0
  6
Continuous
 62
     7
370
    25
100
AcDbCircle
 10
450.5949816422
 20
570.5621988224
 30
0.0
 40
0.5000763405247578
100
AcDbArc
 50
78.306520338
 51
86.8373700344
  0
SPLINE
  5
1C6
330
1F
100
AcDbEntity
  8
0
  6
Continuous
 62
     7
370
    25
100
AcDbSpline
210
0.0
220
0.0
230
1.0
 70
     8
 71
     3
 72
     9
 73
     5
 74
     0
 42
0.00000001
 43
0.00000001
 40
0.0
 40
0.0
 40
0.0
 40
0.0
 40
0.8458911907785839
 40
1.0
 40
1.0
 40
1.0
 40
1.0
 10
450.6787900327097
 20
570.9161452567391
 30
0.0
 10
450.6579494365987
 20
570.9199600637315
 30
0.0
 10
450.6333119934638
 20
570.9244698718888
 30
0.0
 10
450.6087394662875
 20
570.9261973356399
 30
0.0
 10
450.6049526233849
 20
570.9264635530214
 30
0.0
  0
LINE
  5
1C7
330
1F
100
AcDbEntity
  8
0
  6
Continuous
 62
     7
370
    25
100
AcDbLine
 10
432.6095324257
 20
571.9927194063
 30
0.0
 11
432.6099904455
 21
571.9926943198
 31
0.0
  0
LINE
  5
1C8
330
1F
100
AcDbEntity
  8
0
  6
Continuous
 62
     7
370
    25
100
AcDbLine
 10
462.4716344268
 20
586.4153373968
 30
0.0
 11
464.3103752761
 21
587.4123036325
 31
0.0
  0
LINE
  5
1C9
330
1F
100
AcDbEntity
  8
0
  6
Continuous
 62
     7
370
    25
100
AcDbLine
 10
465.0503996912
 20
585.5545777326
 30
0.0
 11
464.3103752761
 21
587.4123036325
 31
0.0
  0
LINE
  5
1CA
330
1F
100
AcDbEntity
  8
0
  6
Continuous
 62
     7
370
    25
100
AcDbLine
 10
468.037170018
 20
586.0336992196
 30
0.0
 11
468.1590037647
 21
588.0296797285
 31
0.0
  0
LINE
  5
1CB
330
1F
100
AcDbEntity
  8
0
  6
Continuous
 62
     7
370
    25
100
AcDbLine
 10
468.1590037647
 20
588.0296797285
 30
0.0
 11
469.6019110044
 21
587.8213926633
 31
0.0
  0
ARC
  5
1CC
330
1F
100
AcDbEntity
  8
0
  6
Continuous
 62
     7
370
    25
100
AcDbCircle
 10
467.6149550465
 20
579.1166267574
 30
0.0
 40
6.929946387144297
100
AcDbArc
 50
86.5070253286
 51
111.7198462835
  0
ARC
  5
1CD
330
1F
100
AcDbEntity
  8
0
  6
Continuous
 62
     7
370
    25
100
AcDbCircle
 10
444.2813559179
 20
540.0609241596
 30
0.0
 40
33.57753037464034
100
AcDbArc
 50
54.8280705831
 51
55.6099480104
  0
ARC
  5
1CE
330
1F
100
AcDbEntity
  8
0
  6
Continuous
 62
     7
370
    25
100
AcDbCircle
 10
458.8959908449
 20
611.3702331806
 30
0.0
 40
46.10980537323358
100
AcDbArc
 50
282.8580809319
 51
283.1066633214
  0
ARC
  5
1CF
330
1F
100
AcDbEntity
  8
0
  6
Continuous
 62
     7
370
    25
100
AcDbCircle
 10
467.6149550465
 20
573.1728378058
 30
0.0
 40
6.929946387144206
100
AcDbArc
 50
234.8280705831
 51
282.8580809319
  0
LINE
  5
1D0
330
1F
100
AcDbEntity
  8
0
  6
Continuous
 62
     7
370
    25
100
AcDbLine
 10
469.1571238044
 20
566.4166648913
 30
0.0
 11
469.6021298094
 21
564.467113325
 31
0.0
  0
ARC
  5
1D1
330
1F
100
AcDbEntity
  8
0
  6
Continuous
 62
     7
370
    25
100
AcDbCircle
 10
467.6149550465
 20
573.1728378058
 30
0.0
 40
8.929641777457046
100
AcDbArc
 50
234.8280705831
 51
282.8580809319
  0
LINE
  5
1D2
330
1F
100
AcDbEntity
  8
0
  6
Continuous
 62
     7
370
    25
100
AcDbLine
 10
463.6230848066
 20
567.5081110766
 30
0.0
 11
462.4711964554
 21
565.8735056562
 31
0.0
  0
ARC
  5
1D3
330
1F
100
AcDbEntity
  8
0
  6
Continuous
 62
     7
370
    25
100
AcDbCircle
 10
467.6149550465
 20
579.1166267574
 30
0.0
 40
8.929641777457185
100
AcDbArc
 50
86.5070253286
 51
111.7198462835
  0
ARC
  5
1D4
330
1F
100
AcDbEntity
  8
0
  6
Continuous
 62
     7
370
    25
100
AcDbCircle
 10
467.6149550465
 20
579.1166267574
 30
0.0
 40
8.999918986501397
100
AcDbArc
 50
77.1419190681
 51
125.1719294169
  0
ARC
  5
1D5
330
1F
100
AcDbEntity
  8
0
  6
Continuous
 62
     7
370
    25
100
AcDbCircle
 10
467.6149550465
 20
573.1728378058
 30
0.0
 40
8.99991898650112
100
AcDbArc
 50
234.8280705831
 51
282.8580809319
  0
SPLINE
  5
1D6
330
1F
100
AcDbEntity
  8
0
  6
Continuous
 62
     7
370
    25
100
AcDbSpline
210
0.0
220
0.0
230
1.0
 70
     8
 71
     3
 72
    11
 73
     7
 74
     0
 42
0.00000001
 43
0.00000001
 40
0.0
 40
0.0
 40
0.0
 40
0.0
 40
0.2200386424382255
 40
0.6637869905998169
 40
0.8890365590789576
 40
1.0
 40
1.0
 40
1.0
 40
1.0
 10
685.6015603963083
 20
582.1650505885661
 30
0.0
 10
685.8057818593097
 20
581.9000319773074
 30
0.0
 10
686.4218534221933
 20
581.1005546470027
 30
0.0
 10
686.9454027732105
 20
579.8373853764748
 30
0.0
 10
687.1970319729717
 20
578.6708155631507
 30
0.0
 10
687.1763247782493
 20
578.1595357644914
 30
0.0
 10
687.1694905942232
 20
577.990793437019
 30
0.0
  0
SPLINE
  5
1D7
330
1F
100
AcDbEntity
  8
0
  6
Continuous
 62
     7
370
    25
100
AcDbSpline
210
0.0
220
0.0
230
1.0
 70
     8
 71
     3
 72
     9
 73
     5
 74
     0
 42
0.00000001
 43
0.00000001
 40
0.0
 40
0.0
 40
0.0
 40
0.0
 40
0.9209630919903056
 40
1.0
 40
1.0
 40
1.0
 40
1.0
 10
687.2416027595556
 20
581.8447273129327
 30
0.0
 10
686.7271812216827
 20
581.9015543718513
 30
0.0
 10
686.168612108168
 20
581.9632583200472
 30
0.0
 10
685.6430955964986
 20
582.1502697809352
 30
0.0
 10
685.6015603963083
 20
582.1650505885661
 30
0.0
  0
SPLINE
  5
1D8
330
1F
100
AcDbEntity
  8
0
  6
Continuous
 62
     7
370
    25
100
AcDbSpline
210
0.0
220
0.0
230
1.0
 70
     8
 71
     3
 72
    10
 73
     6
 74
     0
 42
0.00000001
 43
0.00000001
 40
0.0
 40
0.0
 40
0.0
 40
0.0
 40
0.2596150688488836
 40
0.629760644481066
 40
0.9999999999999999
 40
0.9999999999999999
 40
0.9999999999999999
 40
0.9999999999999999
 10
734.4167637134929
 20
579.2531697439435
 30
0.0
 10
730.3389434947698
 20
579.552923881042
 30
0.0
 10
720.4471806614044
 20
580.2800517762062
 30
0.0
 10
704.7176079787313
 20
581.1058986460963
 30
0.0
 10
693.0674297174666
 20
581.5984302953619
 30
0.0
 10
687.2416027595556
 20
581.8447273129327
 30
0.0
  0
SPLINE
  5
1D9
330
1F
100
AcDbEntity
  8
0
  6
Continuous
 62
     7
370
    25
100
AcDbSpline
210
0.0
220
0.0
230
1.0
 70
     8
 71
     3
 72
    11
 73
     7
 74
     0
 42
0.00000001
 43
0.00000001
 40
0.0
 40
0.0
 40
0.0
 40
0.0
 40
0.061464119541392
 40
0.4999988937835377
 40
0.9375097801832794
 40
1.0
 40
1.0
 40
1.0
 40
1.0
 10
734.4167637134926
 20
573.5271373969417
 30
0.0
 10
734.428432909695
 20
573.6435943693938
 30
0.0
 10
734.5233595959644
 20
574.590949636725
 30
0.0
 10
734.6070624232307
 20
576.3881938351733
 30
0.0
 10
734.5234924997103
 20
578.187391859414
 30
0.0
 10
734.4286207946651
 20
579.1347666838471
 30
0.0
 10
734.4167637134929
 20
579.2531697439435
 30
0.0
  0
SPLINE
  5
1DA
330
1F
100
AcDbEntity
  8
0
  6
Continuous
 62
     7
370
    25
100
AcDbSpline
210
0.0
220
0.0
230
1.0
 70
     8
 71
     3
 72
    11
 73
     7
 74
     0
 42
0.00000001
 43
0.00000001
 40
0.0
 40
0.0
 40
0.0
 40
0.0
 40
0.259458927729189
 40
0.6296002946237427
 40
0.8147836738016297
 40
1.0
 40
1.0
 40
1.0
 40
1.0
 10
687.2416027595556
 20
570.9355798279545
 30
0.0
 10
691.3246034089005
 20
571.1010784143754
 30
0.0
 10
701.2323696757051
 20
571.502675536827
 30
0.0
 10
714.047506634666
 20
572.1809283528504
 30
0.0
 10
725.6917789009257
 20
572.8583492450625
 30
0.0
 10
731.5082629840581
 20
573.3041947936748
 30
0.0
 10
734.4167637134926
 20
573.5271373969417
 30
0.0
  0
SPLINE
  5
1DB
330
1F
100
AcDbEntity
  8
0
  6
Continuous
 62
     7
370
    25
100
AcDbSpline
210
0.0
220
0.0
230
1.0
 70
     8
 71
     3
 72
     9
 73
     5
 74
     0
 42
0.00000001
 43
0.00000001
 40
0.0
 40
0.0
 40
0.0
 40
0.0
 40
0.0790369080192139
 40
1.0
 40
1.0
 40
1.0
 40
1.0
 10
685.6015603963091
 20
570.6152565523212
 30
0.0
 10
685.6430955965044
 20
570.6300373599539
 30
0.0
 10
686.1686121081736
 20
570.8170488208418
 30
0.0
 10
686.7271812216882
 20
570.8787527690371
 30
0.0
 10
687.2416027595556
 20
570.9355798279545
 30
0.0
  0
SPLINE
  5
1DC
330
1F
100
AcDbEntity
  8
0
  6
Continuous
 62
     7
370
    25
100
AcDbSpline
210
0.0
220
0.0
230
1.0
 70
     8
 71
     3
 72
    11
 73
     7
 74
     0
 42
0.00000001
 43
0.00000001
 40
0.0
 40
0.0
 40
0.0
 40
0.0
 40
0.0728838064943292
 40
0.4140719411596028
 40
0.9209668754550567
 40
1.0
 40
1.0
 40
1.0
 40
1.0
 10
687.1694905942195
 20
574.789513703883
 30
0.0
 10
687.1772057433571
 20
574.6790672696441
 30
0.0
 10
687.2210375207217
 20
574.051592229313
 30
0.0
 10
686.8765458092837
 20
572.668600198848
 30
0.0
 10
686.2368564597975
 20
571.3986686810705
 30
0.0
 10
685.6770677103646
 20
570.7083680148975
 30
0.0
 10
685.6015603963091
 20
570.6152565523212
 30
0.0
  0
SPLINE
  5
1DD
330
1F
100
AcDbEntity
  8
0
  6
Continuous
 62
     7
370
    25
100
AcDbSpline
210
0.0
220
0.0
230
1.0
 70
     8
 71
     3
 72
    10
 73
     6
 74
     0
 42
0.00000001
 43
0.00000001
 40
0.0
 40
0.0
 40
0.0
 40
0.0
 40
0.3880207377811385
 40
0.9790637766506849
 40
1.0
 40
1.0
 40
1.0
 40
1.0
 10
687.1694905942231
 20
577.990793437019
 30
0.0
 10
687.0961760634639
 20
577.5799535751632
 30
0.0
 10
686.9111869781404
 20
576.543312005315
 30
0.0
 10
687.0068939039717
 20
575.4495426837436
 30
0.0
 10
687.1641120552194
 20
574.8113468150242
 30
0.0
 10
687.1694905942195
 20
574.789513703883
 30
0.0
  0
ARC
  5
1DE
330
1F
100
AcDbEntity
  8
0
  6
Continuous
 62
     7
370
    25
100
AcDbCircle
 10
678.9239702517
 20
576.3901535704
 30
0.0
 40
8.39944365426445
100
AcDbArc
 50
10.985757993
 51
349.0142420071
  0
SPLINE
  5
1DF
330
1F
100
AcDbEntity
  8
0
  6
Continuous
 62
     7
370
    25
100
AcDbSpline
210
0.0
220
0.0
230
1.0
 70
     8
 71
     3
 72
     9
 73
     5
 74
     0
 42
0.00000001
 43
0.00000001
 40
0.0
 40
0.0
 40
0.0
 40
0.0
 40
0.681792342127431
 40
1.0
 40
1.0
 40
1.0
 40
1.0
 10
685.6015603963091
 20
570.6152565523212
 30
0.0
 10
685.459296835666
 20
570.425346197216
 30
0.0
 10
685.2506357055056
 20
570.1468004533425
 30
0.0
 10
685.0212098716252
 20
569.9138960803995
 30
0.0
 10
684.9482048143707
 20
569.839784125377
 30
0.0
  0
ARC
  5
1E0
330
1F
100
AcDbEntity
  8
0
  6
Continuous
 62
     7
370
    25
100
AcDbCircle
 10
678.9239702517
 20
576.3901535704
 30
0.0
 40
8.899367501836373
100
AcDbArc
 50
47.3959191961
 51
312.6040808039
  0
LINE
  5
1E1
330
1F
100
AcDbEntity
  8
0
  6
Continuous
 62
     7
370
    25
100
AcDbLine
 10
684.9482048144
 20
582.9405230155
 30
0.0
 11
685.6015603963
 21
582.1650505886
 31
0.0
  0
SPLINE
  5
1E2
330
1F
100
AcDbEntity
  8
0
  6
Continuous
 62
     7
370
    25
100
AcDbSpline
210
0.0
220
0.0
230
1.0
 70
     8
 71
     3
 72
    10
 73
     6
 74
     0
 42
0.00000001
 43
0.00000001
 40
0.0
 40
0.0
 40
0.0
 40
0.0
 40
0.3702896688583046
 40
0.7405318123903298
 40
0.9999999999999999
 40
0.9999999999999999
 40
0.9999999999999999
 40
0.9999999999999999
 10
734.4282831766711
 20
573.0842778161085
 30
0.0
 10
728.6082193304526
 20
572.7640868015822
 30
0.0
 10
716.9688386219491
 20
572.1237458678767
 30
0.0
 10
701.2499702151744
 20
571.2545115360134
 30
0.0
 10
691.3527963991645
 20
570.7057705344042
 30
0.0
 10
687.2747280787004
 20
570.4796652505723
 30
0.0
  0
ARC
  5
1E3
330
1F
100
AcDbEntity
  8
0
  6
Continuous
 62
     7
370
    25
100
AcDbCircle
 10
694.489817286
 20
571.2330516172
 30
0.0
 40
7.254316183271038
100
AcDbArc
 50
182.3501399448
 51
185.9611177314
  0
ARC
  5
1E4
330
1F
100
AcDbEntity
  8
0
  6
Continuous
 62
     7
370
    25
100
AcDbCircle
 10
730.1677606354
 20
573.1950346401
 30
0.0
 40
4.261961918962623
100
AcDbArc
 50
358.5108705387
 51
4.4691613064
  0
SPLINE
  5
1E5
330
1F
100
AcDbEntity
  8
0
  6
Continuous
 62
     7
370
    25
100
AcDbSpline
210
0.0
220
0.0
230
1.0
 70
     8
 71
     3
 72
    10
 73
     6
 74
     0
 42
0.00000001
 43
0.00000001
 40
0.0
 40
0.0
 40
0.0
 40
0.0
 40
0.3702717503651152
 40
0.7405122151371749
 40
1.0
 40
1.0
 40
1.0
 40
1.0
 10
687.2747280787003
 20
582.3006418903149
 30
0.0
 10
693.0944001403695
 20
581.9781134046469
 30
0.0
 10
704.7332525386664
 20
581.3330836849038
 30
0.0
 10
720.4523921226211
 20
580.4642691974249
 30
0.0
 10
730.3498895463197
 20
579.920214286658
 30
0.0
 10
734.4282831766676
 20
579.6960293247789
 30
0.0
  0
ARC
  5
1E6
330
1F
100
AcDbEntity
  8
0
  6
Continuous
 62
     7
370
    25
100
AcDbCircle
 10
730.1677606326
 20
579.5852725008
 30
0.0
 40
4.261961921800505
100
AcDbArc
 50
355.530838696
 51
1.4891294598
  0
ARC
  5
1E7
330
1F
100
AcDbEntity
  8
0
  6
Continuous
 62
     7
370
    25
100
AcDbCircle
 10
694.4898172863
 20
581.5472555236
 30
0.0
 40
7.254316183600001
100
AcDbArc
 50
174.0388822687
 51
177.6498600551
  0
SPLINE
  5
1E8
330
1F
100
AcDbEntity
  8
0
  6
Continuous
 62
     7
370
    25
100
AcDbSpline
210
0.0
220
0.0
230
1.0
 70
     8
 71
     3
 72
    12
 73
     8
 74
     0
 42
0.00000001
 43
0.00000001
 40
0.0
 40
0.0
 40
0.0
 40
0.0
 40
0.1224290494151348
 40
0.3423522449770467
 40
0.5614228816909441
 40
0.7807229538533574
 40
1.0
 40
1.0
 40
1.0
 40
1.0
 10
736.3524911463403
 20
579.1424953742874
 30
0.0
 10
736.3434870704763
 20
579.1448540587282
 30
0.0
 10
736.3183086867452
 20
579.1514497230531
 30
0.0
 10
736.1023210031004
 20
579.1684576907923
 30
0.0
 10
735.6664228733714
 20
579.1939686649466
 30
0.0
 10
735.0824972599412
 20
579.223520847506
 30
0.0
 10
734.6386671283731
 20
579.243287124385
 30
0.0
 10
734.4167637134929
 20
579.2531697439435
 30
0.0
  0
SPLINE
  5
1E9
330
1F
100
AcDbEntity
  8
0
  6
Continuous
 62
     7
370
    25
100
AcDbSpline
210
0.0
220
0.0
230
1.0
 70
     8
 71
     3
 72
    11
 73
     7
 74
     0
 42
0.00000001
 43
0.00000001
 40
0.0
 40
0.0
 40
0.0
 40
0.0
 40
0.0800485240044433
 40
0.5000005853538798
 40
0.9209248322279645
 40
1.0
 40
1.0
 40
1.0
 40
1.0
 10
736.3524911463403
 20
579.1424953742874
 30
0.0
 10
736.3522049019261
 20
578.9962509491867
 30
0.0
 10
736.3504169567215
 20
578.0827762903536
 30
0.0
 10
736.3491812598916
 20
576.388366702595
 30
0.0
 10
736.3504189579864
 20
574.6957398507404
 30
0.0
 10
736.3522081799545
 20
573.7822764750966
 30
0.0
 10
736.3524911463404
 20
573.6378117666053
 30
0.0
  0
SPLINE
  5
1EA
330
1F
100
AcDbEntity
  8
0
  6
Continuous
 62
     7
370
    25
100
AcDbSpline
210
0.0
220
0.0
230
1.0
 70
     8
 71
     3
 72
    12
 73
     8
 74
     0
 42
0.00000001
 43
0.00000001
 40
0.0
 40
0.0
 40
0.0
 40
0.0
 40
0.1130367476169362
 40
0.3328594693548023
 40
0.5544127937945006
 40
0.7774207483513244
 40
1.0
 40
1.0
 40
1.0
 40
1.0
 10
734.4167637134926
 20
573.5271373969417
 30
0.0
 10
734.5308345534794
 20
573.5321526426432
 30
0.0
 10
734.8667391160875
 20
573.5469210436988
 30
0.0
 10
735.4008069724821
 20
573.5725132478083
 30
0.0
 10
735.9173326103693
 20
573.6003885106793
 30
0.0
 10
736.2742273275238
 20
573.6238303842698
 30
0.0
 10
736.3264199450422
 20
573.6331542960295
 30
0.0
 10
736.3524911463404
 20
573.6378117666053
 30
0.0
  0
SPLINE
  5
1EB
330
1F
100
AcDbEntity
  8
0
  6
Continuous
 62
     7
370
    25
100
AcDbSpline
210
0.0
220
0.0
230
1.0
 70
     8
 71
     3
 72
     9
 73
     5
 74
     0
 42
0.00000001
 43
0.00000001
 40
0.0
 40
0.0
 40
0.0
 40
0.0
 40
0.500010612381544
 40
1.0
 40
1.0
 40
1.0
 40
1.0
 10
684.4485969655277
 20
583.3723547047565
 30
0.0
 10
684.8783183323486
 20
583.0845141666632
 30
0.0
 10
685.7377428249092
 20
582.5088453089118
 30
0.0
 10
686.7624069101875
 20
582.3700420478251
 30
0.0
 10
687.2747280787003
 20
582.3006418903149
 30
0.0
  0
SPLINE
  5
1EC
330
1F
100
AcDbEntity
  8
0
  6
Continuous
 62
     7
370
    25
100
AcDbSpline
210
0.0
220
0.0
230
1.0
 70
     8
 71
     3
 72
     9
 73
     5
 74
     0
 42
0.00000001
 43
0.00000001
 40
0.0
 40
0.0
 40
0.0
 40
0.0
 40
0.9838702326459385
 40
1.0
 40
1.0
 40
1.0
 40
1.0
 10
684.9482048143707
 20
582.9405230155103
 30
0.0
 10
684.786863999436
 20
583.0853554285292
 30
0.0
 10
684.6228781305875
 20
583.232562253386
 30
0.0
 10
684.4513634573055
 20
583.3701356774326
 30
0.0
 10
684.4485969655277
 20
583.3723547047565
 30
0.0
  0
SPLINE
  5
1ED
330
1F
100
AcDbEntity
  8
0
  6
Continuous
 62
     7
370
    25
100
AcDbSpline
210
0.0
220
0.0
230
1.0
 70
     8
 71
     3
 72
     9
 73
     5
 74
     0
 42
0.00000001
 43
0.00000001
 40
0.0
 40
0.0
 40
0.0
 40
0.0
 40
0.5055561057107305
 40
1.0
 40
1.0
 40
1.0
 40
1.0
 10
687.2747280787004
 20
570.4796652505723
 30
0.0
 10
686.7566685613673
 20
570.4090092163024
 30
0.0
 10
685.731936565292
 20
570.269250179725
 30
0.0
 10
684.8731959965304
 20
569.6929169049292
 30
0.0
 10
684.4485969655277
 20
569.4079524361307
 30
0.0
  0
SPLINE
  5
1EE
330
1F
100
AcDbEntity
  8
0
  6
Continuous
 62
     7
370
    25
100
AcDbSpline
210
0.0
220
0.0
230
1.0
 70
     8
 71
     3
 72
     9
 73
     5
 74
     0
 42
0.00000001
 43
0.00000001
 40
0.0
 40
0.0
 40
0.0
 40
0.0
 40
0.0161297673533178
 40
0.9999999999999999
 40
0.9999999999999999
 40
0.9999999999999999
 40
0.9999999999999999
 10
684.4485969655277
 20
569.4079524361307
 30
0.0
 10
684.4513634573055
 20
569.4101714634546
 30
0.0
 10
684.6228781305916
 20
569.5477448875042
 30
0.0
 10
684.786863999438
 20
569.6949517123595
 30
0.0
 10
684.9482048143707
 20
569.839784125377
 30
0.0
  0
SPLINE
  5
1EF
330
1F
100
AcDbEntity
  8
0
  6
Continuous
 62
     7
370
    25
100
AcDbSpline
210
0.0
220
0.0
230
1.0
 70
     8
 71
     3
 72
    12
 73
     8
 74
     0
 42
0.00000001
 43
0.00000001
 40
0.0
 40
0.0
 40
0.0
 40
0.0
 40
0.2230315344150434
 40
0.4461337558340359
 40
0.6675099896777019
 40
0.8870667292265005
 40
1.0
 40
1.0
 40
1.0
 40
1.0
 10
735.8801368812558
 20
573.1386486955569
 30
0.0
 10
735.8606030951299
 20
573.1405389428517
 30
0.0
 10
735.8215293318934
 20
573.144320036531
 30
0.0
 10
735.5539401498372
 20
573.1373772002604
 30
0.0
 10
735.1664110660121
 20
573.1217883777705
 30
0.0
 10
734.765688953549
 20
573.1024510977063
 30
0.0
 10
734.5138295312912
 20
573.0888854965298
 30
0.0
 10
734.4282831766711
 20
573.0842778161085
 30
0.0
  0
ARC
  5
1F0
330
1F
100
AcDbEntity
  8
0
  6
Continuous
 62
     7
370
    25
100
AcDbCircle
 10
735.8523912587
 20
573.637978352
 30
0.0
 40
0.5000999153471939
100
AcDbArc
 50
273.1804119248
 51
359.9809145383
  0
SPLINE
  5
1F1
330
1F
100
AcDbEntity
  8
0
  6
Continuous
 62
     7
370
    25
100
AcDbSpline
210
0.0
220
0.0
230
1.0
 70
     8
 71
     3
 72
    12
 73
     8
 74
     0
 42
0.00000001
 43
0.00000001
 40
0.0
 40
0.0
 40
0.0
 40
0.0
 40
0.2190444340109334
 40
0.4380981679380241
 40
0.6571027493691853
 40
0.8772791087290019
 40
1.0
 40
1.0
 40
1.0
 40
1.0
 10
734.4282831766676
 20
579.6960293247789
 30
0.0
 10
734.5947009174386
 20
579.6872005118292
 30
0.0
 10
734.9275434645376
 20
579.6695425110869
 30
0.0
 10
735.3657019071807
 20
579.6500240216778
 30
0.0
 10
735.6926677339404
 20
579.6387182380456
 30
0.0
 10
735.8545116109545
 20
579.6368943699689
 30
0.0
 10
735.8733829433667
 20
579.6404027992937
 30
0.0
 10
735.8801368812558
 20
579.6416584453303
 30
0.0
  0
ARC
  5
1F2
330
1F
100
AcDbEntity
  8
0
  6
Continuous
 62
     7
370
    25
100
AcDbCircle
 10
735.8523912587
 20
579.1423287889
 30
0.0
 40
0.5000999153470742
100
AcDbArc
 50
0.0190854623
 51
86.8195880753
  0
LINE
  5
1F3
330
1F
100
AcDbEntity
  8
0
  6
Continuous
 62
     7
370
    25
100
AcDbLine
 10
687.2747280787
 20
570.4796652506
 30
0.0
 11
687.3017142604
 21
570.4083749752
 31
0.0
  0
LINE
  5
1F4
330
1F
100
AcDbEntity
  8
0
  6
Continuous
 62
     7
370
    25
100
AcDbLine
 10
735.8848272419
 20
573.1342102425
 30
0.0
 11
735.8801368813
 21
573.1386486956
 31
0.0
  0
ELLIPSE
  5
1F5
330
1F
100
AcDbEntity
  8
0
  6
Continuous
 62
     7
370
    25
100
AcDbEllipse
 10
734.3850556992
 20
573.0509177925
 30
0.0
 11
1.499999304622747
 21
0.08287263343868288
 31
0.0
210
0.0
220
0.0
230
1.0
 40
0.0174284859
 41
5.396717970286519
 42
6.299675703199751
  0
LINE
  5
1F6
330
1F
100
AcDbEntity
  8
0
  6
Continuous
 62
     7
370
    25
100
AcDbLine
 10
731.8694410302
 20
572.8421582045
 30
0.0
 11
735.3344042396
 21
573.0830494835
 31
0.0
  0
LINE
  5
1F7
330
1F
100
AcDbEntity
  8
0
  6
Continuous
 62
     7
370
    25
100
AcDbLine
 10
731.8694410302
 20
572.8422565957
 30
0.0
 11
731.8694410302
 21
572.8421582045
 31
0.0
  0
ELLIPSE
  5
1F8
330
1F
100
AcDbEntity
  8
0
  6
Continuous
 62
     7
370
    25
100
AcDbEllipse
 10
722.4199546092
 20
572.5126105442
 30
0.0
 11
14.4999932780205
 21
0.8011021232407529
 31
0.0
210
0.0
220
0.0
230
1.0
 40
0.0174284859
 41
4.685109492442221
 42
5.421234828997902
  0
ELLIPSE
  5
1F9
330
1F
100
AcDbEntity
  8
0
  6
Continuous
 62
     7
370
    25
100
AcDbEllipse
 10
721.0989446937
 20
571.562326995
 30
0.0
 11
35.70262504606012
 21
1.972514619921981
 31
0.0
210
0.0
220
0.0
230
1.0
 40
0.0174284859
 41
1.543516838852422
 42
2.025717338717919
  0
ELLIPSE
  5
1FA
330
1F
100
AcDbEntity
  8
0
  6
Continuous
 62
     7
370
    25
100
AcDbEllipse
 10
702.0787172216
 20
571.1899309352
 30
0.0
 11
7.499996523114078
 21
0.4143631671934145
 31
0.0
210
0.0
220
0.0
230
1.0
 40
0.0174284859
 41
4.976419334597816
 42
5.167309992308093
  0
LINE
  5
1FB
330
1F
100
AcDbEntity
  8
0
  6
Continuous
 62
     7
370
    25
100
AcDbLine
 10
704.0233696227
 20
571.3222753864
 30
0.0
 11
704.04298788
 21
571.1718848418
 31
0.0
  0
SPLINE
  5
1FC
330
1F
100
AcDbEntity
  8
0
  6
Continuous
 62
     7
370
    25
100
AcDbSpline
210
0.0
220
0.0
230
1.0
 70
     8
 71
     3
 72
    10
 73
     6
 74
     0
 42
0.00000001
 43
0.00000001
 40
0.0
 40
0.0
 40
0.0
 40
0.0
 40
0.0186368637457253
 40
0.3939469944633057
 40
1.0
 40
1.0
 40
1.0
 40
1.0
 10
703.8395983369701
 20
571.3217890191684
 30
0.0
 10
703.8420545442187
 20
571.3218767696477
 30
0.0
 10
703.8939739806957
 20
571.3237316438407
 30
0.0
 10
703.9979728291736
 20
571.326411625219
 30
0.0
 10
704.013673486523
 20
571.3238545438213
 30
0.0
 10
704.0233696226666
 20
571.3222753864135
 30
0.0
  0
LINE
  5
1FD
330
1F
100
AcDbEntity
  8
0
  6
Continuous
 62
     7
370
    25
100
AcDbLine
 10
687.3017142604
 20
570.4083749752
 30
0.0
 11
703.839598337
 21
571.3217890192
 31
0.0
  0
LINE
  5
1FE
330
1F
100
AcDbEntity
  8
0
  6
Continuous
 62
     7
370
    25
100
AcDbLine
 10
703.8416640689
 20
581.4747217705
 30
0.0
 11
687.3077556454
 21
582.3879162328
 31
0.0
  0
SPLINE
  5
1FF
330
1F
100
AcDbEntity
  8
0
  6
Continuous
 62
     7
370
    25
100
AcDbSpline
210
0.0
220
0.0
230
1.0
 70
     8
 71
     3
 72
    11
 73
     7
 74
     0
 42
0.00000001
 43
0.00000001
 40
0.0
 40
0.0
 40
0.0
 40
0.0
 40
0.4177469294495291
 40
0.8392770662410922
 40
0.9817832068819584
 40
1.0
 40
1.0
 40
1.0
 40
1.0
 10
704.0253695095385
 20
581.4733723252604
 30
0.0
 10
704.0207324815066
 20
581.4722891340766
 30
0.0
 10
704.0114164315053
 20
581.4701129420936
 30
0.0
 10
703.9359199657549
 20
581.471315118985
 30
0.0
 10
703.8656597651831
 20
581.473785646325
 30
0.0
 10
703.8441069285254
 20
581.4746264692819
 30
0.0
 10
703.8416640688954
 20
581.4747217705404
 30
0.0
  0
LINE
  5
200
330
1F
100
AcDbEntity
  8
0
  6
Continuous
 62
     7
370
    25
100
AcDbLine
 10
704.04298788
 20
581.608422299
 30
0.0
 11
704.0253695095
 21
581.4733723253
 31
0.0
  0
ELLIPSE
  5
201
330
1F
100
AcDbEntity
  8
0
  6
Continuous
 62
     7
370
    25
100
AcDbEllipse
 10
702.0787172216
 20
581.5903762057
 30
0.0
 11
7.499996523114078
 21
-0.4143631671934145
 31
0.0
210
0.0
220
0.0
230
1.0
 40
0.0174284859
 41
1.115875314871649
 42
1.306765972582053
  0
ELLIPSE
  5
202
330
1F
100
AcDbEntity
  8
0
  6
Continuous
 62
     7
370
    25
100
AcDbEllipse
 10
721.0989446937
 20
581.2179801459
 30
0.0
 11
35.70262504606012
 21
-1.972514619921981
 31
0.0
210
0.0
220
0.0
230
1.0
 40
0.0174284859
 41
4.257467968461746
 42
4.73966846832717
  0
ELLIPSE
  5
203
330
1F
100
AcDbEntity
  8
0
  6
Continuous
 62
     7
370
    25
100
AcDbEllipse
 10
722.4199546092
 20
580.2676965967
 30
0.0
 11
14.4999932780205
 21
-0.8011021232407529
 31
0.0
210
0.0
220
0.0
230
1.0
 40
0.0174284859
 41
0.8619504781817886
 42
1.598075814737379
  0
LINE
  5
204
330
1F
100
AcDbEntity
  8
0
  6
Continuous
 62
     7
370
    25
100
AcDbLine
 10
731.8694410302
 20
579.9381489364
 30
0.0
 11
731.8694410302
 21
579.9380505452
 31
0.0
  0
LINE
  5
205
330
1F
100
AcDbEntity
  8
0
  6
Continuous
 62
     7
370
    25
100
AcDbLine
 10
735.3344042396
 20
579.6972576574
 30
0.0
 11
731.8694410302
 21
579.9381489364
 31
0.0
  0
ELLIPSE
  5
206
330
1F
100
AcDbEntity
  8
0
  6
Continuous
 62
     7
370
    25
100
AcDbEllipse
 10
734.3850556992
 20
579.7293893484
 30
0.0
 11
1.499999304622747
 21
-0.08287263343879657
 31
0.0
210
0.0
220
0.0
230
1.0
 40
0.0174284859
 41
0.4821914833809486
 42
0.8864673368972421
  0
LINE
  5
207
330
1F
100
AcDbEntity
  8
0
  6
Continuous
 62
     7
370
    25
100
AcDbLine
 10
735.8801368813
 20
579.6416584453
 30
0.0
 11
735.8848272419
 21
579.6460968984
 31
0.0
  0
LINE
  5
208
330
1F
100
AcDbEntity
  8
0
  6
Continuous
 62
     7
370
    25
100
AcDbLine
 10
687.3077556454
 20
582.3879162328
 30
0.0
 11
687.2747280787
 21
582.3006418903
 31
0.0
  0
SPLINE
  5
209
330
1F
100
AcDbEntity
  8
0
  6
Continuous
 62
     7
370
    25
100
AcDbSpline
210
0.0
220
0.0
230
1.0
 70
     8
 71
     3
 72
     9
 73
     5
 74
     0
 42
0.00000001
 43
0.00000001
 40
0.0
 40
0.0
 40
0.0
 40
0.0
 40
0.5001021276704695
 40
1.0
 40
1.0
 40
1.0
 40
1.0
 10
684.4818158315832
 20
569.3422609891705
 30
0.0
 10
684.9107636072905
 20
569.628786623259
 30
0.0
 10
685.7684839647411
 20
570.2017208665568
 30
0.0
 10
686.7907070933561
 20
570.339499653011
 30
0.0
 10
687.3017142603969
 20
570.4083749752116
 30
0.0
  0
LINE
  5
20A
330
1F
100
AcDbEntity
  8
0
  6
Continuous
 62
     7
370
    25
100
AcDbLine
 10
684.4818158316
 20
569.3422609892
 30
0.0
 11
684.4485969655
 21
569.4079524361
 31
0.0
  0
SPLINE
  5
20B
330
1F
100
AcDbEntity
  8
0
  6
Continuous
 62
     7
370
    25
100
AcDbSpline
210
0.0
220
0.0
230
1.0
 70
     8
 71
     3
 72
     9
 73
     5
 74
     0
 42
0.00000001
 43
0.00000001
 40
0.0
 40
0.0
 40
0.0
 40
0.0
 40
0.400722737156528
 40
1.0
 40
1.0
 40
1.0
 40
1.0
 10
687.3077556454485
 20
582.387916232755
 30
0.0
 10
686.8990695220393
 20
582.4363234948206
 30
0.0
 10
685.8791969629995
 20
582.5571233835644
 30
0.0
 10
685.0101209191736
 20
583.1172306569181
 30
0.0
 10
684.4893034064268
 20
583.4528902105922
 30
0.0
  0
LINE
  5
20C
330
1F
100
AcDbEntity
  8
0
  6
Continuous
 62
     7
370
    25
100
AcDbLine
 10
684.4485969655
 20
583.3723547048
 30
0.0
 11
684.4893034064
 21
583.4528902106
 31
0.0
  0
ARC
  5
20D
330
1F
100
AcDbEntity
  8
0
  6
Continuous
 62
     7
370
    25
100
AcDbCircle
 10
678.9239702517
 20
576.3901535704
 30
0.0
 40
8.975658044222143
100
AcDbArc
 50
245.1648853947
 51
308.2586979829
  0
LWPOLYLINE
  5
20E
330
1F
100
AcDbEntity
  8
0
  6
Continuous
 62
     7
370
    25
100
AcDbPolyline
 90
        3
 70
   128
 43
0.0
 10
674.9886568275
 20
568.1394938471
 10
675.0932383916
 20
568.2057462584
 10
675.1541189343
 20
568.2445622247
  0
ARC
  5
20F
330
1F
100
AcDbEntity
  8
0
  6
Continuous
 62
     7
370
    25
100
AcDbCircle
 10
678.9239702517
 20
576.3901535704
 30
0.0
 40
9.14112015109221
100
AcDbArc
 50
115.4997164176
 51
244.5002794289
  0
LWPOLYLINE
  5
210
330
1F
100
AcDbEntity
  8
0
  6
Continuous
 62
     7
370
    25
100
AcDbPolyline
 90
        3
 70
   128
 43
0.0
 10
675.1378260239
 20
584.5461509869
 10
675.0932383916
 20
584.5745608825
 10
674.9886568272
 20
584.6408132939
  0
ARC
  5
211
330
1F
100
AcDbEntity
  8
0
  6
Continuous
 62
     7
370
    25
100
AcDbCircle
 10
678.9239702517
 20
576.3901535704
 30
0.0
 40
8.991950954660663
100
AcDbArc
 50
51.762407147
 51
114.9014811666
  0
LINE
  5
212
330
1F
100
AcDbEntity
  8
0
  6
Continuous
 62
     7
370
    25
100
AcDbLine
 10
736.357181507
 20
579.1469338274
 30
0.0
 11
736.3524911463
 21
579.1424953743
 31
0.0
  0
LINE
  5
213
330
1F
100
AcDbEntity
  8
0
  6
Continuous
 62
     7
370
    25
100
AcDbLine
 10
736.357181507
 20
573.6333733135
 30
0.0
 11
736.357181507
 21
579.1469338274
 31
0.0
  0
LINE
  5
214
330
1F
100
AcDbEntity
  8
0
  6
Continuous
 62
     7
370
    25
100
AcDbLine
 10
736.3524911463
 20
573.6378117666
 30
0.0
 11
736.357181507
 21
573.6333733135
 31
0.0
  0
ARC
  5
215
330
1F
100
AcDbEntity
  8
0
  6
Continuous
 62
     7
370
    25
100
AcDbCircle
 10
735.8570816194
 20
579.146767242
 30
0.0
 40
0.5000999153470679
100
AcDbArc
 50
0.0190854617
 51
86.8195880753
  0
ARC
  5
216
330
1F
100
AcDbEntity
  8
0
  6
Continuous
 62
     7
370
    25
100
AcDbCircle
 10
735.8570816194
 20
573.6335398989
 30
0.0
 40
0.5000999153471877
100
AcDbArc
 50
273.1804119247
 51
359.9809145383
  0
LINE
  5
217
330
1F
100
AcDbEntity
  8
0
  6
Continuous
 62
     7
370
    25
100
AcDbLine
 10
735.3344042396
 20
573.0830494835
 30
0.0
 11
735.3415119704
 21
573.0834165201
 31
0.0
  0
LINE
  5
218
330
1F
100
AcDbEntity
  8
0
  6
Continuous
 62
     7
370
    25
100
AcDbLine
 10
735.3344042396
 20
579.6972576574
 30
0.0
 11
735.3415119704
 21
579.6968906208
 31
0.0
  0
SPLINE
  5
219
330
1F
100
AcDbEntity
  8
0
  6
Continuous
 62
     7
370
    25
100
AcDbSpline
210
0.0
220
0.0
230
1.0
 70
     8
 71
     3
 72
    11
 73
     7
 74
     0
 42
0.00000001
 43
0.00000001
 40
0.0
 40
0.0
 40
0.0
 40
0.0
 40
0.1345990676765959
 40
0.4126978815969493
 40
0.6969472592954598
 40
1.0
 40
1.0
 40
1.0
 40
1.0
 10
675.1533403278925
 20
568.2437556076231
 30
0.0
 10
675.5826463481407
 20
568.0528717224621
 30
0.0
 10
676.8989532748649
 20
567.4675974230423
 30
0.0
 10
679.2747633257482
 20
566.8451295390187
 30
0.0
 10
682.3284527106292
 20
566.4686268565183
 30
0.0
 10
684.51948261899
 20
566.4414855281855
 30
0.0
 10
685.6500721365279
 20
566.4274803787405
 30
0.0
  0
ARC
  5
21A
330
1F
100
AcDbEntity
  8
0
  6
Continuous
 62
     7
370
    25
100
AcDbCircle
 10
681.1575411435
 20
567.0473044233
 30
0.0
 40
4.53508727252337
100
AcDbArc
 50
329.0284626407
 51
352.1446266983
  0
SPLINE
  5
21B
330
1F
100
AcDbEntity
  8
0
  6
Continuous
 62
     7
370
    25
100
AcDbSpline
210
0.0
220
0.0
230
1.0
 70
     8
 71
     3
 72
    12
 73
     8
 74
     0
 42
0.00000001
 43
0.00000001
 40
0.0
 40
0.0
 40
0.0
 40
0.0
 40
0.1662426524176545
 40
0.3368059756191297
 40
0.6054181071254586
 40
0.8801435087136193
 40
1.0
 40
1.0
 40
1.0
 40
1.0
 10
685.046029499027
 20
564.7134931887726
 30
0.0
 10
684.4083479784908
 20
564.8689783642557
 30
0.0
 10
683.1164115016902
 20
565.1839897976108
 30
0.0
 10
680.9322251193408
 20
565.8469549026094
 30
0.0
 10
678.570250775781
 20
566.6991498194149
 30
0.0
 10
676.6047132138884
 20
567.5417784980269
 30
0.0
 10
675.4909382290929
 20
568.079636590722
 30
0.0
 10
675.1526227509354
 20
568.2430140415493
 30
0.0
  0
LINE
  5
21C
330
1F
100
AcDbEntity
  8
0
  6
Continuous
 62
     7
370
    25
100
AcDbLine
 10
675.1526227509
 20
568.2430140415
 30
0.0
 11
675.1533403279
 21
568.2437556076
 31
0.0
  0
LINE
  5
21D
330
1F
100
AcDbEntity
  8
0
  6
Continuous
 62
     7
370
    25
100
AcDbLine
 10
685.046029499
 20
564.7134931888
 30
0.0
 11
685.0301714221
 21
564.6440196572
 31
0.0
  0
ARC
  5
21E
330
1F
100
AcDbEntity
  8
0
  6
Continuous
 62
     7
370
    25
100
AcDbCircle
 10
695.7519496586
 20
611.6156544695
 30
0.0
 40
48.17977797259059
100
AcDbArc
 50
244.4718479123
 51
257.1419190681
  0
LWPOLYLINE
  5
21F
330
1F
100
AcDbEntity
  8
0
  6
Continuous
 62
     7
370
    25
100
AcDbPolyline
 90
        3
 70
   128
 43
0.0
 10
675.1526227509
 20
568.2430140415
 10
675.0932349006
 20
568.205490338
 10
674.9886568278
 20
568.1394923081
  0
LINE
  5
220
330
1F
100
AcDbEntity
  8
0
  6
Continuous
 62
     7
370
    25
100
AcDbLine
 10
684.4818158316
 20
569.3422609892
 30
0.0
 11
686.6796877517
 21
566.5551441148
 31
0.0
  0
ARC
  5
221
330
1F
100
AcDbEntity
  8
0
  6
Continuous
 62
     7
370
    25
100
AcDbCircle
 10
678.9239702517
 20
576.3901535704
 30
0.0
 40
12.52511736202734
100
AcDbArc
 50
307.8583068702
 51
308.2586979829
  0
LINE
  5
222
330
1F
100
AcDbEntity
  8
0
  6
Continuous
 62
     7
370
    25
100
AcDbLine
 10
685.6500721365
 20
566.4274803787
 30
0.0
 11
686.6107704854
 21
566.5011866325
 31
0.0
  0
LINE
  5
223
330
1F
100
AcDbEntity
  8
0
  6
Continuous
 62
     7
370
    25
100
AcDbLine
 10
675.1541189343
 20
568.2445622247
 30
0.0
 11
675.1533403279
 21
568.2437556076
 31
0.0
  0
LINE
  5
224
330
1F
100
AcDbEntity
  8
0
  6
Continuous
 62
     7
370
    25
100
AcDbLine
 10
689.5975408122
 20
566.9803081195
 30
0.0
 11
687.4974582961
 21
566.8643171708
 31
0.0
  0
LINE
  5
225
330
1F
100
AcDbEntity
  8
0
  6
Continuous
 62
     7
370
    25
100
AcDbLine
 10
687.3017142604
 20
570.4083749752
 30
0.0
 11
687.4974582961
 21
566.8643171708
 31
0.0
  0
SPLINE
  5
226
330
1F
100
AcDbEntity
  8
0
  6
Continuous
 62
     7
370
    25
100
AcDbSpline
210
0.0
220
0.0
230
1.0
 70
     8
 71
     3
 72
    17
 73
    13
 74
     0
 42
0.00000001
 43
0.00000001
 40
0.0
 40
0.0
 40
0.0
 40
0.0
 40
0.2859834379244703
 40
0.521592264412224
 40
0.759239901680938
 40
0.85214924050605
 40
0.9266708633836014
 40
0.9605058393195369
 40
0.9835417153308584
 40
0.9930790992390832
 40
0.9972256067114875
 40
1.0
 40
1.0
 40
1.0
 40
1.0
 10
691.038209174276
 20
567.5044518014585
 30
0.0
 10
692.2669873580231
 20
568.0363199254788
 30
0.0
 10
694.508100339854
 20
569.0063701535264
 30
0.0
 10
697.8470490267558
 20
570.048600824311
 30
0.0
 10
700.3497043934625
 20
570.6664193852378
 30
0.0
 10
702.1200106774988
 20
571.020394694456
 30
0.0
 10
702.9851315128361
 20
571.1750957290687
 30
0.0
 10
703.5107189421115
 20
571.2635957199005
 30
0.0
 10
703.7443810557688
 20
571.302707482723
 30
0.0
 10
703.8220312152581
 20
571.3170272494849
 30
0.0
 10
703.8381128694583
 20
571.3207610018025
 30
0.0
 10
703.8391732574341
 20
571.3214948429975
 30
0.0
 10
703.8395983369701
 20
571.3217890191684
 30
0.0
  0
LINE
  5
227
330
1F
100
AcDbEntity
  8
0
  6
Continuous
 62
     7
370
    25
100
AcDbLine
 10
689.5975408122
 20
566.9803081195
 30
0.0
 11
691.0382091743
 21
567.5044518015
 31
0.0
  0
ARC
  5
228
330
1F
100
AcDbEntity
  8
0
  6
Continuous
 62
     7
370
    25
100
AcDbCircle
 10
696.8416419654
 20
571.1135541823
 30
0.0
 40
6.834138728210628
100
AcDbArc
 50
211.8771071303
 51
226.9488007428
  0
SPLINE
  5
229
330
1F
100
AcDbEntity
  8
0
  6
Continuous
 62
     7
370
    25
100
AcDbSpline
210
0.0
220
0.0
230
1.0
 70
     8
 71
     3
 72
    10
 73
     6
 74
     0
 42
0.00000001
 43
0.00000001
 40
0.0
 40
0.0
 40
0.0
 40
0.0
 40
0.5975855365574454
 40
0.9790563563181981
 40
1.0
 40
1.0
 40
1.0
 40
1.0
 10
703.9496236566578
 20
571.312662121829
 30
0.0
 10
703.9521427960111
 20
571.3164014195554
 30
0.0
 10
703.9562700367918
 20
571.3225277110789
 30
0.0
 10
703.8818989102363
 20
571.3229042699355
 30
0.0
 10
703.841690958132
 20
571.3218441909352
 30
0.0
 10
703.8395983369701
 20
571.3217890191684
 30
0.0
  0
SPLINE
  5
22A
330
1F
100
AcDbEntity
  8
0
  6
Continuous
 62
     7
370
    25
100
AcDbSpline
210
0.0
220
0.0
230
1.0
 70
     8
 71
     3
 72
    14
 73
    10
 74
     0
 42
0.00000001
 43
0.00000001
 40
0.0
 40
0.0
 40
0.0
 40
0.0
 40
0.0129036569231464
 40
0.0519665716781148
 40
0.1318891824261205
 40
0.2280032005552168
 40
0.4679440229400844
 40
0.7079115564493632
 40
1.0
 40
1.0
 40
1.0
 40
1.0
 10
703.9496236566578
 20
571.312662121829
 30
0.0
 10
703.9161550801934
 20
571.3048171477678
 30
0.0
 10
703.7813679273607
 20
571.2732232818353
 30
0.0
 10
703.3420944823683
 20
571.1708412345414
 30
0.0
 10
702.5306670641423
 20
570.9684397257245
 30
0.0
 10
700.8771898823218
 20
570.5013890449583
 30
0.0
 10
698.532899810078
 20
569.6639319855678
 30
0.0
 10
695.3878056335809
 20
568.2189917452176
 30
0.0
 10
693.3145069593884
 20
566.863620862423
 30
0.0
 10
692.1763060766413
 20
566.1195484552732
 30
0.0
  0
LWPOLYLINE
  5
22B
330
1F
100
AcDbEntity
  8
0
  6
Continuous
 62
     7
370
    25
100
AcDbPolyline
 90
        4
 70
   128
 43
0.0
 10
703.9691504707
 20
571.1615665456
 10
703.9669058351
 20
571.1789246924
 10
703.9579308011
 20
571.2483574386
 10
703.9496236567
 20
571.3126621218
  0
LINE
  5
22C
330
1F
100
AcDbEntity
  8
0
  6
Continuous
 62
     7
370
    25
100
AcDbLine
 10
702.181026187
 20
570.7320390423
 30
0.0
 11
703.9691504707
 21
571.1615665456
 31
0.0
  0
ARC
  5
22D
330
1F
100
AcDbEntity
  8
0
  6
Continuous
 62
     7
370
    25
100
AcDbCircle
 10
710.3665845855
 20
540.3063454484
 30
0.0
 40
31.5075577752834
100
AcDbArc
 50
105.0579972479
 51
125.1719294169
  0
LINE
  5
22E
330
1F
100
AcDbEntity
  8
0
  6
Continuous
 62
     7
370
    25
100
AcDbLine
 10
692.1763060766
 20
566.1195484553
 30
0.0
 11
692.2172259628
 21
566.0614804422
 31
0.0
  0
SPLINE
  5
22F
330
1F
100
AcDbEntity
  8
0
  6
Continuous
 62
     7
370
    25
100
AcDbSpline
210
0.0
220
0.0
230
1.0
 70
     8
 71
     3
 72
     9
 73
     5
 74
     0
 42
0.00000001
 43
0.00000001
 40
0.0
 40
0.0
 40
0.0
 40
0.0
 40
0.4998978730609624
 40
1.0
 40
1.0
 40
1.0
 40
1.0
 10
687.4974582961021
 20
566.8643171707677
 30
0.0
 10
687.3492633802063
 20
566.8443508327654
 30
0.0
 10
687.0528129972744
 20
566.8044099986907
 30
0.0
 10
686.8040797684978
 20
566.6382440561201
 30
0.0
 10
686.6796877517462
 20
566.5551441148158
 30
0.0
  0
ARC
  5
230
330
1F
100
AcDbEntity
  8
0
  6
Continuous
 62
     7
370
    25
100
AcDbCircle
 10
704.0509589716
 20
570.822960682
 30
0.0
 40
0.5000763403940005
100
AcDbArc
 50
93.1626296401
 51
101.6913635617
  0
ARC
  5
231
330
1F
100
AcDbEntity
  8
0
  6
Continuous
 62
     7
370
    25
100
AcDbCircle
 10
695.7519496586
 20
541.1646526714
 30
0.0
 40
48.10950076354642
100
AcDbArc
 50
102.8580809319
 51
103.1066633214
  0
SPLINE
  5
232
330
1F
100
AcDbEntity
  8
0
  6
Continuous
 62
     7
370
    25
100
AcDbSpline
210
0.0
220
0.0
230
1.0
 70
     8
 71
     3
 72
    13
 73
     9
 74
     0
 42
0.00000001
 43
0.00000001
 40
0.0
 40
0.0
 40
0.0
 40
0.0
 40
0.0460329529079886
 40
0.2492425848193727
 40
0.477522557027288
 40
0.7051721168687837
 40
0.8526808263814667
 40
0.9999999999999999
 40
0.9999999999999999
 40
0.9999999999999999
 40
0.9999999999999999
 10
675.1365917772451
 20
584.547425330546
 30
0.0
 10
675.2649264292835
 20
584.6099342989827
 30
0.0
 10
675.959786488769
 20
584.94838525386
 30
0.0
 10
677.3194497233457
 20
585.566362677889
 30
0.0
 10
679.327422340164
 20
586.3768350046022
 30
0.0
 10
681.3419326020672
 20
587.0694598058668
 30
0.0
 10
683.2042158833126
 20
587.619693607565
 30
0.0
 10
684.2965854465513
 20
587.8872097186708
 30
0.0
 10
684.8424191025583
 20
588.0208817852312
 30
0.0
  0
LWPOLYLINE
  5
233
330
1F
100
AcDbEntity
  8
0
  6
Continuous
 62
     7
370
    25
100
AcDbPolyline
 90
        3
 70
   128
 43
0.0
 10
675.1365917772
 20
584.5474253305
 10
675.0932349006
 20
584.5748168029
 10
674.9886568275
 20
584.640814833
  0
ARC
  5
234
330
1F
100
AcDbEntity
  8
0
  6
Continuous
 62
     7
370
    25
100
AcDbCircle
 10
695.7519496586
 20
541.1646526714
 30
0.0
 40
48.17977797259062
100
AcDbArc
 50
102.8580809319
 51
115.5281512988
  0
LINE
  5
235
330
1F
100
AcDbEntity
  8
0
  6
Continuous
 62
     7
370
    25
100
AcDbLine
 10
685.045810694
 20
588.067772527
 30
0.0
 11
685.0301714221
 21
588.1362874837
 31
0.0
  0
LINE
  5
236
330
1F
100
AcDbEntity
  8
0
  6
Continuous
 62
     7
370
    25
100
AcDbLine
 10
685.2958791804
 20
586.073279256
 30
0.0
 11
684.8424191026
 21
588.0208817852
 31
0.0
  0
SPLINE
  5
237
330
1F
100
AcDbEntity
  8
0
  6
Continuous
 62
     7
370
    25
100
AcDbSpline
210
0.0
220
0.0
230
1.0
 70
     8
 71
     3
 72
    13
 73
     9
 74
     0
 42
0.00000001
 43
0.00000001
 40
0.0
 40
0.0
 40
0.0
 40
0.0
 40
0.2574896950994368
 40
0.4890886589321025
 40
0.7206004760683485
 40
0.9447506334961274
 40
0.9460032291293288
 40
1.0
 40
1.0
 40
1.0
 40
1.0
 10
685.2958791804454
 20
586.0732792560171
 30
0.0
 10
684.3771536044574
 20
586.1013422201319
 30
0.0
 10
682.6320808173193
 20
586.1546464017972
 30
0.0
 10
680.1375155714057
 20
585.9900822829592
 30
0.0
 10
677.821865765405
 20
585.576708287949
 30
0.0
 10
676.344757163801
 20
585.0771511013858
 30
0.0
 10
675.4734957192603
 20
584.7029082464559
 30
0.0
 10
675.3034493104374
 20
584.6239278279706
 30
0.0
 10
675.1372581383821
 20
584.546738027796
 30
0.0
  0
LINE
  5
238
330
1F
100
AcDbEntity
  8
0
  6
Continuous
 62
     7
370
    25
100
AcDbLine
 10
675.1372581384
 20
584.5467380278
 30
0.0
 11
675.1365917772
 21
584.5474253305
 31
0.0
  0
LINE
  5
239
330
1F
100
AcDbEntity
  8
0
  6
Continuous
 62
     7
370
    25
100
AcDbLine
 10
687.3077556454
 20
582.3879162328
 30
0.0
 11
687.4511174744
 21
584.9835642022
 31
0.0
  0
LINE
  5
23A
330
1F
100
AcDbEntity
  8
0
  6
Continuous
 62
     7
370
    25
100
AcDbLine
 10
687.4511174744
 20
584.9835642022
 30
0.0
 11
691.4011984962
 21
584.7653948485
 31
0.0
  0
SPLINE
  5
23B
330
1F
100
AcDbEntity
  8
0
  6
Continuous
 62
     7
370
    25
100
AcDbSpline
210
0.0
220
0.0
230
1.0
 70
     8
 71
     3
 72
    17
 73
    13
 74
     0
 42
0.00000001
 43
0.00000001
 40
0.0
 40
0.0
 40
0.0
 40
0.0
 40
0.0068263121770685
 40
0.0088448507297254
 40
0.0223990310416126
 40
0.0309593028397538
 40
0.0563218912149143
 40
0.1198824177066684
 40
0.1957460556357056
 40
0.5558621944880031
 40
0.77803360979772
 40
1.0
 40
1.0
 40
1.0
 40
1.0
 10
703.8416640688954
 20
581.4747217705404
 30
0.0
 10
703.8380439237337
 20
581.4757599535856
 30
0.0
 10
703.8333533026862
 20
581.4771051270593
 30
0.0
 10
703.7898205899829
 20
581.4846951151342
 30
0.0
 10
703.7152886675505
 20
581.4964466219408
 30
0.0
 10
703.5484564220485
 20
581.522165517164
 30
0.0
 10
703.1668803049812
 20
581.5806800961861
 30
0.0
 10
702.4839793382469
 20
581.6898770807734
 30
0.0
 10
700.3789800213292
 20
582.0570493131975
 30
0.0
 10
697.566045439543
 20
582.6912269971627
 30
0.0
 10
694.1672612249764
 20
583.7041672890213
 30
0.0
 10
692.3229356102127
 20
584.411761209708
 30
0.0
 10
691.401198496222
 20
584.765394848535
 30
0.0
  0
LINE
  5
23C
330
1F
100
AcDbEntity
  8
0
  6
Continuous
 62
     7
370
    25
100
AcDbLine
 10
691.4011984962
 20
584.7653948485
 30
0.0
 11
692.5306739137
 21
586.4155666382
 31
0.0
  0
SPLINE
  5
23D
330
1F
100
AcDbEntity
  8
0
  6
Continuous
 62
     7
370
    25
100
AcDbSpline
210
0.0
220
0.0
230
1.0
 70
     8
 71
     3
 72
    15
 73
    11
 74
     0
 42
0.00000001
 43
0.00000001
 40
0.0
 40
0.0
 40
0.0
 40
0.0
 40
0.2255198391625378
 40
0.451564594375195
 40
0.6337799820516977
 40
0.8158790324473547
 40
0.8946729146060269
 40
0.9638048440471935
 40
0.9940832206369723
 40
1.0
 40
1.0
 40
1.0
 40
1.0
 10
692.530673913714
 20
586.4155666381738
 30
0.0
 10
693.3761224545681
 20
585.8705589688324
 30
0.0
 10
695.0689873875757
 20
584.7792750797898
 30
0.0
 10
697.5453035812552
 20
583.5621716901971
 30
0.0
 10
699.8737144959664
 20
582.631271881762
 30
0.0
 10
701.6141939857888
 20
582.0754813369485
 30
0.0
 10
702.8718628421585
 20
581.7389285099841
 30
0.0
 10
703.5159957400708
 20
581.5835814036597
 30
0.0
 10
703.8439410301529
 20
581.5080280053921
 30
0.0
 10
703.936478473777
 20
581.4865072973422
 30
0.0
 10
703.9516054603124
 20
581.4829893326335
 30
0.0
  0
SPLINE
  5
23E
330
1F
100
AcDbEntity
  8
0
  6
Continuous
 62
     7
370
    25
100
AcDbSpline
210
0.0
220
0.0
230
1.0
 70
     8
 71
     3
 72
    11
 73
     7
 74
     0
 42
0.00000001
 43
0.00000001
 40
0.0
 40
0.0
 40
0.0
 40
0.0
 40
0.019556121229571
 40
0.168189199674442
 40
0.5898876540792781
 40
1.0
 40
1.0
 40
1.0
 40
1.0
 10
703.8416640688954
 20
581.4747217705404
 30
0.0
 10
703.8436227820433
 20
581.4746636568246
 30
0.0
 10
703.860468371866
 20
581.474163859384
 30
0.0
 10
703.9123689356255
 20
581.4733174419705
 30
0.0
 10
703.9616535676909
 20
581.4754067404924
 30
0.0
 10
703.9549235826145
 20
581.4804853816761
 30
0.0
 10
703.9516054603124
 20
581.4829893326335
 30
0.0
  0
LINE
  5
23F
330
1F
100
AcDbEntity
  8
0
  6
Continuous
 62
     7
370
    25
100
AcDbLine
 10
684.4893034064
 20
583.4528902106
 30
0.0
 11
686.0982603997
 21
585.4947517116
 31
0.0
  0
LINE
  5
240
330
1F
100
AcDbEntity
  8
0
  6
Continuous
 62
     7
370
    25
100
AcDbLine
 10
675.1372581384
 20
584.5467380278
 30
0.0
 11
675.1378260239
 21
584.5461509869
 31
0.0
  0
ARC
  5
241
330
1F
100
AcDbEntity
  8
0
  6
Continuous
 62
     7
370
    25
100
AcDbCircle
 10
678.9239702517
 20
576.3901535704
 30
0.0
 40
11.5915549620674
100
AcDbArc
 50
51.762407147
 51
56.6533814372
  0
LWPOLYLINE
  5
242
330
1F
100
AcDbEntity
  8
0
  6
Continuous
 62
     7
370
    25
100
AcDbPolyline
 90
        4
 70
   128
 43
0.0
 10
703.9516054603
 20
581.4829893326
 10
703.9538477066
 20
581.5003475876
 10
703.9628201895
 20
581.5697804493
 10
703.9691504707
 20
581.6187405953
  0
ARC
  5
243
330
1F
100
AcDbEntity
  8
0
  6
Continuous
 62
     7
370
    25
100
AcDbCircle
 10
710.3665845855
 20
612.4739616925
 30
0.0
 40
31.57783498432761
100
AcDbArc
 50
234.8280705831
 51
235.6099480104
  0
LINE
  5
244
330
1F
100
AcDbEntity
  8
0
  6
Continuous
 62
     7
370
    25
100
AcDbLine
 10
692.176744048
 20
586.6613801959
 30
0.0
 11
692.2172259628
 21
586.7188266987
 31
0.0
  0
ARC
  5
245
330
1F
100
AcDbEntity
  8
0
  6
Continuous
 62
     7
370
    25
100
AcDbCircle
 10
710.3665845855
 20
612.4739616925
 30
0.0
 40
31.50755777528349
100
AcDbArc
 50
234.8280705831
 51
254.9420027521
  0
LINE
  5
246
330
1F
100
AcDbEntity
  8
0
  6
Continuous
 62
     7
370
    25
100
AcDbLine
 10
703.9691504707
 20
581.6187405953
 30
0.0
 11
702.181026187
 21
582.0482680986
 31
0.0
  0
LINE
  5
247
330
1F
100
AcDbEntity
  8
0
  6
Continuous
 62
     7
370
    25
100
AcDbLine
 10
704.04298788
 20
571.1718848418
 30
0.0
 11
703.9691504707
 21
571.1615665456
 31
0.0
  0
SPLINE
  5
248
330
1F
100
AcDbEntity
  8
0
  6
Continuous
 62
     7
370
    25
100
AcDbSpline
210
0.0
220
0.0
230
1.0
 70
     8
 71
     3
 72
    10
 73
     6
 74
     0
 42
0.00000001
 43
0.00000001
 40
0.0
 40
0.0
 40
0.0
 40
0.0
 40
0.0490769085761659
 40
0.599580584366531
 40
1.0
 40
1.0
 40
1.0
 40
1.0
 10
686.0982603996853
 20
585.4947517115685
 30
0.0
 10
686.1172079380543
 20
585.4801289759671
 30
0.0
 10
686.3486930999609
 20
585.3014806337779
 30
0.0
 10
686.7945668747782
 20
585.0674286403568
 30
0.0
 10
687.2565734516626
 20
585.0084142673392
 30
0.0
 10
687.4511174744163
 20
584.9835642022068
 30
0.0
  0
ARC
  5
249
330
1F
100
AcDbEntity
  8
0
  6
Continuous
 62
     7
370
    25
100
AcDbCircle
 10
704.0529588613
 20
581.9726870296
 30
0.0
 40
0.5000763405118207
100
AcDbArc
 50
258.3065203379
 51
266.8373700346
  0
SPLINE
  5
24A
330
1F
100
AcDbEntity
  8
0
  6
Continuous
 62
     7
370
    25
100
AcDbSpline
210
0.0
220
0.0
230
1.0
 70
     8
 71
     3
 72
     9
 73
     5
 74
     0
 42
0.00000001
 43
0.00000001
 40
0.0
 40
0.0
 40
0.0
 40
0.0
 40
0.8458911907785723
 40
1.0
 40
1.0
 40
1.0
 40
1.0
 10
703.969150470723
 20
581.6187405953197
 30
0.0
 10
703.989991066834
 20
581.6149257883272
 30
0.0
 10
704.0146285099689
 20
581.61041598017
 30
0.0
 10
704.0392010371452
 20
581.608688516419
 30
0.0
 10
704.0429878800478
 20
581.6084222990374
 30
0.0
  0
LINE
  5
24B
330
1F
100
AcDbEntity
  8
0
  6
Continuous
 62
     7
370
    25
100
AcDbLine
 10
722.0384080777
 20
580.5421664458
 30
0.0
 11
722.0379500579
 21
580.5421915322
 31
0.0
  0
LINE
  5
24C
330
1F
100
AcDbEntity
  8
0
  6
Continuous
 62
     7
370
    25
100
AcDbLine
 10
692.1763060766
 20
566.1195484553
 30
0.0
 11
690.3375652273
 21
565.1225822196
 31
0.0
  0
LINE
  5
24D
330
1F
100
AcDbEntity
  8
0
  6
Continuous
 62
     7
370
    25
100
AcDbLine
 10
689.5975408122
 20
566.9803081195
 30
0.0
 11
690.3375652273
 21
565.1225822196
 31
0.0
  0
LINE
  5
24E
330
1F
100
AcDbEntity
  8
0
  6
Continuous
 62
     7
370
    25
100
AcDbLine
 10
686.6107704854
 20
566.5011866325
 30
0.0
 11
686.4889367388
 21
564.5052061235
 31
0.0
  0
LINE
  5
24F
330
1F
100
AcDbEntity
  8
0
  6
Continuous
 62
     7
370
    25
100
AcDbLine
 10
686.4889367388
 20
564.5052061235
 30
0.0
 11
685.046029499
 21
564.7134931888
 31
0.0
  0
ARC
  5
250
330
1F
100
AcDbEntity
  8
0
  6
Continuous
 62
     7
370
    25
100
AcDbCircle
 10
710.3665845855
 20
612.4739616925
 30
0.0
 40
33.5775303746404
100
AcDbArc
 50
234.8280705831
 51
235.6099480104
  0
LINE
  5
251
330
1F
100
AcDbEntity
  8
0
  6
Continuous
 62
     7
370
    25
100
AcDbLine
 10
691.0248556969
 20
585.0267747754
 30
0.0
 11
692.176744048
 21
586.6613801959
 31
0.0
  0
ARC
  5
252
330
1F
100
AcDbEntity
  8
0
  6
Continuous
 62
     7
370
    25
100
AcDbCircle
 10
687.0329854569
 20
573.4182590946
 30
0.0
 40
6.929946387144418
100
AcDbArc
 50
266.5070253286
 51
291.7198462835
  0
ARC
  5
253
330
1F
100
AcDbEntity
  8
0
  6
Continuous
 62
     7
370
    25
100
AcDbCircle
 10
695.7519496586
 20
541.1646526714
 30
0.0
 40
46.10980537323366
100
AcDbArc
 50
102.8580809319
 51
103.1066633214
  0
ARC
  5
254
330
1F
100
AcDbEntity
  8
0
  6
Continuous
 62
     7
370
    25
100
AcDbCircle
 10
687.0329854569
 20
579.3620480463
 30
0.0
 40
6.929946387144299
100
AcDbArc
 50
54.8280705831
 51
102.8580809319
  0
LINE
  5
255
330
1F
100
AcDbEntity
  8
0
  6
Continuous
 62
     7
370
    25
100
AcDbLine
 10
685.490816699
 20
586.1182209608
 30
0.0
 11
685.045810694
 21
588.067772527
 31
0.0
  0
ARC
  5
256
330
1F
100
AcDbEntity
  8
0
  6
Continuous
 62
     7
370
    25
100
AcDbCircle
 10
687.0329854569
 20
579.3620480463
 30
0.0
 40
8.929641777457059
100
AcDbArc
 50
54.8280705831
 51
102.8580809319
  0
ARC
  5
257
330
1F
100
AcDbEntity
  8
0
  6
Continuous
 62
     7
370
    25
100
AcDbCircle
 10
687.0329854569
 20
573.4182590946
 30
0.0
 40
8.92964177745722
100
AcDbArc
 50
266.5070253286
 51
291.7198462835
  0
ARC
  5
258
330
1F
100
AcDbEntity
  8
0
  6
Continuous
 62
     7
370
    25
100
AcDbCircle
 10
687.0329854569
 20
573.4182590946
 30
0.0
 40
8.999918986501363
100
AcDbArc
 50
257.1419190681
 51
305.1719294169
  0
ARC
  5
259
330
1F
100
AcDbEntity
  8
0
  6
Continuous
 62
     7
370
    25
100
AcDbCircle
 10
687.0329854569
 20
579.3620480463
 30
0.0
 40
8.999918986501244
100
AcDbArc
 50
54.8280705831
 51
102.8580809319
  0
SPLINE
  5
25A
330
1F
100
AcDbEntity
  8
0
  6
Continuous
 62
     7
370
    25
100
AcDbSpline
210
0.0
220
0.0
230
1.0
 70
    24
 71
     3
 72
    10
 73
     6
 74
     0
 42
0.00000001
 43
0.00000001
 40
0.0
 40
0.0
 40
0.0
 40
0.0
 40
0.4534764160641895
 40
0.9409342697622418
 40
1.0
 40
1.0
 40
1.0
 40
1.0
 10
678.8633459113263
 20
566.6447322816152
 30
0.0
 10
678.2563588405624
 20
566.6447322816152
 30
0.0
 10
676.996899878746
 20
566.6447322816152
 30
0.0
 10
675.7030784995031
 20
566.6447322816152
 30
0.0
 10
675.0180546941017
 20
566.6447322816152
 30
0.0
 10
674.9440205032898
 20
566.6447322816152
 30
0.0
  0
ARC
  5
25B
330
1F
100
AcDbEntity
  8
0
  6
Continuous
 62
     7
370
    25
100
AcDbCircle
 10
678.9239702517
 20
576.1447322816
 30
0.0
 40
10.30000000000001
100
AcDbArc
 50
232.7308609266
 51
247.2691390734
  0
SPLINE
  5
25C
330
1F
100
AcDbEntity
  8
0
  6
Continuous
 62
     7
370
    25
100
AcDbSpline
210
0.0
220
0.0
230
1.0
 70
    24
 71
     3
 72
    11
 73
     7
 74
     0
 42
0.00000001
 43
0.00000001
 40
0.0
 40
0.0
 40
0.0
 40
0.0
 40
0.2431641197380911
 40
0.4936284730588937
 40
0.7421706076863289
 40
1.0
 40
1.0
 40
1.0
 40
1.0
 10
672.6867037899774
 20
567.9479946936925
 30
0.0
 10
672.3729447882807
 20
568.4914412259633
 30
0.0
 10
671.7360071632608
 20
569.5946495537501
 30
0.0
 10
670.7256181942541
 20
571.3446945834766
 30
0.0
 10
669.6939110664182
 20
573.1316637474196
 30
0.0
 10
669.0398053235199
 20
574.2646081276418
 30
0.0
 10
668.706754041551
 20
574.8414698695381
 30
0.0
  0
ARC
  5
25D
330
1F
100
AcDbEntity
  8
0
  6
Continuous
 62
     7
370
    25
100
AcDbCircle
 10
678.9239702517
 20
576.1447322816
 30
0.0
 40
10.29999999999995
100
AcDbArc
 50
172.7308609266
 51
187.2691390734
  0
SPLINE
  5
25E
330
1F
100
AcDbEntity
  8
0
  6
Continuous
 62
     7
370
    25
100
AcDbSpline
210
0.0
220
0.0
230
1.0
 70
    24
 71
     3
 72
    11
 73
     7
 74
     0
 42
0.00000001
 43
0.00000001
 40
0.0
 40
0.0
 40
0.0
 40
0.0
 40
0.2431641197380909
 40
0.4936284730588934
 40
0.7421706076863288
 40
1.0
 40
1.0
 40
1.0
 40
1.0
 10
668.706754041551
 20
577.4479946936924
 30
0.0
 10
669.0205130432478
 20
577.9914412259633
 30
0.0
 10
669.6574506682676
 20
579.0946495537502
 30
0.0
 10
670.6678396372741
 20
580.8446945834767
 30
0.0
 10
671.6995467651102
 20
582.6316637474195
 30
0.0
 10
672.3536525080085
 20
583.7646081276418
 30
0.0
 10
672.6867037899774
 20
584.3414698695381
 30
0.0
  0
ARC
  5
25F
330
1F
100
AcDbEntity
  8
0
  6
Continuous
 62
     7
370
    25
100
AcDbCircle
 10
678.9239702517
 20
576.1447322816
 30
0.0
 40
10.30000000000002
100
AcDbArc
 50
112.7308609266
 51
127.2691390734
  0
SPLINE
  5
260
330
1F
100
AcDbEntity
  8
0
  6
Continuous
 62
     7
370
    25
100
AcDbSpline
210
0.0
220
0.0
230
1.0
 70
    24
 71
     3
 72
    10
 73
     6
 74
     0
 42
0.00000001
 43
0.00000001
 40
0.0
 40
0.0
 40
0.0
 40
0.0
 40
0.0977102618907742
 40
0.9040938341217223
 40
1.0
 40
1.0
 40
1.0
 40
1.0
 10
674.94402050329
 20
585.6447322816152
 30
0.0
 10
675.0180770043713
 20
585.6447322816152
 30
0.0
 10
675.7033072423084
 20
585.6447322816152
 30
0.0
 10
676.4793108652368
 20
585.6447322816152
 30
0.0
 10
677.2064212269993
 20
585.6447322816152
 30
0.0
 10
677.2837072295123
 20
585.6447322816152
 30
0.0
  0
ARC
  5
261
330
1F
100
AcDbEntity
  8
0
  6
Continuous
 62
     7
370
    25
100
AcDbCircle
 10
475.7239702517
 20
576.1447322816
 30
0.0
 40
10.29999999999999
100
AcDbArc
 50
292.7308609266
 51
307.2691390734
  0
SPLINE
  5
262
330
1F
100
AcDbEntity
  8
0
  6
Continuous
 62
     7
370
    25
100
AcDbSpline
210
0.0
220
0.0
230
1.0
 70
    24
 71
     3
 72
    10
 73
     6
 74
     0
 42
0.00000001
 43
0.00000001
 40
0.0
 40
0.0
 40
0.0
 40
0.0
 40
0.0805267827203026
 40
0.710413007886367
 40
1.0
 40
1.0
 40
1.0
 40
1.0
 10
479.7039200001428
 20
566.6447322816152
 30
0.0
 10
479.6287055935906
 20
566.6447322816152
 30
0.0
 10
478.9651587463167
 20
566.6447322816152
 30
0.0
 10
478.0057089296114
 20
566.6447322816152
 30
0.0
 10
477.0912003431837
 20
566.6447322816152
 30
0.0
 10
476.8031769556301
 20
566.6447322816152
 30
0.0
  0
SPLINE
  5
263
330
1F
100
AcDbEntity
  8
0
  6
Continuous
 62
     7
370
    25
100
AcDbSpline
210
0.0
220
0.0
230
1.0
 70
    24
 71
     3
 72
    10
 73
     6
 74
     0
 42
0.00000001
 43
0.00000001
 40
0.0
 40
0.0
 40
0.0
 40
0.0
 40
0.3705571966467132
 40
0.928651357312149
 40
1.0
 40
1.0
 40
1.0
 40
1.0
 10
476.420771059959
 20
585.6447322816152
 30
0.0
 10
476.837107750377
 20
585.6447322816152
 30
0.0
 10
477.8804868458424
 20
585.6447322816152
 30
0.0
 10
478.965209694469
 20
585.6447322816152
 30
0.0
 10
479.6287107806994
 20
585.6447322816152
 30
0.0
 10
479.7039200001428
 20
585.6447322816152
 30
0.0
  0
ARC
  5
264
330
1F
100
AcDbEntity
  8
0
  6
Continuous
 62
     7
370
    25
100
AcDbCircle
 10
475.7239702517
 20
576.1447322816
 30
0.0
 40
10.30000000000002
100
AcDbArc
 50
52.7308609266
 51
67.2691390734
  0
SPLINE
  5
265
330
1F
100
AcDbEntity
  8
0
  6
Continuous
 62
     7
370
    25
100
AcDbSpline
210
0.0
220
0.0
230
1.0
 70
    24
 71
     3
 72
    11
 73
     7
 74
     0
 42
0.00000001
 43
0.00000001
 40
0.0
 40
0.0
 40
0.0
 40
0.0
 40
0.2431641197380913
 40
0.4936284730588932
 40
0.7421706076863291
 40
1.0
 40
1.0
 40
1.0
 40
1.0
 10
481.9612367134553
 20
584.3414698695381
 30
0.0
 10
482.274995715152
 20
583.7980233372673
 30
0.0
 10
482.9119333401719
 20
582.6948150094804
 30
0.0
 10
483.9223223091785
 20
580.9447699797539
 30
0.0
 10
484.9540294370145
 20
579.157800815811
 30
0.0
 10
485.6081351799127
 20
578.0248564355886
 30
0.0
 10
485.9411864618817
 20
577.4479946936924
 30
0.0
  0
ARC
  5
266
330
1F
100
AcDbEntity
  8
0
  6
Continuous
 62
     7
370
    25
100
AcDbCircle
 10
475.7239702517
 20
576.1447322816
 30
0.0
 40
10.30000000000001
100
AcDbArc
 50
352.7308609266
 51
7.2691390734
  0
SPLINE
  5
267
330
1F
100
AcDbEntity
  8
0
  6
Continuous
 62
     7
370
    25
100
AcDbSpline
210
0.0
220
0.0
230
1.0
 70
    24
 71
     3
 72
    11
 73
     7
 74
     0
 42
0.00000001
 43
0.00000001
 40
0.0
 40
0.0
 40
0.0
 40
0.0
 40
0.2431641197380911
 40
0.493628473058894
 40
0.742170607686329
 40
1.0
 40
1.0
 40
1.0
 40
1.0
 10
485.9411864618817
 20
574.8414698695381
 30
0.0
 10
485.6274274601849
 20
574.2980233372672
 30
0.0
 10
484.990489835165
 20
573.1948150094804
 30
0.0
 10
483.9801008661584
 20
571.4447699797539
 30
0.0
 10
482.9483937383225
 20
569.657800815811
 30
0.0
 10
482.2942879954243
 20
568.5248564355887
 30
0.0
 10
481.9612367134553
 20
567.9479946936925
 30
0.0
  0
ARC
  5
268
330
1F
100
AcDbEntity
  8
0
  6
Continuous
 62
     7
370
    25
100
AcDbCircle
 10
475.7239702517
 20
576.1447322816
 30
0.0
 40
10.57500000000001
100
AcDbArc
 50
261.6509017607
 51
30.0
  0
ARC
  5
269
330
1F
100
AcDbEntity
  8
0
  6
Continuous
 62
     7
370
    25
100
AcDbCircle
 10
475.7239702517
 20
576.1447322816
 30
0.0
 40
10.57500000000005
100
AcDbArc
 50
30.0
 51
98.3490982393
  0
ARC
  5
26A
330
1F
100
AcDbEntity
  8
0
  6
Continuous
 62
     7
370
    25
100
AcDbCircle
 10
475.7239702517
 20
576.1447322816
 30
0.0
 40
14.87500000000005
100
AcDbArc
 50
233.3837470415
 51
30.0
  0
ARC
  5
26B
330
1F
100
AcDbEntity
  8
0
  6
Continuous
 62
     7
370
    25
100
AcDbCircle
 10
475.7239702517
 20
576.1447322816
 30
0.0
 40
14.87500000000005
100
AcDbArc
 50
30.0
 51
126.6162529585
  0
ARC
  5
26C
330
1F
100
AcDbEntity
  8
0
  6
Continuous
 62
     7
370
    25
100
AcDbCircle
 10
475.7239702517
 20
576.1447322816
 30
0.0
 40
16.20000000000004
100
AcDbArc
 50
223.9250761661
 51
136.0749238339
  0
SPLINE
  5
26D
330
1F
100
AcDbEntity
  8
0
  6
Continuous
 62
     7
370
    25
100
AcDbSpline
210
0.0
220
0.0
230
1.0
 70
     8
 71
     3
 72
     9
 73
     5
 74
     0
 42
0.00000001
 43
0.00000001
 40
0.0
 40
0.0
 40
0.0
 40
0.0
 40
0.5850553834534097
 40
1.0
 40
1.0
 40
1.0
 40
1.0
 10
464.5975596038015
 20
562.916240829679
 30
0.0
 10
464.8573345236103
 20
562.5296943041151
 30
0.0
 10
465.3013521792988
 20
561.8689935627898
 30
0.0
 10
465.9732033713316
 20
561.3908347306638
 30
0.0
 10
466.251984406586
 20
561.1924252974187
 30
0.0
  0
LINE
  5
26E
330
1F
100
AcDbEntity
  8
0
  6
Continuous
 62
     7
370
    25
100
AcDbLine
 10
463.1037604237
 20
565.503576906
 30
0.0
 11
464.5975596038
 21
562.9162408297
 31
0.0
  0
SPLINE
  5
26F
330
1F
100
AcDbEntity
  8
0
  6
Continuous
 62
     7
370
    25
100
AcDbSpline
210
0.0
220
0.0
230
1.0
 70
    24
 71
     3
 72
     9
 73
     5
 74
     0
 42
0.00000001
 43
0.00000001
 40
0.0
 40
0.0
 40
0.0
 40
0.0
 40
0.9646072814754255
 40
1.0
 40
1.0
 40
1.0
 40
1.0
 10
464.5975596038023
 20
589.3732237335528
 30
0.0
 10
464.1538366921203
 20
588.6046731060372
 30
0.0
 10
463.6938329992149
 20
587.807923338256
 30
0.0
 10
463.2132350038513
 20
586.9755031922704
 30
0.0
 10
463.196225334278
 20
586.9460415803493
 30
0.0
  0
SPLINE
  5
270
330
1F
100
AcDbEntity
  8
0
  6
Continuous
 62
     7
370
    25
100
AcDbSpline
210
0.0
220
0.0
230
1.0
 70
     8
 71
     3
 72
     9
 73
     5
 74
     0
 42
0.00000001
 43
0.00000001
 40
0.0
 40
0.0
 40
0.0
 40
0.0
 40
0.584191749740925
 40
1.0
 40
1.0
 40
1.0
 40
1.0
 10
466.251984406586
 20
591.0970392658116
 30
0.0
 10
465.8643281411354
 20
590.807763362312
 30
0.0
 10
465.2007510440222
 20
590.3125904954785
 30
0.0
 10
464.7747106956137
 20
589.6491060428673
 30
0.0
 10
464.5975596038023
 20
589.3732237335528
 30
0.0
  0
ARC
  5
271
330
1F
100
AcDbEntity
  8
0
  6
Continuous
 62
     7
370
    25
100
AcDbCircle
 10
475.7239702517
 20
576.1447322816
 30
0.0
 40
17.70000000000002
100
AcDbArc
 50
117.6465635726
 51
122.3534364274
  0
SPLINE
  5
272
330
1F
100
AcDbEntity
  8
0
  6
Continuous
 62
     7
370
    25
100
AcDbSpline
210
0.0
220
0.0
230
1.0
 70
     8
 71
     3
 72
     9
 73
     5
 74
     0
 42
0.00000001
 43
0.00000001
 40
0.0
 40
0.0
 40
0.0
 40
0.0
 40
0.5850553834536162
 40
1.0
 40
1.0
 40
1.0
 40
1.0
 10
469.8309659245501
 20
592.3947322816152
 30
0.0
 10
469.3663193537627
 20
592.3630338645766
 30
0.0
 10
468.5721268996322
 20
592.3088536656841
 30
0.0
 10
467.8221036079512
 20
591.966092881884
 30
0.0
 10
467.5108854807838
 20
591.823866139883
 30
0.0
  0
SPLINE
  5
273
330
1F
100
AcDbEntity
  8
0
  6
Continuous
 62
     7
370
    25
100
AcDbSpline
210
0.0
220
0.0
230
1.0
 70
    24
 71
     3
 72
    11
 73
     7
 74
     0
 42
0.00000001
 43
0.00000001
 40
0.0
 40
0.0
 40
0.0
 40
0.0
 40
0.2328716322111479
 40
0.4710265024313248
 40
0.7311421212560302
 40
0.9999999999999999
 40
0.9999999999999999
 40
0.9999999999999999
 40
0.9999999999999999
 10
481.6169745788825
 20
592.3947322816152
 30
0.0
 10
480.7231181485621
 20
592.3947322816152
 30
0.0
 10
478.9151260627428
 20
592.3947322816152
 30
0.0
 10
475.9874533221798
 20
592.3947322816152
 30
0.0
 10
472.9003544117019
 20
592.3947322816152
 30
0.0
 10
470.8653063907157
 20
592.3947322816152
 30
0.0
 10
469.8309659245501
 20
592.3947322816152
 30
0.0
  0
SPLINE
  5
274
330
1F
100
AcDbEntity
  8
0
  6
Continuous
 62
     7
370
    25
100
AcDbSpline
210
0.0
220
0.0
230
1.0
 70
     8
 71
     3
 72
     9
 73
     5
 74
     0
 42
0.00000001
 43
0.00000001
 40
0.0
 40
0.0
 40
0.0
 40
0.0
 40
0.5841917497409234
 40
1.0
 40
1.0
 40
1.0
 40
1.0
 10
483.9370550226488
 20
591.823866139883
 30
0.0
 10
483.4927066087901
 20
592.0149483619495
 30
0.0
 10
482.7320857782908
 20
592.3420365520022
 30
0.0
 10
481.9444712131092
 20
592.3792560904554
 30
0.0
 10
481.6169745788825
 20
592.3947322816152
 30
0.0
  0
ARC
  5
275
330
1F
100
AcDbEntity
  8
0
  6
Continuous
 62
     7
370
    25
100
AcDbCircle
 10
475.7239702517
 20
576.1447322816
 30
0.0
 40
17.70000000000005
100
AcDbArc
 50
57.6465635726
 51
62.3534364274
  0
SPLINE
  5
276
330
1F
100
AcDbEntity
  8
0
  6
Continuous
 62
     7
370
    25
100
AcDbSpline
210
0.0
220
0.0
230
1.0
 70
     8
 71
     3
 72
     9
 73
     5
 74
     0
 42
0.00000001
 43
0.00000001
 40
0.0
 40
0.0
 40
0.0
 40
0.0
 40
0.5850553834536193
 40
1.0
 40
1.0
 40
1.0
 40
1.0
 10
486.8503808996303
 20
589.3732237335528
 30
0.0
 10
486.5906059798214
 20
589.7597702591166
 30
0.0
 10
486.1465883241332
 20
590.4204710004414
 30
0.0
 10
485.4747371321007
 20
590.8986298325672
 30
0.0
 10
485.1959560968466
 20
591.0970392658116
 30
0.0
  0
SPLINE
  5
277
330
1F
100
AcDbEntity
  8
0
  6
Continuous
 62
     7
370
    25
100
AcDbSpline
210
0.0
220
0.0
230
1.0
 70
    24
 71
     3
 72
    11
 73
     7
 74
     0
 42
0.00000001
 43
0.00000001
 40
0.0
 40
0.0
 40
0.0
 40
0.0
 40
0.2556279644380972
 40
0.5185037642963867
 40
0.7560467972580103
 40
1.0
 40
1.0
 40
1.0
 40
1.0
 10
492.7433852267965
 20
579.1662408296777
 30
0.0
 10
492.2520921485284
 20
580.0171854026452
 30
0.0
 10
491.2555763290844
 20
581.7432014324683
 30
0.0
 10
489.7353654226312
 20
584.3762839606655
 30
0.0
 10
488.243649701083
 20
586.9600113808362
 30
0.0
 10
487.3189075375765
 20
588.5617117919306
 30
0.0
 10
486.8503808996303
 20
589.3732237335528
 30
0.0
  0
SPLINE
  5
278
330
1F
100
AcDbEntity
  8
0
  6
Continuous
 62
     7
370
    25
100
AcDbSpline
210
0.0
220
0.0
230
1.0
 70
     8
 71
     3
 72
     9
 73
     5
 74
     0
 42
0.00000001
 43
0.00000001
 40
0.0
 40
0.0
 40
0.0
 40
0.0
 40
0.5841917497409242
 40
1.0
 40
1.0
 40
1.0
 40
1.0
 10
493.4090408677791
 20
576.8715591556866
 30
0.0
 10
493.3523487193709
 20
577.3519172812528
 30
0.0
 10
493.2553049859849
 20
578.1741783381391
 30
0.0
 10
492.8937307692118
 20
578.8748823292036
 30
0.0
 10
492.7433852267965
 20
579.1662408296777
 30
0.0
  0
ARC
  5
279
330
1F
100
AcDbEntity
  8
0
  6
Continuous
 62
     7
370
    25
100
AcDbCircle
 10
475.7239702517
 20
576.1447322816
 30
0.0
 40
17.70000000000003
100
AcDbArc
 50
357.6465635726
 51
2.3534364274
  0
SPLINE
  5
27A
330
1F
100
AcDbEntity
  8
0
  6
Continuous
 62
     7
370
    25
100
AcDbSpline
210
0.0
220
0.0
230
1.0
 70
     8
 71
     3
 72
     9
 73
     5
 74
     0
 42
0.00000001
 43
0.00000001
 40
0.0
 40
0.0
 40
0.0
 40
0.0
 40
0.5850553834536182
 40
0.9999999999999999
 40
0.9999999999999999
 40
0.9999999999999999
 40
0.9999999999999999
 10
492.7433852267965
 20
573.1232237335529
 30
0.0
 10
492.948256877775
 20
573.5414686761553
 30
0.0
 10
493.2984316762173
 20
574.2563496163725
 30
0.0
 10
493.3766037758658
 20
575.0772692322982
 30
0.0
 10
493.4090408677791
 20
575.417905407544
 30
0.0
  0
SPLINE
  5
27B
330
1F
100
AcDbEntity
  8
0
  6
Continuous
 62
     7
370
    25
100
AcDbSpline
210
0.0
220
0.0
230
1.0
 70
    24
 71
     3
 72
    11
 73
     7
 74
     0
 42
0.00000001
 43
0.00000001
 40
0.0
 40
0.0
 40
0.0
 40
0.0
 40
0.2328716322111471
 40
0.471026502431323
 40
0.7311421212560296
 40
1.0
 40
1.0
 40
1.0
 40
1.0
 10
486.8503808996303
 20
562.9162408296776
 30
0.0
 10
487.2973091147906
 20
563.6903432056713
 30
0.0
 10
488.2013051577002
 20
565.256110281832
 30
0.0
 10
489.6651415279817
 20
567.7915492491267
 30
0.0
 10
491.2086909832206
 20
570.4650553295959
 30
0.0
 10
492.2262149937137
 20
572.2274586136912
 30
0.0
 10
492.7433852267965
 20
573.1232237335529
 30
0.0
  0
SPLINE
  5
27C
330
1F
100
AcDbEntity
  8
0
  6
Continuous
 62
     7
370
    25
100
AcDbSpline
210
0.0
220
0.0
230
1.0
 70
     8
 71
     3
 72
     9
 73
     5
 74
     0
 42
0.00000001
 43
0.00000001
 40
0.0
 40
0.0
 40
0.0
 40
0.0
 40
0.5841917497409237
 40
1.0
 40
1.0
 40
1.0
 40
1.0
 10
485.1959560968466
 20
561.1924252974187
 30
0.0
 10
485.5836123622972
 20
561.4817012009185
 30
0.0
 10
486.2471894594104
 20
561.9768740677521
 30
0.0
 10
486.6732298078188
 20
562.6403585203633
 30
0.0
 10
486.8503808996303
 20
562.9162408296776
 30
0.0
  0
ARC
  5
27D
330
1F
100
AcDbEntity
  8
0
  6
Continuous
 62
     7
370
    25
100
AcDbCircle
 10
475.7239702517
 20
576.1447322816
 30
0.0
 40
17.70000000000002
100
AcDbArc
 50
297.6465635726
 51
302.3534364274
  0
SPLINE
  5
27E
330
1F
100
AcDbEntity
  8
0
  6
Continuous
 62
     7
370
    25
100
AcDbSpline
210
0.0
220
0.0
230
1.0
 70
     8
 71
     3
 72
     9
 73
     5
 74
     0
 42
0.00000001
 43
0.00000001
 40
0.0
 40
0.0
 40
0.0
 40
0.0
 40
0.5850553834536171
 40
1.0
 40
1.0
 40
1.0
 40
1.0
 10
481.6169745788825
 20
559.8947322816152
 30
0.0
 10
482.0816211496698
 20
559.9264306986539
 30
0.0
 10
482.8758136038004
 20
559.9806108975465
 30
0.0
 10
483.6258368954813
 20
560.3233716813465
 30
0.0
 10
483.9370550226488
 20
560.4655984233475
 30
0.0
  0
SPLINE
  5
27F
330
1F
100
AcDbEntity
  8
0
  6
Continuous
 62
     7
370
    25
100
AcDbSpline
210
0.0
220
0.0
230
1.0
 70
    24
 71
     3
 72
    11
 73
     7
 74
     0
 42
0.00000001
 43
0.00000001
 40
0.0
 40
0.0
 40
0.0
 40
0.0
 40
0.2328716322111485
 40
0.471026502431326
 40
0.7311421212560308
 40
1.0
 40
1.0
 40
1.0
 40
1.0
 10
469.8309659245501
 20
559.8947322816152
 30
0.0
 10
470.7248223548706
 20
559.8947322816152
 30
0.0
 10
472.5328144406898
 20
559.8947322816152
 30
0.0
 10
475.4604871812528
 20
559.8947322816152
 30
0.0
 10
478.5475860917308
 20
559.8947322816152
 30
0.0
 10
480.582634112717
 20
559.8947322816152
 30
0.0
 10
481.6169745788825
 20
559.8947322816152
 30
0.0
  0
SPLINE
  5
280
330
1F
100
AcDbEntity
  8
0
  6
Continuous
 62
     7
370
    25
100
AcDbSpline
210
0.0
220
0.0
230
1.0
 70
     8
 71
     3
 72
     9
 73
     5
 74
     0
 42
0.00000001
 43
0.00000001
 40
0.0
 40
0.0
 40
0.0
 40
0.0
 40
0.5841917497409266
 40
1.0
 40
1.0
 40
1.0
 40
1.0
 10
467.5108854807838
 20
560.4655984233475
 30
0.0
 10
467.9552338946426
 20
560.274516201281
 30
0.0
 10
468.7158547251418
 20
559.9474280112282
 30
0.0
 10
469.5034692903234
 20
559.9102084727749
 30
0.0
 10
469.8309659245501
 20
559.8947322816152
 30
0.0
  0
ARC
  5
281
330
1F
100
AcDbEntity
  8
0
  6
Continuous
 62
     7
370
    25
100
AcDbCircle
 10
475.7239702517
 20
576.1447322816
 30
0.0
 40
17.70000000000002
100
AcDbArc
 50
237.6465635726
 51
242.3534364274
  0
LWPOLYLINE
  5
282
330
1F
100
AcDbEntity
  8
0
  6
Continuous
 62
     7
370
    25
100
AcDbPolyline
 90
        3
 70
   128
 43
0.0
 10
671.4410754749
 20
569.8942294411
 10
670.4802225648
 20
571.2697322816
 10
669.8450142199
 20
572.590149694
  0
ARC
  5
283
330
1F
100
AcDbEntity
  8
0
  6
Continuous
 62
     7
370
    25
100
AcDbCircle
 10
678.9239702517
 20
576.1447322816
 30
0.0
 40
14.87499999999998
100
AcDbArc
 50
55.1611835908
 51
308.4167037132
  0
ARC
  5
284
330
1F
100
AcDbEntity
  8
0
  6
Continuous
 62
     7
370
    25
100
AcDbCircle
 10
678.9239702517
 20
576.1447322816
 30
0.0
 40
10.57499999999998
100
AcDbArc
 50
84.5490172093
 51
281.0490866707
  0
SPLINE
  5
285
330
1F
100
AcDbEntity
  8
0
  6
Continuous
 62
     7
370
    25
100
AcDbSpline
210
0.0
220
0.0
230
1.0
 70
     8
 71
     3
 72
     9
 73
     5
 74
     0
 42
0.00000001
 43
0.00000001
 40
0.0
 40
0.0
 40
0.0
 40
0.0
 40
0.5850553834534097
 40
1.0
 40
1.0
 40
1.0
 40
1.0
 10
667.7975596038015
 20
562.916240829679
 30
0.0
 10
668.0573345236104
 20
562.5296943041151
 30
0.0
 10
668.5013521792987
 20
561.8689935627898
 30
0.0
 10
669.1732033713316
 20
561.3908347306636
 30
0.0
 10
669.451984406586
 20
561.1924252974187
 30
0.0
  0
SPLINE
  5
286
330
1F
100
AcDbEntity
  8
0
  6
Continuous
 62
     7
370
    25
100
AcDbSpline
210
0.0
220
0.0
230
1.0
 70
    24
 71
     3
 72
    11
 73
     7
 74
     0
 42
0.00000001
 43
0.00000001
 40
0.0
 40
0.0
 40
0.0
 40
0.0
 40
0.2379053903768482
 40
0.4814905141303176
 40
0.7366519444348056
 40
0.9999999999999999
 40
0.9999999999999999
 40
0.9999999999999999
 40
0.9999999999999999
 10
661.904555276636
 20
573.1232237335531
 30
0.0
 10
662.3612873874112
 20
572.3321405122423
 30
0.0
 10
663.2856555931448
 20
570.7310878150104
 30
0.0
 10
664.7619816856645
 20
568.1740160142267
 30
0.0
 10
666.2941150701279
 20
565.5202831483634
 30
0.0
 10
667.2911640347744
 20
563.7933436839617
 30
0.0
 10
667.7975596038015
 20
562.916240829679
 30
0.0
  0
SPLINE
  5
287
330
1F
100
AcDbEntity
  8
0
  6
Continuous
 62
     7
370
    25
100
AcDbSpline
210
0.0
220
0.0
230
1.0
 70
     8
 71
     3
 72
     9
 73
     5
 74
     0
 42
0.00000001
 43
0.00000001
 40
0.0
 40
0.0
 40
0.0
 40
0.0
 40
0.5841917497409942
 40
1.0
 40
1.0
 40
1.0
 40
1.0
 10
661.2388996356535
 20
575.417905407544
 30
0.0
 10
661.2955917840617
 20
574.9375472819778
 30
0.0
 10
661.3926355174477
 20
574.1152862250916
 30
0.0
 10
661.7542097342208
 20
573.4145822340271
 30
0.0
 10
661.904555276636
 20
573.1232237335531
 30
0.0
  0
ARC
  5
288
330
1F
100
AcDbEntity
  8
0
  6
Continuous
 62
     7
370
    25
100
AcDbCircle
 10
678.9239702517
 20
576.1447322816
 30
0.0
 40
17.70000000000003
100
AcDbArc
 50
177.6465635726
 51
182.3534364274
  0
SPLINE
  5
289
330
1F
100
AcDbEntity
  8
0
  6
Continuous
 62
     7
370
    25
100
AcDbSpline
210
0.0
220
0.0
230
1.0
 70
     8
 71
     3
 72
     9
 73
     5
 74
     0
 42
0.00000001
 43
0.00000001
 40
0.0
 40
0.0
 40
0.0
 40
0.0
 40
0.5850553834536183
 40
1.0
 40
1.0
 40
1.0
 40
1.0
 10
661.9045552766362
 20
579.1662408296776
 30
0.0
 10
661.6996836256577
 20
578.7479958870751
 30
0.0
 10
661.3495088272155
 20
578.033114946858
 30
0.0
 10
661.2713367275669
 20
577.2121953309321
 30
0.0
 10
661.2388996356535
 20
576.8715591556864
 30
0.0
  0
SPLINE
  5
28A
330
1F
100
AcDbEntity
  8
0
  6
Continuous
 62
     7
370
    25
100
AcDbSpline
210
0.0
220
0.0
230
1.0
 70
    24
 71
     3
 72
    11
 73
     7
 74
     0
 42
0.00000001
 43
0.00000001
 40
0.0
 40
0.0
 40
0.0
 40
0.0
 40
0.2328716322111468
 40
0.4710265024313225
 40
0.7311421212560294
 40
1.0
 40
1.0
 40
1.0
 40
1.0
 10
667.7975596038024
 20
589.3732237335528
 30
0.0
 10
667.3506313886421
 20
588.5991213575593
 30
0.0
 10
666.4466353457326
 20
587.0333542813986
 30
0.0
 10
664.982798975451
 20
584.4979153141038
 30
0.0
 10
663.439249520212
 20
581.8244092336347
 30
0.0
 10
662.4217255097188
 20
580.0620059495394
 30
0.0
 10
661.9045552766361
 20
579.1662408296776
 30
0.0
  0
SPLINE
  5
28B
330
1F
100
AcDbEntity
  8
0
  6
Continuous
 62
     7
370
    25
100
AcDbSpline
210
0.0
220
0.0
230
1.0
 70
     8
 71
     3
 72
     9
 73
     5
 74
     0
 42
0.00000001
 43
0.00000001
 40
0.0
 40
0.0
 40
0.0
 40
0.0
 40
0.584191749740925
 40
1.0
 40
1.0
 40
1.0
 40
1.0
 10
669.451984406586
 20
591.0970392658116
 30
0.0
 10
669.0643281411354
 20
590.807763362312
 30
0.0
 10
668.4007510440223
 20
590.3125904954785
 30
0.0
 10
667.9747106956139
 20
589.6491060428673
 30
0.0
 10
667.7975596038024
 20
589.3732237335528
 30
0.0
  0
ARC
  5
28C
330
1F
100
AcDbEntity
  8
0
  6
Continuous
 62
     7
370
    25
100
AcDbCircle
 10
678.9239702517
 20
576.1447322816
 30
0.0
 40
17.70000000000002
100
AcDbArc
 50
117.6465635726
 51
122.3534364274
  0
SPLINE
  5
28D
330
1F
100
AcDbEntity
  8
0
  6
Continuous
 62
     7
370
    25
100
AcDbSpline
210
0.0
220
0.0
230
1.0
 70
     8
 71
     3
 72
     9
 73
     5
 74
     0
 42
0.00000001
 43
0.00000001
 40
0.0
 40
0.0
 40
0.0
 40
0.0
 40
0.5850553834536162
 40
1.0
 40
1.0
 40
1.0
 40
1.0
 10
673.0309659245502
 20
592.3947322816152
 30
0.0
 10
672.5663193537628
 20
592.3630338645766
 30
0.0
 10
671.7721268996323
 20
592.3088536656841
 30
0.0
 10
671.0221036079513
 20
591.966092881884
 30
0.0
 10
670.7108854807839
 20
591.823866139883
 30
0.0
  0
SPLINE
  5
28E
330
1F
100
AcDbEntity
  8
0
  6
Continuous
 62
     7
370
    25
100
AcDbSpline
210
0.0
220
0.0
230
1.0
 70
    24
 71
     3
 72
    11
 73
     7
 74
     0
 42
0.00000001
 43
0.00000001
 40
0.0
 40
0.0
 40
0.0
 40
0.0
 40
0.2328716322111479
 40
0.4710265024313248
 40
0.7311421212560302
 40
0.9999999999999999
 40
0.9999999999999999
 40
0.9999999999999999
 40
0.9999999999999999
 10
684.8169745788825
 20
592.3947322816152
 30
0.0
 10
683.9231181485623
 20
592.3947322816152
 30
0.0
 10
682.1151260627428
 20
592.3947322816152
 30
0.0
 10
679.1874533221799
 20
592.3947322816152
 30
0.0
 10
676.1003544117019
 20
592.3947322816152
 30
0.0
 10
674.0653063907157
 20
592.3947322816152
 30
0.0
 10
673.0309659245502
 20
592.3947322816152
 30
0.0
  0
SPLINE
  5
28F
330
1F
100
AcDbEntity
  8
0
  6
Continuous
 62
     7
370
    25
100
AcDbSpline
210
0.0
220
0.0
230
1.0
 70
     8
 71
     3
 72
     9
 73
     5
 74
     0
 42
0.00000001
 43
0.00000001
 40
0.0
 40
0.0
 40
0.0
 40
0.0
 40
0.5841917497409234
 40
1.0
 40
1.0
 40
1.0
 40
1.0
 10
687.1370550226488
 20
591.823866139883
 30
0.0
 10
686.6927066087901
 20
592.0149483619495
 30
0.0
 10
685.9320857782909
 20
592.3420365520022
 30
0.0
 10
685.1444712131093
 20
592.3792560904554
 30
0.0
 10
684.8169745788825
 20
592.3947322816152
 30
0.0
  0
ARC
  5
290
330
1F
100
AcDbEntity
  8
0
  6
Continuous
 62
     7
370
    25
100
AcDbCircle
 10
678.9239702517
 20
576.1447322816
 30
0.0
 40
17.70000000000002
100
AcDbArc
 50
57.6465635726
 51
62.3534364274
  0
SPLINE
  5
291
330
1F
100
AcDbEntity
  8
0
  6
Continuous
 62
     7
370
    25
100
AcDbSpline
210
0.0
220
0.0
230
1.0
 70
     8
 71
     3
 72
     9
 73
     5
 74
     0
 42
0.00000001
 43
0.00000001
 40
0.0
 40
0.0
 40
0.0
 40
0.0
 40
0.5850553834536193
 40
1.0
 40
1.0
 40
1.0
 40
1.0
 10
690.0503808996303
 20
589.3732237335528
 30
0.0
 10
689.7906059798214
 20
589.7597702591166
 30
0.0
 10
689.3465883241332
 20
590.4204710004414
 30
0.0
 10
688.6747371321009
 20
590.898629832567
 30
0.0
 10
688.3959560968467
 20
591.0970392658116
 30
0.0
  0
LINE
  5
292
330
1F
100
AcDbEntity
  8
0
  6
Continuous
 62
     7
370
    25
100
AcDbLine
 10
691.3505950622
 20
587.1211867432
 30
0.0
 11
690.0503808996
 21
589.3732237336
 31
0.0
  0
SPLINE
  5
293
330
1F
100
AcDbEntity
  8
0
  6
Continuous
 62
     7
370
    25
100
AcDbSpline
210
0.0
220
0.0
230
1.0
 70
    24
 71
     3
 72
     9
 73
     5
 74
     0
 42
0.00000001
 43
0.00000001
 40
0.0
 40
0.0
 40
0.0
 40
0.0
 40
0.775589220740026
 40
1.0
 40
1.0
 40
1.0
 40
1.0
 10
690.0503808996303
 20
562.9162408296776
 30
0.0
 10
690.4953554519958
 20
563.6869593624498
 30
0.0
 10
691.0690799706798
 20
564.6806793783583
 30
0.0
 10
691.6684178083437
 20
565.718762964091
 30
0.0
 10
691.8029156795338
 20
565.9517201105023
 30
0.0
  0
SPLINE
  5
294
330
1F
100
AcDbEntity
  8
0
  6
Continuous
 62
     7
370
    25
100
AcDbSpline
210
0.0
220
0.0
230
1.0
 70
     8
 71
     3
 72
     9
 73
     5
 74
     0
 42
0.00000001
 43
0.00000001
 40
0.0
 40
0.0
 40
0.0
 40
0.0
 40
0.5841917497409237
 40
1.0
 40
1.0
 40
1.0
 40
1.0
 10
688.3959560968467
 20
561.1924252974187
 30
0.0
 10
688.7836123622973
 20
561.4817012009185
 30
0.0
 10
689.4471894594104
 20
561.976874067752
 30
0.0
 10
689.8732298078188
 20
562.6403585203633
 30
0.0
 10
690.0503808996303
 20
562.9162408296776
 30
0.0
  0
ARC
  5
295
330
1F
100
AcDbEntity
  8
0
  6
Continuous
 62
     7
370
    25
100
AcDbCircle
 10
678.9239702517
 20
576.1447322816
 30
0.0
 40
17.70000000000005
100
AcDbArc
 50
297.6465635726
 51
302.3534364274
  0
SPLINE
  5
296
330
1F
100
AcDbEntity
  8
0
  6
Continuous
 62
     7
370
    25
100
AcDbSpline
210
0.0
220
0.0
230
1.0
 70
     8
 71
     3
 72
     9
 73
     5
 74
     0
 42
0.00000001
 43
0.00000001
 40
0.0
 40
0.0
 40
0.0
 40
0.0
 40
0.5850553834536171
 40
1.0
 40
1.0
 40
1.0
 40
1.0
 10
684.8169745788825
 20
559.8947322816152
 30
0.0
 10
685.28162114967
 20
559.9264306986539
 30
0.0
 10
686.0758136038004
 20
559.9806108975465
 30
0.0
 10
686.8258368954814
 20
560.3233716813465
 30
0.0
 10
687.1370550226488
 20
560.4655984233475
 30
0.0
  0
SPLINE
  5
297
330
1F
100
AcDbEntity
  8
0
  6
Continuous
 62
     7
370
    25
100
AcDbSpline
210
0.0
220
0.0
230
1.0
 70
    24
 71
     3
 72
    11
 73
     7
 74
     0
 42
0.00000001
 43
0.00000001
 40
0.0
 40
0.0
 40
0.0
 40
0.0
 40
0.2328716322111485
 40
0.471026502431326
 40
0.7311421212560308
 40
1.0
 40
1.0
 40
1.0
 40
1.0
 10
673.0309659245502
 20
559.8947322816152
 30
0.0
 10
673.9248223548705
 20
559.8947322816152
 30
0.0
 10
675.7328144406899
 20
559.8947322816152
 30
0.0
 10
678.6604871812528
 20
559.8947322816152
 30
0.0
 10
681.7475860917308
 20
559.8947322816152
 30
0.0
 10
683.7826341127169
 20
559.8947322816152
 30
0.0
 10
684.8169745788825
 20
559.8947322816152
 30
0.0
  0
SPLINE
  5
298
330
1F
100
AcDbEntity
  8
0
  6
Continuous
 62
     7
370
    25
100
AcDbSpline
210
0.0
220
0.0
230
1.0
 70
     8
 71
     3
 72
     9
 73
     5
 74
     0
 42
0.00000001
 43
0.00000001
 40
0.0
 40
0.0
 40
0.0
 40
0.0
 40
0.5841917497409266
 40
1.0
 40
1.0
 40
1.0
 40
1.0
 10
670.710885480784
 20
560.4655984233475
 30
0.0
 10
671.1552338946426
 20
560.274516201281
 30
0.0
 10
671.9158547251418
 20
559.9474280112282
 30
0.0
 10
672.7034692903235
 20
559.9102084727749
 30
0.0
 10
673.0309659245502
 20
559.8947322816152
 30
0.0
  0
ARC
  5
299
330
1F
100
AcDbEntity
  8
0
  6
Continuous
 62
     7
370
    25
100
AcDbCircle
 10
678.9239702517
 20
576.1447322816
 30
0.0
 40
17.70000000000005
100
AcDbArc
 50
237.6465635726
 51
242.3534364274
  0
ARC
  5
29A
330
1F
100
AcDbEntity
  8
0
  6
Continuous
 62
     7
370
    25
100
AcDbCircle
 10
678.9239702517
 20
576.1447322816
 30
0.0
 40
16.20000000000002
100
AcDbArc
 50
210.0
 51
318.1420914366
  0
ARC
  5
29B
330
1F
100
AcDbEntity
  8
0
  6
Continuous
 62
     7
370
    25
100
AcDbCircle
 10
678.9239702517
 20
576.1447322816
 30
0.0
 40
16.19999999999999
100
AcDbArc
 50
45.9729863763
 51
210.0
  0
SPLINE
  5
29C
330
1F
100
AcDbEntity
  8
0
  6
Continuous
 62
     7
370
    25
100
AcDbSpline
210
0.0
220
0.0
230
1.0
 70
    24
 71
     3
 72
    10
 73
     6
 74
     0
 42
0.00000001
 43
0.00000001
 40
0.0
 40
0.0
 40
0.0
 40
0.0
 40
0.0645541032354771
 40
0.529941013670269
 40
1.0
 40
1.0
 40
1.0
 40
1.0
 10
692.8860198282819
 20
586.7759742693427
 30
0.0
 10
692.8002209948205
 20
586.924582208128
 30
0.0
 10
692.0958766000051
 20
588.1445424859744
 30
0.0
 10
690.7799951791783
 20
590.4237159635826
 30
0.0
 10
689.5779797125872
 20
592.505667823202
 30
0.0
 10
688.9739702517163
 20
593.5518428976825
 30
0.0
  0
SPLINE
  5
29D
330
1F
100
AcDbEntity
  8
0
  6
Continuous
 62
     7
370
    25
100
AcDbSpline
210
0.0
220
0.0
230
1.0
 70
    24
 71
     3
 72
     9
 73
     5
 74
     0
 42
0.00000001
 43
0.00000001
 40
0.0
 40
0.0
 40
0.0
 40
0.0
 40
0.6640852694102415
 40
1.0
 40
1.0
 40
1.0
 40
1.0
 10
688.9739702517163
 20
558.737621665548
 30
0.0
 10
689.844777397843
 20
560.2459038862334
 30
0.0
 10
691.1560655504923
 20
562.517121589985
 30
0.0
 10
692.5122391424281
 20
564.8660831551011
 30
0.0
 10
692.9677978291961
 20
565.6551339464128
 30
0.0
  0
SPLINE
  5
29E
330
1F
100
AcDbEntity
  8
0
  6
Continuous
 62
     7
370
    25
100
AcDbSpline
210
0.0
220
0.0
230
1.0
 70
    24
 71
     3
 72
     9
 73
     5
 74
     0
 42
0.00000001
 43
0.00000001
 40
0.0
 40
0.0
 40
0.0
 40
0.0
 40
0.6503342328476927
 40
1.0
 40
1.0
 40
1.0
 40
1.0
 10
668.8739702517164
 20
558.737621665548
 30
0.0
 10
670.6158578023591
 20
558.737621665548
 30
0.0
 10
673.2943075327621
 20
558.737621665548
 30
0.0
 10
676.0644263082058
 20
558.737621665548
 30
0.0
 10
677.0330420149244
 20
558.737621665548
 30
0.0
  0
SPLINE
  5
29F
330
1F
100
AcDbEntity
  8
0
  6
Continuous
 62
     7
370
    25
100
AcDbSpline
210
0.0
220
0.0
230
1.0
 70
    24
 71
     3
 72
     9
 73
     5
 74
     0
 42
0.00000001
 43
0.00000001
 40
0.0
 40
0.0
 40
0.0
 40
0.0
 40
0.4616184058757171
 40
1.0
 40
1.0
 40
1.0
 40
1.0
 10
680.2312371841996
 20
558.737621665548
 30
0.0
 10
681.5987525714643
 20
558.737621665548
 30
0.0
 10
684.561189445424
 20
558.737621665548
 30
0.0
 10
687.4296460254732
 20
558.737621665548
 30
0.0
 10
688.9739702517163
 20
558.737621665548
 30
0.0
  0
SPLINE
  5
2A0
330
1F
100
AcDbEntity
  8
0
  6
Continuous
 62
     7
370
    25
100
AcDbSpline
210
0.0
220
0.0
230
1.0
 70
    24
 71
     3
 72
     9
 73
     5
 74
     0
 42
0.00000001
 43
0.00000001
 40
0.0
 40
0.0
 40
0.0
 40
0.0
 40
0.5295015995421166
 40
0.9999999999999999
 40
0.9999999999999999
 40
0.9999999999999999
 40
0.9999999999999999
 10
666.1381252815936
 20
563.4762441554325
 30
0.0
 10
666.6283154927859
 20
562.6272098042743
 30
0.0
 10
667.5540732461454
 20
561.0237503399549
 30
0.0
 10
668.4516580413142
 20
559.4690878706214
 30
0.0
 10
668.8739702517164
 20
558.737621665548
 30
0.0
  0
SPLINE
  5
2A1
330
1F
100
AcDbEntity
  8
0
  6
Continuous
 62
     7
370
    25
100
AcDbSpline
210
0.0
220
0.0
230
1.0
 70
    24
 71
     3
 72
     9
 73
     5
 74
     0
 42
0.00000001
 43
0.00000001
 40
0.0
 40
0.0
 40
0.0
 40
0.0
 40
0.9698648208569574
 40
0.9999999999999999
 40
0.9999999999999999
 40
0.9999999999999999
 40
0.9999999999999999
 10
668.8739702517164
 20
593.5518428976825
 30
0.0
 10
668.0062013066529
 20
592.0488229956021
 30
0.0
 10
667.1114694570156
 20
590.4991019728802
 30
0.0
 10
666.1860036758034
 20
588.8961482191542
 30
0.0
 10
666.1581145986956
 20
588.8478429206276
 30
0.0
  0
SPLINE
  5
2A2
330
1F
100
AcDbEntity
  8
0
  6
Continuous
 62
     7
370
    25
100
AcDbSpline
210
0.0
220
0.0
230
1.0
 70
    24
 71
     3
 72
     9
 73
     5
 74
     0
 42
0.00000001
 43
0.00000001
 40
0.0
 40
0.0
 40
0.0
 40
0.0
 40
0.694901649214328
 40
0.9999999999999999
 40
0.9999999999999999
 40
0.9999999999999999
 40
0.9999999999999999
 10
688.9739702517163
 20
593.5518428976825
 30
0.0
 10
687.2329683376124
 20
593.5518428976825
 30
0.0
 10
684.7275750692667
 20
593.5518428976825
 30
0.0
 10
682.1363919367726
 20
593.5518428976825
 30
0.0
 10
681.345826236465
 20
593.5518428976825
 30
0.0
  0
SPLINE
  5
2A3
330
1F
100
AcDbEntity
  8
0
  6
Continuous
 62
     7
370
    25
100
AcDbSpline
210
0.0
220
0.0
230
1.0
 70
    24
 71
     3
 72
     9
 73
     5
 74
     0
 42
0.00000001
 43
0.00000001
 40
0.0
 40
0.0
 40
0.0
 40
0.0
 40
0.3820472828928804
 40
1.0
 40
1.0
 40
1.0
 40
1.0
 10
676.4779086666523
 20
593.5518428976825
 30
0.0
 10
675.4926832831931
 20
593.5518428976825
 30
0.0
 10
672.9138784399835
 20
593.5518428976825
 30
0.0
 10
670.4169524510148
 20
593.5518428976825
 30
0.0
 10
668.8739702517164
 20
593.5518428976825
 30
0.0
  0
SPLINE
  5
2A4
330
1F
100
AcDbEntity
  8
0
  6
Continuous
 62
     7
370
    25
100
AcDbSpline
210
0.0
220
0.0
230
1.0
 70
    24
 71
     3
 72
    10
 73
     6
 74
     0
 42
0.00000001
 43
0.00000001
 40
0.0
 40
0.0
 40
0.0
 40
0.0
 40
0.083361607147627
 40
0.5393917325786689
 40
1.0
 40
1.0
 40
1.0
 40
1.0
 10
461.6801426742365
 20
565.6551339464128
 30
0.0
 10
461.7932238597814
 20
565.4592715876688
 30
0.0
 10
462.5249162860696
 20
564.1919431298245
 30
0.0
 10
463.8680022400982
 20
561.8656500185148
 30
0.0
 10
465.0699798258586
 20
559.7837637704187
 30
0.0
 10
465.6739702517163
 20
558.737621665548
 30
0.0
  0
SPLINE
  5
2A5
330
1F
100
AcDbEntity
  8
0
  6
Continuous
 62
     7
370
    25
100
AcDbSpline
210
0.0
220
0.0
230
1.0
 70
    24
 71
     3
 72
     9
 73
     5
 74
     0
 42
0.00000001
 43
0.00000001
 40
0.0
 40
0.0
 40
0.0
 40
0.0
 40
0.677759021973651
 40
1.0
 40
1.0
 40
1.0
 40
1.0
 10
465.6739702517163
 20
593.5518428976825
 30
0.0
 10
464.8032989668969
 20
592.043795995684
 30
0.0
 10
463.5186664403037
 20
589.8187471905691
 30
0.0
 10
462.1900540357969
 20
587.517523002397
 30
0.0
 10
461.7619206751507
 20
586.7759742693426
 30
0.0
  0
SPLINE
  5
2A6
330
1F
100
AcDbEntity
  8
0
  6
Continuous
 62
     7
370
    25
100
AcDbSpline
210
0.0
220
0.0
230
1.0
 70
    24
 71
     3
 72
     9
 73
     5
 74
     0
 42
0.00000001
 43
0.00000001
 40
0.0
 40
0.0
 40
0.0
 40
0.0
 40
0.6970795778077524
 40
1.0
 40
1.0
 40
1.0
 40
1.0
 10
485.7739702517163
 20
593.5518428976825
 30
0.0
 10
484.0330116170595
 20
593.5518428976825
 30
0.0
 10
481.5355081897865
 20
593.5518428976825
 30
0.0
 10
478.9524829369138
 20
593.5518428976825
 30
0.0
 10
478.1700318367804
 20
593.5518428976825
 30
0.0
  0
SPLINE
  5
2A7
330
1F
100
AcDbEntity
  8
0
  6
Continuous
 62
     7
370
    25
100
AcDbSpline
210
0.0
220
0.0
230
1.0
 70
    24
 71
     3
 72
     9
 73
     5
 74
     0
 42
0.00000001
 43
0.00000001
 40
0.0
 40
0.0
 40
0.0
 40
0.0
 40
0.38398249590163
 40
0.9999999999999999
 40
0.9999999999999999
 40
0.9999999999999999
 40
0.9999999999999999
 10
473.3021142669677
 20
593.5518428976825
 30
0.0
 10
472.3087672483537
 20
593.5518428976825
 30
0.0
 10
469.7218081311636
 20
593.5518428976825
 30
0.0
 10
467.2169850898403
 20
593.5518428976825
 30
0.0
 10
465.6739702517163
 20
593.5518428976825
 30
0.0
  0
SPLINE
  5
2A8
330
1F
100
AcDbEntity
  8
0
  6
Continuous
 62
     7
370
    25
100
AcDbSpline
210
0.0
220
0.0
230
1.0
 70
    24
 71
     3
 72
     9
 73
     5
 74
     0
 42
0.00000001
 43
0.00000001
 40
0.0
 40
0.0
 40
0.0
 40
0.0
 40
0.5286764745467207
 40
1.0
 40
1.0
 40
1.0
 40
1.0
 10
488.5049792894987
 20
588.8215964883135
 30
0.0
 10
488.0164138503636
 20
589.6678166517179
 30
0.0
 10
487.0922845148297
 20
591.2684556136275
 30
0.0
 10
486.1962788163499
 20
592.8203830072655
 30
0.0
 10
485.7739702517163
 20
593.5518428976825
 30
0.0
  0
SPLINE
  5
2A9
330
1F
100
AcDbEntity
  8
0
  6
Continuous
 62
     7
370
    25
100
AcDbSpline
210
0.0
220
0.0
230
1.0
 70
    24
 71
     3
 72
     9
 73
     5
 74
     0
 42
0.00000001
 43
0.00000001
 40
0.0
 40
0.0
 40
0.0
 40
0.0
 40
0.9686240269218471
 40
1.0
 40
1.0
 40
1.0
 40
1.0
 10
485.7739702517163
 20
558.737621665548
 30
0.0
 10
486.6417515252086
 20
560.2406629210936
 30
0.0
 10
487.5376422417025
 20
561.7923911600906
 30
0.0
 10
488.4643062595115
 20
563.3974203204815
 30
0.0
 10
488.4933812447868
 20
563.4477796722075
 30
0.0
  0
SPLINE
  5
2AA
330
1F
100
AcDbEntity
  8
0
  6
Continuous
 62
     7
370
    25
100
AcDbSpline
210
0.0
220
0.0
230
1.0
 70
    24
 71
     3
 72
     9
 73
     5
 74
     0
 42
0.00000001
 43
0.00000001
 40
0.0
 40
0.0
 40
0.0
 40
0.0
 40
0.6075023140834456
 40
1.0
 40
1.0
 40
1.0
 40
1.0
 10
465.6739702517163
 20
558.737621665548
 30
0.0
 10
467.4167089513682
 20
558.737621665548
 30
0.0
 10
470.2854037024018
 20
558.737621665548
 30
0.0
 10
473.2522306196847
 20
558.737621665548
 30
0.0
 10
474.4167033192331
 20
558.737621665548
 30
0.0
  0
SPLINE
  5
2AB
330
1F
100
AcDbEntity
  8
0
  6
Continuous
 62
     7
370
    25
100
AcDbSpline
210
0.0
220
0.0
230
1.0
 70
    24
 71
     3
 72
     9
 73
     5
 74
     0
 42
0.00000001
 43
0.00000001
 40
0.0
 40
0.0
 40
0.0
 40
0.0
 40
0.4235769562862615
 40
1.0
 40
1.0
 40
1.0
 40
1.0
 10
477.6148984885083
 20
558.7376216655481
 30
0.0
 10
478.7864342732221
 20
558.7376216655481
 30
0.0
 10
481.5522499469199
 20
558.737621665548
 30
0.0
 10
484.230287623184
 20
558.737621665548
 30
0.0
 10
485.7739702517163
 20
558.737621665548
 30
0.0
  0
ARC
  5
2AC
330
1F
100
AcDbEntity
  8
0
  6
Continuous
 62
     7
370
    25
100
AcDbCircle
 10
678.9239702517
 20
576.1447322816
 30
0.0
 40
25.79999999999995
100
AcDbArc
 50
207.7177476896
 51
270.0
  0
ARC
  5
2AD
330
1F
100
AcDbEntity
  8
0
  6
Continuous
 62
     7
370
    25
100
AcDbCircle
 10
678.9239702517
 20
576.1447322816
 30
0.0
 40
25.80000000000007
100
AcDbArc
 50
12.3562279555
 51
152.2822523104
  0
ARC
  5
2AE
330
1F
100
AcDbEntity
  8
0
  6
Continuous
 62
     7
370
    25
100
AcDbCircle
 10
678.9239702517
 20
576.1447322816
 30
0.0
 40
25.80000000000001
100
AcDbArc
 50
270.0
 51
348.9141211324
  0
ARC
  5
2AF
330
1F
100
AcDbEntity
  8
0
  6
Continuous
 62
     7
370
    25
100
AcDbCircle
 10
475.7239702517
 20
576.1447322816
 30
0.0
 40
25.80000000000007
100
AcDbArc
 50
27.7177476896
 51
90.0
  0
ARC
  5
2B0
330
1F
100
AcDbEntity
  8
0
  6
Continuous
 62
     7
370
    25
100
AcDbCircle
 10
475.7239702517
 20
576.1447322816
 30
0.0
 40
25.79999999999999
100
AcDbArc
 50
191.828326389
 51
332.2822523104
  0
ARC
  5
2B1
330
1F
100
AcDbEntity
  8
0
  6
Continuous
 62
     7
370
    25
100
AcDbCircle
 10
475.7239702517
 20
576.1447322816
 30
0.0
 40
25.80000000000007
100
AcDbArc
 50
90.0
 51
168.1369166292
  0
SPLINE
  5
2B2
330
1F
100
AcDbEntity
  8
0
  6
Continuous
 62
     8
370
    25
100
AcDbSpline
210
0.0
220
0.0
230
1.0
 70
     8
 71
     3
 72
    11
 73
     7
 74
     0
 42
0.00000001
 43
0.00000001
 40
0.0
 40
0.0
 40
0.0
 40
0.0
 40
0.2347819124898227
 40
0.4695661379655297
 40
0.9396040512714606
 40
1.0
 40
1.0
 40
1.0
 40
1.0
 10
566.0484945594686
 20
382.9669320178924
 30
0.0
 10
566.3819892683811
 20
388.771864741626
 30
0.0
 10
567.0489819716743
 20
400.3817873771758
 30
0.0
 10
567.9204371086778
 20
423.6448591690445
 30
0.0
 10
568.4457318287721
 20
442.6077855852907
 30
0.0
 10
568.2861016526194
 20
455.7536448561209
 30
0.0
 10
568.2679259352973
 20
457.2504509602193
 30
0.0
  0
LWPOLYLINE
  5
2B3
330
1F
100
AcDbEntity
  8
0
  6
Continuous
 62
     8
370
    25
100
AcDbPolyline
 90
        3
 70
   128
 43
0.0
 10
562.7425758001
 20
574.093254559
 10
562.7177666205
 20
574.2780666758
 10
562.6525010902
 20
574.8902931073
  0
LINE
  5
2B4
330
1F
100
AcDbEntity
  8
0
  6
Continuous
 62
     8
370
    25
100
AcDbLine
 10
562.5319788964
 20
571.5136425886
 30
0.0
 11
563.0262149974
 21
571.0101865644
 31
0.0
  0
SPLINE
  5
2B5
330
1F
100
AcDbEntity
  8
0
  6
Continuous
 62
     8
370
    25
100
AcDbSpline
210
0.0
220
0.0
230
1.0
 70
     8
 71
     3
 72
    16
 73
    12
 74
     0
 42
0.00000001
 43
0.00000001
 40
0.0
 40
0.0
 40
0.0
 40
0.0
 40
0.0972943154867338
 40
0.1920726839804966
 40
0.2870939022568073
 40
0.2973997685862673
 40
0.4340548292666017
 40
0.5710799717662632
 40
0.7613056500856662
 40
0.9518083622882002
 40
1.0
 40
1.0
 40
1.0
 40
1.0
 10
555.543638280851
 20
576.1447322816152
 30
0.0
 10
555.5780624279995
 20
576.6752987703363
 30
0.0
 10
555.6460205435734
 20
577.7227117564801
 30
0.0
 10
556.1589073100398
 20
579.1875818458092
 30
0.0
 10
556.6583071722013
 20
580.1115333043585
 30
0.0
 10
557.3476635565519
 20
581.1544878621646
 30
0.0
 10
558.280629973284
 20
582.267252663857
 30
0.0
 10
560.0269819981196
 20
583.7758292690314
 30
0.0
 10
562.1701796133432
 20
585.090175744515
 30
0.0
 10
564.0224581629153
 20
586.0204942981868
 30
0.0
 10
565.108074924016
 20
586.3224805880438
 30
0.0
 10
565.3272575299873
 20
586.3834506691535
 30
0.0
  0
SPLINE
  5
2B6
330
1F
100
AcDbEntity
  8
0
  6
Continuous
 62
     8
370
    25
100
AcDbSpline
210
0.0
220
0.0
230
1.0
 70
     8
 71
     3
 72
    22
 73
    18
 74
     0
 42
0.00000001
 43
0.00000001
 40
0.0
 40
0.0
 40
0.0
 40
0.0
 40
0.0734789442393802
 40
0.1804383750231939
 40
0.2872192493666493
 40
0.3580163667949262
 40
0.4286213987143394
 40
0.4744832418789676
 40
0.5202393954153344
 40
0.5853802790477247
 40
0.6102025721218927
 40
0.6855361971637212
 40
0.7022450117009111
 40
0.7625032502410595
 40
0.8229366011891146
 40
0.9113293871207494
 40
1.0
 40
1.0
 40
1.0
 40
1.0
 10
586.5332783411941
 20
587.1763823754239
 30
0.0
 10
587.228148931071
 20
587.0273200768567
 30
0.0
 10
588.9345060567306
 20
586.6612756377439
 30
0.0
 10
591.5525538113836
 20
585.5862027678442
 30
0.0
 10
594.024754313278
 20
584.2015538525387
 30
0.0
 10
596.0005731626625
 20
582.6295944155006
 30
0.0
 10
597.3169984122562
 20
581.1809312090783
 30
0.0
 10
598.2410573363265
 20
579.7089347158292
 30
0.0
 10
598.9066805479929
 20
578.1243610279237
 30
0.0
 10
599.1473193719944
 20
576.5951093876314
 30
0.0
 10
599.0391236090147
 20
574.746333268227
 30
0.0
 10
598.6543541223141
 20
573.4768885502409
 30
0.0
 10
597.9091225613898
 20
572.0109199109551
 30
0.0
 10
597.0725204931659
 20
570.8040684153212
 30
0.0
 10
595.5550570164145
 20
569.2612066681747
 30
0.0
 10
593.6248564429433
 20
567.8125054861599
 30
0.0
 10
592.057589320839
 20
567.0318976804103
 30
0.0
 10
591.2727261746678
 20
566.6409813588047
 30
0.0
  0
SPLINE
  5
2B7
330
1F
100
AcDbEntity
  8
0
  6
Continuous
 62
     8
370
    25
100
AcDbSpline
210
0.0
220
0.0
230
1.0
 70
     8
 71
     3
 72
    14
 73
    10
 74
     0
 42
0.00000001
 43
0.00000001
 40
0.0
 40
0.0
 40
0.0
 40
0.0
 40
0.0769482105964414
 40
0.3557517905498576
 40
0.514563518734802
 40
0.6729151408068632
 40
0.7814302748978199
 40
0.889687419950622
 40
1.0
 40
1.0
 40
1.0
 40
1.0
 10
563.3666294275598
 20
566.7023425085398
 30
0.0
 10
563.0770558807658
 20
566.8190358966367
 30
0.0
 10
561.7382813079806
 20
567.3585400831417
 30
0.0
 10
559.9467903678934
 20
568.565962500632
 30
0.0
 10
558.062260287744
 20
570.2442518268045
 30
0.0
 10
556.9036564258465
 20
571.7052112861195
 30
0.0
 10
556.1220191009072
 20
573.1903927076282
 30
0.0
 10
555.6392778620459
 20
574.6178629378255
 30
0.0
 10
555.5757173826792
 20
575.6325949787764
 30
0.0
 10
555.543638280851
 20
576.1447322816152
 30
0.0
  0
SPLINE
  5
2B8
330
1F
100
AcDbEntity
  8
0
  6
Continuous
 62
     8
370
    25
100
AcDbSpline
210
0.0
220
0.0
230
1.0
 70
     8
 71
     3
 72
    14
 73
    10
 74
     0
 42
0.00000001
 43
0.00000001
 40
0.0
 40
0.0
 40
0.0
 40
0.0
 40
0.0031341113944173
 40
0.0660271019195401
 40
0.2407035056759251
 40
0.2840486609245551
 40
0.4897763289205902
 40
0.6963172763699257
 40
1.0
 40
1.0
 40
1.0
 40
1.0
 10
662.937197180002
 20
564.148040086422
 30
0.0
 10
662.9395326985816
 20
564.1469017261326
 30
0.0
 10
662.9887356476454
 20
564.1229196076341
 30
0.0
 10
662.8105816795327
 20
564.2090637542166
 30
0.0
 10
662.4576031302818
 20
564.3799827518053
 30
0.0
 10
661.5964555412328
 20
564.8310256419503
 30
0.0
 10
660.4700805116108
 20
565.4775701960604
 30
0.0
 10
658.4769911920081
 20
566.7946360040528
 30
0.0
 10
657.1189810474159
 20
568.1424937221428
 30
0.0
 10
656.3106998115521
 20
568.9447322816152
 30
0.0
  0
SPLINE
  5
2B9
330
1F
100
AcDbEntity
  8
0
  6
Continuous
 62
     8
370
    25
100
AcDbSpline
210
0.0
220
0.0
230
1.0
 70
     8
 71
     3
 72
    14
 73
    10
 74
     0
 42
0.00000001
 43
0.00000001
 40
0.0
 40
0.0
 40
0.0
 40
0.0
 40
0.0342083561333982
 40
0.1230404551911828
 40
0.2395868193277038
 40
0.3607531266821762
 40
0.5547296004468928
 40
0.7533477890681441
 40
1.0
 40
1.0
 40
1.0
 40
1.0
 10
491.756344568698
 20
588.1194559451885
 30
0.0
 10
491.7395724515945
 20
588.1275569320247
 30
0.0
 10
491.6792465793168
 20
588.1566945235516
 30
0.0
 10
491.9325130094812
 20
588.0350434400833
 30
0.0
 10
492.4330806186877
 20
587.7855638920962
 30
0.0
 10
493.3941367459719
 20
587.2728192319232
 30
0.0
 10
494.7328064207827
 20
586.4600678446379
 30
0.0
 10
496.5121591790065
 20
585.1973796010253
 30
0.0
 10
497.6866471378275
 20
584.0051523206331
 30
0.0
 10
498.337240691872
 20
583.3447322816249
 30
0.0
  0
SPLINE
  5
2BA
330
1F
100
AcDbEntity
  8
0
  6
Continuous
 62
     8
370
    25
100
AcDbSpline
210
0.0
220
0.0
230
1.0
 70
     8
 71
     3
 72
    13
 73
     9
 74
     0
 42
0.00000001
 43
0.00000001
 40
0.0
 40
0.0
 40
0.0
 40
0.0
 40
0.2467716203625374
 40
0.4411989047954387
 40
0.6395527226335285
 40
0.7566598206345261
 40
0.8773720725581388
 40
1.0
 40
1.0
 40
1.0
 40
1.0
 10
656.3106998115522
 20
583.3447322816153
 30
0.0
 10
656.9615309795868
 20
584.0053480411045
 30
0.0
 10
658.1251412769207
 20
585.1864520479146
 30
0.0
 10
659.9008997127751
 20
586.4512397617355
 30
0.0
 10
661.2401000370871
 20
587.2643570477164
 30
0.0
 10
662.192415902216
 20
587.774621745517
 30
0.0
 10
662.8173745665358
 20
588.0848331629131
 30
0.0
 10
662.8832592639184
 20
588.1158018886621
 30
0.0
 10
662.9164609485363
 20
588.1314081509079
 30
0.0
  0
SPLINE
  5
2BB
330
1F
100
AcDbEntity
  8
0
  6
Continuous
 62
     8
370
    25
100
AcDbSpline
210
0.0
220
0.0
230
1.0
 70
     8
 71
     3
 72
    14
 73
    10
 74
     0
 42
0.00000001
 43
0.00000001
 40
0.0
 40
0.0
 40
0.0
 40
0.0
 40
0.3072417886114232
 40
0.5118882948014118
 40
0.7157404269866506
 40
0.8814826293440315
 40
0.9339931575508383
 40
0.9968685449897772
 40
0.9999999999999999
 40
0.9999999999999999
 40
0.9999999999999999
 40
0.9999999999999999
 10
498.3372406918805
 20
568.9447322816152
 30
0.0
 10
497.518932411666
 20
568.1336627506645
 30
0.0
 10
496.1555682935423
 20
566.782358941895
 30
0.0
 10
494.1629528969739
 20
565.468609424053
 30
0.0
 10
492.7484985801558
 20
564.658202634572
 30
0.0
 10
491.9722547746078
 20
564.2743858840647
 30
0.0
 10
491.756593561718
 20
564.1700147127402
 30
0.0
 10
491.6591132852286
 20
564.1228752887725
 30
0.0
 10
491.7084011848318
 20
564.1468985134336
 30
0.0
 10
491.7107394702948
 20
564.1480382081143
 30
0.0
  0
ELLIPSE
  5
2BC
330
1F
100
AcDbEntity
  8
0
  6
Continuous
 62
     8
370
    25
100
AcDbEllipse
 10
420.2628848042
 20
572.8054965037
 30
0.0
 11
1.499999304622804
 21
-0.0828726334386829
 31
0.0
210
0.0
220
0.0
230
1.0
 40
0.0174284859
 41
3.125102257569506
 42
3.623784136966104
  0
ELLIPSE
  5
2BD
330
1F
100
AcDbEntity
  8
0
  6
Continuous
 62
     8
370
    25
100
AcDbEllipse
 10
734.3850556992
 20
579.7293893484
 30
0.0
 11
1.499999304622747
 21
-0.08287263343879657
 31
0.0
210
0.0
220
0.0
230
1.0
 40
0.0174284859
 41
6.266694911164469
 42
6.76537679056052
  0
ARC
  5
2BE
330
1F
100
AcDbEntity
  8
0
  6
Continuous
 62
     8
370
    25
100
AcDbCircle
 10
678.9239702517
 20
576.1447322816
 30
0.0
 40
24.79999999999999
100
AcDbArc
 50
270.0
 51
347.8345657573
  0
ARC
  5
2BF
330
1F
100
AcDbEntity
  8
0
  6
Continuous
 62
     8
370
    25
100
AcDbCircle
 10
678.9239702517
 20
576.1447322816
 30
0.0
 40
24.80000000000003
100
AcDbArc
 50
13.4316068119
 51
151.0614722598
  0
ARC
  5
2C0
330
1F
100
AcDbEntity
  8
0
  6
Continuous
 62
     8
370
    25
100
AcDbCircle
 10
678.9239702517
 20
576.1447322816
 30
0.0
 40
24.80000000000001
100
AcDbArc
 50
208.9385277402
 51
270.0
  0
ARC
  5
2C1
330
1F
100
AcDbEntity
  8
0
  6
Continuous
 62
     8
370
    25
100
AcDbCircle
 10
475.7239702517
 20
576.1447322816
 30
0.0
 40
24.80000000000007
100
AcDbArc
 50
90.0
 51
167.2337223335
  0
ARC
  5
2C2
330
1F
100
AcDbEntity
  8
0
  6
Continuous
 62
     8
370
    25
100
AcDbCircle
 10
475.7239702517
 20
576.1447322816
 30
0.0
 40
24.80000000000001
100
AcDbArc
 50
192.8026556474
 51
331.0614722598
  0
ARC
  5
2C3
330
1F
100
AcDbEntity
  8
0
  6
Continuous
 62
     8
370
    25
100
AcDbCircle
 10
475.7239702517
 20
576.1447322816
 30
0.0
 40
24.80000000000007
100
AcDbArc
 50
28.9385277402
 51
90.0
  0
ENDSEC
  0
SECTION
  2
OBJECTS
  0
DICTIONARY
  5
C
330
0
100
AcDbDictionary
281
     1
  3
ACAD_GROUP
350
D
  3
ACAD_LAYOUT
350
1A
  3
ACAD_MLINESTYLE
350
17
  3
ACAD_PLOTSETTINGS
350
19
  3
ACAD_PLOTSTYLENAME
350
E
  3
ACAD_SCALELIST
350
47
  3
DWGPROPS
350
2C4
  0
DICTIONARY
  5
D
102
{ACAD_REACTORS
330
C
102
}
330
C
100
AcDbDictionary
281
     1
  0
DICTIONARY
  5
1A
102
{ACAD_REACTORS
330
C
102
}
330
C
100
AcDbDictionary
281
     1
  3
Layout1
350
1E
  3
Layout2
350
26
  3
Model
350
22
  0
DICTIONARY
  5
17
102
{ACAD_REACTORS
330
C
102
}
330
C
100
AcDbDictionary
281
     1
  3
Standard
350
18
  0
DICTIONARY
  5
19
102
{ACAD_REACTORS
330
C
102
}
330
C
100
AcDbDictionary
281
     1
  0
ACDBDICTIONARYWDFLT
  5
E
102
{ACAD_REACTORS
330
C
102
}
330
C
100
AcDbDictionary
281
     1
  3
Normal
350
F
100
AcDbDictionaryWithDefault
340
F
  0
DICTIONARY
  5
47
102
{ACAD_REACTORS
330
C
102
}
330
C
100
AcDbDictionary
281
     1
  3
A0
350
48
  3
A1
350
49
  3
A2
350
4A
  3
A3
350
4B
  3
A4
350
4C
  3
A5
350
4D
  3
A6
350
4E
  3
A7
350
4F
  3
A8
350
50
  3
A9
350
51
  3
B0
350
52
  3
B1
350
53
  3
B2
350
54
  3
B3
350
55
  3
B4
350
56
  3
B5
350
57
  3
B6
350
58
  3
B7
350
59
  3
B8
350
5A
  3
B9
350
5B
  3
C0
350
5C
  3
C1
350
5D
  3
C2
350
5E
  3
C3
350
5F
  3
C4
350
60
  3
C5
350
61
  3
C6
350
62
  3
C7
350
63
  3
C8
350
64
  3
C9
350
65
  3
D0
350
66
  3
D1
350
67
  3
D2
350
68
  0
XRECORD
  5
2C4
102
{ACAD_REACTORS
330
C
102
}
330
C
100
AcDbXrecord
280
     1
  1
DWGPROPS COOKIE
  2

  3

  4

  6

  7

  8
designer5
  9

300
=
301
=
302
=
303
=
304
=
305
=
306
=
307
=
308
=
309
=
 40
0.0
 41
2460383.27371331
 42
2460383.273713854
  1

 90
        0
  0
LAYOUT
  5
1E
102
{ACAD_REACTORS
330
1A
102
}
330
1A
100
AcDbPlotSettings
  1

  2
none_device
  4

  6

 40
0.0
 41
0.0
 42
0.0
 43
0.0
 44
0.0
 45
0.0
 46
0.0
 47
0.0
 48
0.0
 49
0.0
140
0.0
141
0.0
142
1.0
143
1.0
 70
   688
 72
     1
 73
     0
 74
     5
  7

 75
    16
147
1.0
148
0.0
149
0.0
100
AcDbLayout
  1
Layout1
 70
     1
 71
     1
 10
0.0
 20
0.0
 11
420.0
 21
297.0
 12
0.0
 22
0.0
 32
0.0
 14
1.0000000000E+20
 24
1.0000000000E+20
 34
1.0000000000E+20
 15
-1.0000000000E+20
 25
-1.0000000000E+20
 35
-1.0000000000E+20
146
0.0
 13
0.0
 23
0.0
 33
0.0
 16
1.0
 26
0.0
 36
0.0
 17
0.0
 27
1.0
 37
0.0
 76
     0
330
1B
  0
LAYOUT
  5
26
102
{ACAD_REACTORS
330
1A
102
}
330
1A
100
AcDbPlotSettings
  1

  2
none_device
  4

  6

 40
0.0
 41
0.0
 42
0.0
 43
0.0
 44
0.0
 45
0.0
 46
0.0
 47
0.0
 48
0.0
 49
0.0
140
0.0
141
0.0
142
1.0
143
1.0
 70
   688
 72
     1
 73
     0
 74
     5
  7

 75
    16
147
1.0
148
0.0
149
0.0
100
AcDbLayout
  1
Layout2
 70
     1
 71
     2
 10
0.0
 20
0.0
 11
0.0
 21
0.0
 12
0.0
 22
0.0
 32
0.0
 14
0.0
 24
0.0
 34
0.0
 15
0.0
 25
0.0
 35
0.0
146
0.0
 13
0.0
 23
0.0
 33
0.0
 16
1.0
 26
0.0
 36
0.0
 17
0.0
 27
1.0
 37
0.0
 76
     0
330
23
  0
LAYOUT
  5
22
102
{ACAD_REACTORS
330
1A
102
}
330
1A
100
AcDbPlotSettings
  1

  2
none_device
  4
Letter_(8.50_x_11.00_Inches)
  6

 40
6.35
 41
6.35
 42
6.35000508
 43
6.35000508
 44
215.9
 45
279.4
 46
0.0
 47
0.0
 48
0.0
 49
0.0
140
0.0
141
0.0
142
1.0
143
1.0
 70
  1712
 72
     1
 73
     0
 74
     0
  7

 75
     0
147
1.0
148
0.0
149
0.0
100
AcDbLayout
  1
Model
 70
     1
 71
     0
 10
0.0
 20
0.0
 11
1189.0
 21
841.0
 12
0.0
 22
0.0
 32
0.0
 14
0.0
 24
0.0
 34
0.0
 15
1189.0
 25
841.0
 35
0.0
146
0.0
 13
0.0
 23
0.0
 33
0.0
 16
1.0
 26
0.0
 36
0.0
 17
0.0
 27
1.0
 37
0.0
 76
     0
330
1F
331
29
  0
MLINESTYLE
  5
18
102
{ACAD_REACTORS
330
17
102
}
330
17
100
AcDbMlineStyle
  2
Standard
 70
     0
  3

 62
   256
 51
90.0
 52
90.0
 71
     2
 49
0.5
 62
   256
  6
BYLAYER
 49
-0.5
 62
   256
  6
BYLAYER
  0
ACDBPLACEHOLDER
  5
F
102
{ACAD_REACTORS
330
E
102
}
330
E
  0
SCALE
  5
48
102
{ACAD_REACTORS
330
47
102
}
330
47
100
AcDbScale
 70
     0
300
1:1
140
1.0
141
1.0
290
     1
  0
SCALE
  5
49
102
{ACAD_REACTORS
330
47
102
}
330
47
100
AcDbScale
 70
     0
300
1:2
140
1.0
141
2.0
290
     0
  0
SCALE
  5
4A
102
{ACAD_REACTORS
330
47
102
}
330
47
100
AcDbScale
 70
     0
300
1:4
140
1.0
141
4.0
290
     0
  0
SCALE
  5
4B
102
{ACAD_REACTORS
330
47
102
}
330
47
100
AcDbScale
 70
     0
300
1:5
140
1.0
141
5.0
290
     0
  0
SCALE
  5
4C
102
{ACAD_REACTORS
330
47
102
}
330
47
100
AcDbScale
 70
     0
300
1:8
140
1.0
141
8.0
290
     0
  0
SCALE
  5
4D
102
{ACAD_REACTORS
330
47
102
}
330
47
100
AcDbScale
 70
     0
300
1:10
140
1.0
141
10.0
290
     0
  0
SCALE
  5
4E
102
{ACAD_REACTORS
330
47
102
}
330
47
100
AcDbScale
 70
     0
300
1:16
140
1.0
141
16.0
290
     0
  0
SCALE
  5
4F
102
{ACAD_REACTORS
330
47
102
}
330
47
100
AcDbScale
 70
     0
300
1:20
140
1.0
141
20.0
290
     0
  0
SCALE
  5
50
102
{ACAD_REACTORS
330
47
102
}
330
47
100
AcDbScale
 70
     0
300
1:30
140
1.0
141
30.0
290
     0
  0
SCALE
  5
51
102
{ACAD_REACTORS
330
47
102
}
330
47
100
AcDbScale
 70
     0
300
1:40
140
1.0
141
40.0
290
     0
  0
SCALE
  5
52
102
{ACAD_REACTORS
330
47
102
}
330
47
100
AcDbScale
 70
     0
300
1:50
140
1.0
141
50.0
290
     0
  0
SCALE
  5
53
102
{ACAD_REACTORS
330
47
102
}
330
47
100
AcDbScale
 70
     0
300
1:100
140
1.0
141
100.0
290
     0
  0
SCALE
  5
54
102
{ACAD_REACTORS
330
47
102
}
330
47
100
AcDbScale
 70
     0
300
2:1
140
2.0
141
1.0
290
     0
  0
SCALE
  5
55
102
{ACAD_REACTORS
330
47
102
}
330
47
100
AcDbScale
 70
     0
300
4:1
140
4.0
141
1.0
290
     0
  0
SCALE
  5
56
102
{ACAD_REACTORS
330
47
102
}
330
47
100
AcDbScale
 70
     0
300
8:1
140
8.0
141
1.0
290
     0
  0
SCALE
  5
57
102
{ACAD_REACTORS
330
47
102
}
330
47
100
AcDbScale
 70
     0
300
10:1
140
10.0
141
1.0
290
     0
  0
SCALE
  5
58
102
{ACAD_REACTORS
330
47
102
}
330
47
100
AcDbScale
 70
     0
300
100:1
140
100.0
141
1.0
290
     0
  0
SCALE
  5
59
102
{ACAD_REACTORS
330
47
102
}
330
47
100
AcDbScale
 70
     0
300
1/128" = 1'-0"
140
0.0078125
141
12.0
290
     0
  0
SCALE
  5
5A
102
{ACAD_REACTORS
330
47
102
}
330
47
100
AcDbScale
 70
     0
300
1/64" = 1'-0"
140
0.015625
141
12.0
290
     0
  0
SCALE
  5
5B
102
{ACAD_REACTORS
330
47
102
}
330
47
100
AcDbScale
 70
     0
300
1/32" = 1'-0"
140
0.03125
141
12.0
290
     0
  0
SCALE
  5
5C
102
{ACAD_REACTORS
330
47
102
}
330
47
100
AcDbScale
 70
     0
300
1/16" = 1'-0"
140
0.0625
141
12.0
290
     0
  0
SCALE
  5
5D
102
{ACAD_REACTORS
330
47
102
}
330
47
100
AcDbScale
 70
     0
300
3/32" = 1'-0"
140
0.09375
141
12.0
290
     0
  0
SCALE
  5
5E
102
{ACAD_REACTORS
330
47
102
}
330
47
100
AcDbScale
 70
     0
300
1/8" = 1'-0"
140
0.125
141
12.0
290
     0
  0
SCALE
  5
5F
102
{ACAD_REACTORS
330
47
102
}
330
47
100
AcDbScale
 70
     0
300
3/16" = 1'-0"
140
0.1875
141
12.0
290
     0
  0
SCALE
  5
60
102
{ACAD_REACTORS
330
47
102
}
330
47
100
AcDbScale
 70
     0
300
1/4" = 1'-0"
140
0.25
141
12.0
290
     0
  0
SCALE
  5
61
102
{ACAD_REACTORS
330
47
102
}
330
47
100
AcDbScale
 70
     0
300
3/8" = 1'-0"
140
0.375
141
12.0
290
     0
  0
SCALE
  5
62
102
{ACAD_REACTORS
330
47
102
}
330
47
100
AcDbScale
 70
     0
300
1/2" = 1'-0"
140
0.5
141
12.0
290
     0
  0
SCALE
  5
63
102
{ACAD_REACTORS
330
47
102
}
330
47
100
AcDbScale
 70
     0
300
3/4" = 1'-0"
140
0.75
141
12.0
290
     0
  0
SCALE
  5
64
102
{ACAD_REACTORS
330
47
102
}
330
47
100
AcDbScale
 70
     0
300
1" = 1'-0"
140
1.0
141
12.0
290
     0
  0
SCALE
  5
65
102
{ACAD_REACTORS
330
47
102
}
330
47
100
AcDbScale
 70
     0
300
1-1/2" = 1'-0"
140
1.5
141
12.0
290
     0
  0
SCALE
  5
66
102
{ACAD_REACTORS
330
47
102
}
330
47
100
AcDbScale
 70
     0
300
3" = 1'-0"
140
3.0
141
12.0
290
     0
  0
SCALE
  5
67
102
{ACAD_REACTORS
330
47
102
}
330
47
100
AcDbScale
 70
     0
300
6" = 1'-0"
140
6.0
141
12.0
290
     0
  0
SCALE
  5
68
102
{ACAD_REACTORS
330
47
102
}
330
47
100
AcDbScale
 70
     0
300
1'-0" = 1'-0"
140
12.0
141
12.0
290
     0
  0
ENDSEC
  0
EOF
