  0
SECTION
  2
HEADER
  9
$ACADVER
  1
AC1015
  9
$ACADMAINTVER
 70
     6
  9
$DWGCODEPAGE
  3
ANSI_1252
  9
$INSBASE
 10
0.0
 20
0.0
 30
0.0
  9
$EXTMIN
 10
0.0
 20
0.0
 30
0.0
  9
$EXTMAX
 10
1189.0
 20
841.0
 30
0.0
  9
$LIMMIN
 10
0.0
 20
0.0
  9
$LIMMAX
 10
1189.0
 20
841.0
  9
$ORTHOMODE
 70
     0
  9
$REGENMODE
 70
     1
  9
$FILLMODE
 70
     1
  9
$QTEXTMODE
 70
     0
  9
$MIRRTEXT
 70
     1
  9
$LTSCALE
 40
1.0
  9
$ATTMODE
 70
     1
  9
$TEXTSIZE
 40
3.5
  9
$TRACEWID
 40
1.0
  9
$TEXTSTYLE
  7
Standard
  9
$CLAYER
  8
0
  9
$CELTYPE
  6
ByLayer
  9
$CECOLOR
 62
   256
  9
$CELTSCALE
 40
1.0
  9
$DISPSILH
 70
     0
  9
$DIMSCALE
 40
1.0
  9
$DIMASZ
 40
3.302
  9
$DIMEXO
 40
1.0
  9
$DIMDLI
 40
3.75
  9
$DIMRND
 40
0.0
  9
$DIMDLE
 40
0.0
  9
$DIMEXE
 40
1.0
  9
$DIMTP
 40
0.0
  9
$DIMTM
 40
0.0
  9
$DIMTXT
 40
3.5
  9
$DIMCEN
 40
2.5
  9
$DIMTSZ
 40
0.0
  9
$DIMTOL
 70
     0
  9
$DIMLIM
 70
     0
  9
$DIMTIH
 70
     1
  9
$DIMTOH
 70
     1
  9
$DIMSE1
 70
     0
  9
$DIMSE2
 70
     0
  9
$DIMTAD
 70
     1
  9
$DIMZIN
 70
     1
  9
$DIMBLK
  1

  9
$DIMASO
 70
     1
  9
$DIMSHO
 70
     1
  9
$DIMPOST
  1

  9
$DIMAPOST
  1

  9
$DIMALT
 70
     0
  9
$DIMALTD
 70
     3
  9
$DIMALTF
 40
0.0393700787
  9
$DIMLFAC
 40
0.5
  9
$DIMTOFL
 70
     1
  9
$DIMTVP
 40
0.0
  9
$DIMTIX
 70
     0
  9
$DIMSOXD
 70
     0
  9
$DIMSAH
 70
     0
  9
$DIMBLK1
  1

  9
$DIMBLK2
  1

  9
$DIMSTYLE
  2
ISO-25
  9
$DIMCLRD
 70
     0
  9
$DIMCLRE
 70
     0
  9
$DIMCLRT
 70
     0
  9
$DIMTFAC
 40
1.0
  9
$DIMGAP
 40
1.524
  9
$DIMJUST
 70
     0
  9
$DIMSD1
 70
     0
  9
$DIMSD2
 70
     0
  9
$DIMTOLJ
 70
     0
  9
$DIMTZIN
 70
     1
  9
$DIMALTZ
 70
     0
  9
$DIMALTTZ
 70
     0
  9
$DIMUPT
 70
     0
  9
$DIMDEC
 70
     2
  9
$DIMTDEC
 70
     2
  9
$DIMALTU
 70
     2
  9
$DIMALTTD
 70
     3
  9
$DIMTXSTY
  7
Standard
  9
$DIMAUNIT
 70
     0
  9
$DIMADEC
 70
     2
  9
$DIMALTRND
 40
0.0
  9
$DIMAZIN
 70
     0
  9
$DIMDSEP
 70
    44
  9
$DIMATFIT
 70
     3
  9
$DIMFRAC
 70
     0
  9
$DIMLDRBLK
  1

  9
$DIMLUNIT
 70
     2
  9
$DIMLWD
 70
    -2
  9
$DIMLWE
 70
    -2
  9
$DIMTMOVE
 70
     0
  9
$LUNITS
 70
     2
  9
$LUPREC
 70
     2
  9
$SKETCHINC
 40
1.0
  9
$FILLETRAD
 40
10.0
  9
$AUNITS
 70
     0
  9
$AUPREC
 70
     2
  9
$MENU
  1
.
  9
$ELEVATION
 40
0.0
  9
$PELEVATION
 40
0.0
  9
$THICKNESS
 40
0.0
  9
$LIMCHECK
 70
     0
  9
$CHAMFERA
 40
0.0
  9
$CHAMFERB
 40
0.0
  9
$CHAMFERC
 40
0.0
  9
$CHAMFERD
 40
0.0
  9
$SKPOLY
 70
     0
  9
$TDCREATE
 40
2460383.532659329
  9
$TDUCREATE
 40
2460383.303492662
  9
$TDUPDATE
 40
2460383.532659907
  9
$TDUUPDATE
 40
2460383.303493241
  9
$TDINDWG
 40
0.0000000116
  9
$TDUSRTIMER
 40
0.0000000116
  9
$USRTIMER
 70
     1
  9
$ANGBASE
 50
0.0
  9
$ANGDIR
 70
     0
  9
$PDMODE
 70
     0
  9
$PDSIZE
 40
-1.0
  9
$PLINEWID
 40
0.0
  9
$SPLFRAME
 70
     0
  9
$SPLINETYPE
 70
     6
  9
$SPLINESEGS
 70
     8
  9
$HANDSEED
  5
235
  9
$SURFTAB1
 70
     6
  9
$SURFTAB2
 70
     6
  9
$SURFTYPE
 70
     6
  9
$SURFU
 70
     6
  9
$SURFV
 70
     6
  9
$UCSBASE
  2

  9
$UCSNAME
  2

  9
$UCSORG
 10
0.0
 20
0.0
 30
0.0
  9
$UCSXDIR
 10
1.0
 20
0.0
 30
0.0
  9
$UCSYDIR
 10
0.0
 20
1.0
 30
0.0
  9
$UCSORTHOREF
  2

  9
$UCSORTHOVIEW
 70
     0
  9
$UCSORGTOP
 10
0.0
 20
0.0
 30
0.0
  9
$UCSORGBOTTOM
 10
0.0
 20
0.0
 30
0.0
  9
$UCSORGLEFT
 10
0.0
 20
0.0
 30
0.0
  9
$UCSORGRIGHT
 10
0.0
 20
0.0
 30
0.0
  9
$UCSORGFRONT
 10
0.0
 20
0.0
 30
0.0
  9
$UCSORGBACK
 10
0.0
 20
0.0
 30
0.0
  9
$PUCSBASE
  2

  9
$PUCSNAME
  2

  9
$PUCSORG
 10
0.0
 20
0.0
 30
0.0
  9
$PUCSXDIR
 10
1.0
 20
0.0
 30
0.0
  9
$PUCSYDIR
 10
0.0
 20
1.0
 30
0.0
  9
$PUCSORTHOREF
  2

  9
$PUCSORTHOVIEW
 70
     0
  9
$PUCSORGTOP
 10
0.0
 20
0.0
 30
0.0
  9
$PUCSORGBOTTOM
 10
0.0
 20
0.0
 30
0.0
  9
$PUCSORGLEFT
 10
0.0
 20
0.0
 30
0.0
  9
$PUCSORGRIGHT
 10
0.0
 20
0.0
 30
0.0
  9
$PUCSORGFRONT
 10
0.0
 20
0.0
 30
0.0
  9
$PUCSORGBACK
 10
0.0
 20
0.0
 30
0.0
  9
$USERI1
 70
     0
  9
$USERI2
 70
     0
  9
$USERI3
 70
     0
  9
$USERI4
 70
     0
  9
$USERI5
 70
     0
  9
$USERR1
 40
0.0
  9
$USERR2
 40
0.0
  9
$USERR3
 40
0.0
  9
$USERR4
 40
0.0
  9
$USERR5
 40
0.0
  9
$WORLDVIEW
 70
     1
  9
$SHADEDGE
 70
     3
  9
$SHADEDIF
 70
    70
  9
$TILEMODE
 70
     1
  9
$MAXACTVP
 70
    64
  9
$PINSBASE
 10
0.0
 20
0.0
 30
0.0
  9
$PLIMCHECK
 70
     0
  9
$PEXTMIN
 10
1.0000000000E+20
 20
1.0000000000E+20
 30
1.0000000000E+20
  9
$PEXTMAX
 10
-1.0000000000E+20
 20
-1.0000000000E+20
 30
-1.0000000000E+20
  9
$PLIMMIN
 10
0.0
 20
0.0
  9
$PLIMMAX
 10
420.0
 20
297.0
  9
$UNITMODE
 70
     0
  9
$VISRETAIN
 70
     1
  9
$PLINEGEN
 70
     0
  9
$PSLTSCALE
 70
     1
  9
$TREEDEPTH
 70
  3020
  9
$CMLSTYLE
  2
Standard
  9
$CMLJUST
 70
     0
  9
$CMLSCALE
 40
20.0
  9
$PROXYGRAPHICS
 70
     1
  9
$MEASUREMENT
 70
     1
  9
$CELWEIGHT
370
    -1
  9
$ENDCAPS
280
     0
  9
$JOINSTYLE
280
     0
  9
$LWDISPLAY
290
     1
  9
$INSUNITS
 70
     4
  9
$HYPERLINKBASE
  1

  9
$STYLESHEET
  1

  9
$XEDIT
290
     1
  9
$CEPSNTYPE
380
     0
  9
$PSTYLEMODE
290
     1
  9
$FINGERPRINTGUID
  2
{7bb07c4b-63e4-4bc9-9d22-01ccde2d6656}
  9
$VERSIONGUID
  2
{FAEB1C32-E019-11D5-929B-00C0DF256EC4}
  9
$EXTNAMES
290
     1
  9
$PSVPSCALE
 40
0.0
  9
$OLESTARTUP
290
     0
  0
ENDSEC
  0
SECTION
  2
CLASSES
  0
CLASS
  1
ACDBDICTIONARYWDFLT
  2
AcDbDictionaryWithDefault
  3
ObjectDBX Classes
 90
        0
280
     0
281
     0
  0
CLASS
  1
VISUALSTYLE
  2
AcDbVisualStyle
  3
ObjectDBX Classes
 90
     4095
280
     0
281
     0
  0
CLASS
  1
MATERIAL
  2
AcDbMaterial
  3
ObjectDBX Classes
 90
     1153
280
     0
281
     0
  0
CLASS
  1
SCALE
  2
AcDbScale
  3
ObjectDBX Classes
 90
     1153
280
     0
281
     0
  0
CLASS
  1
TABLESTYLE
  2
AcDbTableStyle
  3
ObjectDBX Classes
 90
     4095
280
     0
281
     0
  0
CLASS
  1
MLEADERSTYLE
  2
AcDbMLeaderStyle
  3
ACDB_MLEADERSTYLE_CLASS
 90
     4095
280
     0
281
     0
  0
CLASS
  1
SUN
  2
AcDbSun
  3
SCENEOE
 90
     1153
280
     0
281
     0
  0
CLASS
  1
ACDBPLACEHOLDER
  2
AcDbPlaceHolder
  3
ObjectDBX Classes
 90
        0
280
     0
281
     0
  0
CLASS
  1
LAYOUT
  2
AcDbLayout
  3
ObjectDBX Classes
 90
        0
280
     0
281
     0
  0
ENDSEC
  0
SECTION
  2
TABLES
  0
TABLE
  2
VPORT
  5
8
330
0
100
AcDbSymbolTable
 70
     1
  0
VPORT
  5
29
330
8
100
AcDbSymbolTableRecord
100
AcDbViewportTableRecord
  2
*Active
 70
     0
 10
0.0
 20
0.0
 11
1.0
 21
1.0
 12
594.5
 22
420.5
 13
0.0
 23
0.0
 14
10.0
 24
10.0
 15
10.0
 25
10.0
 16
0.0
 26
0.0
 36
1.0
 17
0.0
 27
0.0
 37
0.0
 40
841.0
 41
1.4137931034
 42
50.0
 43
0.0
 44
0.0
 50
0.0
 51
0.0
 71
     0
 72
  2000
 73
     1
 74
     3
 75
     0
 76
     0
 77
     0
 78
     0
281
     0
 65
     1
110
0.0
120
0.0
130
0.0
111
1.0
121
0.0
131
0.0
112
0.0
122
1.0
132
0.0
 79
     0
146
0.0
  0
ENDTAB
  0
TABLE
  2
LTYPE
  5
5
330
0
100
AcDbSymbolTable
 70
     6
  0
LTYPE
  5
14
330
5
100
AcDbSymbolTableRecord
100
AcDbLinetypeTableRecord
  2
ByBlock
 70
     0
  3

 72
    65
 73
     0
 40
0.0
  0
LTYPE
  5
15
330
5
100
AcDbSymbolTableRecord
100
AcDbLinetypeTableRecord
  2
ByLayer
 70
     0
  3

 72
    65
 73
     0
 40
0.0
  0
LTYPE
  5
16
330
5
100
AcDbSymbolTableRecord
100
AcDbLinetypeTableRecord
  2
Continuous
 70
     0
  3
Solid line
 72
    65
 73
     0
 40
0.0
  0
LTYPE
  5
6E
330
5
100
AcDbSymbolTableRecord
100
AcDbLinetypeTableRecord
  2
HIDDEN
 70
     0
  3
Hidden __ __ __ __ __ __ __ __ __ __ __ __ __ __
 72
    65
 73
     2
 40
1.905
 49
1.27
 74
     0
 49
-0.635
 74
     0
  0
LTYPE
  5
6F
330
5
100
AcDbSymbolTableRecord
100
AcDbLinetypeTableRecord
  2
PHANTOM
 70
     0
  3
Phantom ______  __  __  ______  __  __  ______
 72
    65
 73
     6
 40
12.7
 49
6.35
 74
     0
 49
-1.27
 74
     0
 49
1.27
 74
     0
 49
-1.27
 74
     0
 49
1.27
 74
     0
 49
-1.27
 74
     0
  0
LTYPE
  5
70
330
5
100
AcDbSymbolTableRecord
100
AcDbLinetypeTableRecord
  2
CENTER
 70
     0
  3
Center ____ _ ____ _ ____ _ ____ _ ____ _ ____
 72
    65
 73
     4
 40
10.16
 49
6.35
 74
     0
 49
-1.27
 74
     0
 49
1.27
 74
     0
 49
-1.27
 74
     0
  0
LTYPE
  5
71
330
5
100
AcDbSymbolTableRecord
100
AcDbLinetypeTableRecord
  2
CENTERX2
 70
     0
  3
Center (2x) ________  __  ________  __  _____
 72
    65
 73
     4
 40
20.32
 49
12.7
 74
     0
 49
-2.54
 74
     0
 49
2.54
 74
     0
 49
-2.54
 74
     0
  0
LTYPE
  5
72
330
5
100
AcDbSymbolTableRecord
100
AcDbLinetypeTableRecord
  2
DOT2
 70
     0
  3
Dot (.5x) ........................................
 72
    65
 73
     2
 40
0.635
 49
0.0
 74
     0
 49
-0.635
 74
     0
  0
ENDTAB
  0
TABLE
  2
LAYER
  5
2
330
0
100
AcDbSymbolTable
 70
     1
  0
LAYER
  5
10
330
2
100
AcDbSymbolTableRecord
100
AcDbLayerTableRecord
  2
0
 70
     0
 62
     7
  6
Continuous
370
    -3
390
F
  0
ENDTAB
  0
TABLE
  2
STYLE
  5
3
330
0
100
AcDbSymbolTable
 70
     1
  0
STYLE
  5
11
330
3
100
AcDbSymbolTableRecord
100
AcDbTextStyleTableRecord
  2
Standard
 70
     0
 40
0.0
 41
1.0
 50
0.0
 71
     0
 42
3.5
  3
txt
  4

  0
ENDTAB
  0
TABLE
  2
VIEW
  5
6
330
0
100
AcDbSymbolTable
 70
     0
  0
ENDTAB
  0
TABLE
  2
UCS
  5
7
330
0
100
AcDbSymbolTable
 70
     0
  0
ENDTAB
  0
TABLE
  2
APPID
  5
9
330
0
100
AcDbSymbolTable
 70
     1
  0
APPID
  5
12
330
9
100
AcDbSymbolTableRecord
100
AcDbRegAppTableRecord
  2
ACAD
 70
     0
  0
ENDTAB
  0
TABLE
  2
DIMSTYLE
  5
A
330
0
100
AcDbSymbolTable
 70
     1
100
AcDbDimStyleTable
  0
DIMSTYLE
105
27
330
A
100
AcDbSymbolTableRecord
100
AcDbDimStyleTableRecord
  2
ISO-25
 70
     0
 41
2.5
 42
0.625
 43
3.75
 44
1.25
 73
     0
 74
     0
 77
     1
 78
     8
140
2.5
141
2.5
143
0.0393700787
147
0.625
171
     3
172
     1
178
     0
271
     2
272
     2
274
     3
278
    44
283
     0
284
     8
340
11
  0
ENDTAB
  0
TABLE
  2
BLOCK_RECORD
  5
1
330
0
100
AcDbSymbolTable
 70
     1
  0
BLOCK_RECORD
  5
1F
330
1
100
AcDbSymbolTableRecord
100
AcDbBlockTableRecord
  2
*Model_Space
340
22
  0
BLOCK_RECORD
  5
1B
330
1
100
AcDbSymbolTableRecord
100
AcDbBlockTableRecord
  2
*Paper_Space
340
1E
  0
BLOCK_RECORD
  5
23
330
1
100
AcDbSymbolTableRecord
100
AcDbBlockTableRecord
  2
*Paper_Space0
340
26
  0
ENDTAB
  0
ENDSEC
  0
SECTION
  2
BLOCKS
  0
BLOCK
  5
20
330
1F
100
AcDbEntity
  8
0
100
AcDbBlockBegin
  2
*Model_Space
 70
     0
 10
0.0
 20
0.0
 30
0.0
  3
*Model_Space
  1

  0
ENDBLK
  5
21
330
1F
100
AcDbEntity
  8
0
100
AcDbBlockEnd
  0
BLOCK
  5
1C
330
1B
100
AcDbEntity
 67
     1
  8
0
100
AcDbBlockBegin
  2
*Paper_Space
 70
     0
 10
0.0
 20
0.0
 30
0.0
  3
*Paper_Space
  1

  0
ENDBLK
  5
1D
330
1B
100
AcDbEntity
 67
     1
  8
0
100
AcDbBlockEnd
  0
BLOCK
  5
24
330
23
100
AcDbEntity
  8
0
100
AcDbBlockBegin
  2
*Paper_Space0
 70
     0
 10
0.0
 20
0.0
 30
0.0
  3
*Paper_Space0
  1

  0
ENDBLK
  5
25
330
23
100
AcDbEntity
  8
0
100
AcDbBlockEnd
  0
ENDSEC
  0
SECTION
  2
ENTITIES
  0
SPLINE
  5
73
330
1F
100
AcDbEntity
  8
0
  6
Continuous
 62
     7
370
    25
100
AcDbSpline
210
0.0
220
0.0
230
1.0
 70
     8
 71
     3
 72
    17
 73
    13
 74
     0
 42
0.00000001
 43
0.00000001
 40
0.0
 40
0.0
 40
0.0
 40
0.0
 40
0.1327241040340337
 40
0.3908713991411993
 40
0.547753800767644
 40
0.6329474211063887
 40
0.6687143636001119
 40
0.7252760943336934
 40
0.7919058413987894
 40
0.872993869840187
 40
0.9640572040066465
 40
1.0
 40
1.0
 40
1.0
 40
1.0
 10
504.4584880296107
 20
524.899940711673
 30
0.0
 10
504.3940760947773
 20
524.8953507106182
 30
0.0
 10
504.2043834743377
 20
524.8818331951118
 30
0.0
 10
504.0132210382429
 20
524.8660268584566
 30
0.0
 10
503.9099932979764
 20
524.8533994619269
 30
0.0
 10
503.8462367321292
 20
524.8446957755368
 30
0.0
 10
503.7564159370162
 20
524.8175766759556
 30
0.0
 10
503.6648339526153
 20
524.7723450460007
 30
0.0
 10
503.5624844209165
 20
524.6865874518749
 30
0.0
 10
503.4780385572978
 20
524.555330588132
 30
0.0
 10
503.4349049012284
 20
524.4204610553304
 30
0.0
 10
503.4479148545433
 20
524.338439549664
 30
0.0
 10
503.4515966775962
 20
524.3152274240641
 30
0.0
  0
SPLINE
  5
74
330
1F
100
AcDbEntity
  8
0
  6
Continuous
 62
     7
370
    25
100
AcDbSpline
210
0.0
220
0.0
230
1.0
 70
     8
 71
     3
 72
    18
 73
    14
 74
     0
 42
0.00000001
 43
0.00000001
 40
0.0
 40
0.0
 40
0.0
 40
0.0
 40
0.052530353664
 40
0.1335437057169784
 40
0.2005801141366309
 40
0.2575066052731381
 40
0.3042528298688151
 40
0.3387598625749946
 40
0.368207167444368
 40
0.4086632012354506
 40
0.4984775514501233
 40
0.7642531895075139
 40
1.0
 40
1.0
 40
1.0
 40
1.0
 10
503.4535308651623
 20
518.8021602250102
 30
0.0
 10
503.4537997262046
 20
518.7689270790171
 30
0.0
 10
503.4544832300727
 20
518.6844411169209
 30
0.0
 10
503.5137896794457
 20
518.5685139165353
 30
0.0
 10
503.5954553894054
 20
518.4692496210569
 30
0.0
 10
503.6814124074649
 20
518.4055715378516
 30
0.0
 10
503.757187425436
 20
518.3692265367641
 30
0.0
 10
503.8122800408938
 20
518.3516305973534
 30
0.0
 10
503.8502279639496
 20
518.3426823199682
 30
0.0
 10
503.8903576097109
 20
518.3354236503435
 30
0.0
 10
503.9657520552405
 20
518.3255700880444
 30
0.0
 10
504.1216459668539
 20
518.3108175792054
 30
0.0
 10
504.3507805116846
 20
518.2942529970552
 30
0.0
 10
504.4584880296106
 20
518.2864666109815
 30
0.0
  0
LINE
  5
75
330
1F
100
AcDbEntity
  8
0
  6
Continuous
 62
     7
370
    25
100
AcDbLine
 10
504.4584880296
 20
518.286466611
 30
0.0
 11
507.9418087205
 21
518.0442990826
 31
0.0
  0
LINE
  5
76
330
1F
100
AcDbEntity
  8
0
  6
Continuous
 62
     7
370
    25
100
AcDbLine
 10
507.9418087205
 20
525.1421082401
 30
0.0
 11
504.4584880296
 21
524.8999407117
 31
0.0
  0
ARC
  5
77
330
1F
100
AcDbEntity
  8
0
  6
Continuous
 62
     7
370
    25
100
AcDbCircle
 10
560.8760297483
 20
521.5932036613
 30
0.0
 40
9.141196303514041
100
AcDbArc
 50
295.4997205711
 51
0.0
  0
ARC
  5
78
330
1F
100
AcDbEntity
  8
0
  6
Continuous
 62
     7
370
    25
100
AcDbCircle
 10
560.8760297483
 20
521.5932036613
 30
0.0
 40
9.141196303513993
100
AcDbArc
 50
0.0
 51
64.5000280594
  0
SPLINE
  5
79
330
1F
100
AcDbEntity
  8
0
  6
Continuous
 62
     7
370
    25
100
AcDbSpline
210
0.0
220
0.0
230
1.0
 70
     8
 71
     3
 72
    18
 73
    14
 74
     0
 42
0.00000001
 43
0.00000001
 40
0.0
 40
0.0
 40
0.0
 40
0.0
 40
0.0525303536639937
 40
0.1335437057169701
 40
0.2005801141366232
 40
0.2575066052731302
 40
0.3042528298688013
 40
0.3387598625749866
 40
0.3682071674443633
 40
0.4086632012354464
 40
0.4984775514501305
 40
0.7642531895075109
 40
0.9999999999999999
 40
0.9999999999999999
 40
0.9999999999999999
 40
0.9999999999999999
 10
719.8985286314054
 20
524.3842470976442
 30
0.0
 10
719.898259770363
 20
524.4174802436373
 30
0.0
 10
719.8975762664951
 20
524.5019662057335
 30
0.0
 10
719.8382698171218
 20
524.6178934061192
 30
0.0
 10
719.7566041071623
 20
524.7171577015976
 30
0.0
 10
719.6706470891027
 20
524.7808357848029
 30
0.0
 10
719.5948720711317
 20
524.8171807858905
 30
0.0
 10
719.5397794556739
 20
524.8347767253011
 30
0.0
 10
719.5018315326181
 20
524.8437250026863
 30
0.0
 10
719.4617018868569
 20
524.850983672311
 30
0.0
 10
719.3863074413272
 20
524.8608372346101
 30
0.0
 10
719.2304135297137
 20
524.875589743449
 30
0.0
 10
719.0012789848831
 20
524.8921543255992
 30
0.0
 10
718.893571466957
 20
524.8999407116729
 30
0.0
  0
SPLINE
  5
7A
330
1F
100
AcDbEntity
  8
0
  6
Continuous
 62
     7
370
    25
100
AcDbSpline
210
0.0
220
0.0
230
1.0
 70
     8
 71
     3
 72
    17
 73
    13
 74
     0
 42
0.00000001
 43
0.00000001
 40
0.0
 40
0.0
 40
0.0
 40
0.0
 40
0.1327241040340371
 40
0.3908713991412174
 40
0.547753800767641
 40
0.6329474211063784
 40
0.6687143636001084
 40
0.7252760943336922
 40
0.7919058413988048
 40
0.8729938698402047
 40
0.96405720400666
 40
1.0
 40
1.0
 40
1.0
 40
1.0
 10
718.893571466957
 20
518.2864666109814
 30
0.0
 10
718.9579834017906
 20
518.2910566120363
 30
0.0
 10
719.1476760222299
 20
518.3045741275428
 30
0.0
 10
719.3388384583249
 20
518.3203804641978
 30
0.0
 10
719.4420661985913
 20
518.3330078607275
 30
0.0
 10
719.5058227644384
 20
518.3417115471176
 30
0.0
 10
719.5956435595514
 20
518.3688306466988
 30
0.0
 10
719.6872255439524
 20
518.4140622766537
 30
0.0
 10
719.7895750756511
 20
518.4998198707796
 30
0.0
 10
719.87402093927
 20
518.6310767345225
 30
0.0
 10
719.9171545953392
 20
518.7659462673241
 30
0.0
 10
719.9041446420243
 20
518.8479677729905
 30
0.0
 10
719.9004628189715
 20
518.8711798985903
 30
0.0
  0
LINE
  5
7B
330
1F
100
AcDbEntity
  8
0
  6
Continuous
 62
     7
370
    25
100
AcDbLine
 10
718.893571467
 20
524.8999407117
 30
0.0
 11
715.4102507761
 21
525.1421082401
 31
0.0
  0
LINE
  5
7C
330
1F
100
AcDbEntity
  8
0
  6
Continuous
 62
     7
370
    25
100
AcDbLine
 10
715.4102507761
 20
518.0442990826
 30
0.0
 11
718.893571467
 21
518.286466611
 31
0.0
  0
ARC
  5
7D
330
1F
100
AcDbEntity
  8
0
  6
Continuous
 62
     7
370
    25
100
AcDbCircle
 10
670.5850449535
 20
518.6213091855
 30
0.0
 40
8.999995138922998
100
AcDbArc
 50
257.1419190681
 51
270.0
  0
ARC
  5
7E
330
1F
100
AcDbEntity
  8
0
  6
Continuous
 62
     7
370
    25
100
AcDbCircle
 10
670.5850449535
 20
518.6213091855
 30
0.0
 40
8.999995138923012
100
AcDbArc
 50
270.0
 51
305.1719294169
  0
LWPOLYLINE
  5
7F
330
1F
100
AcDbEntity
  8
0
  6
Continuous
 62
     7
370
    25
100
AcDbPolyline
 90
        4
 70
   128
 43
0.0
 10
669.1821538086
 20
499.7160115647
 10
630.6298602294
 20
499.7159786501
 10
592.0775664092
 20
499.7159786501
 10
554.1699056913
 20
499.7160115647
  0
LINE
  5
80
330
1F
100
AcDbEntity
  8
0
  6
Continuous
 62
     7
370
    25
100
AcDbLine
 10
554.1699056913
 20
499.7160115647
 30
0.0
 11
554.1760297534
 21
502.6840485371
 31
0.0
  0
LWPOLYLINE
  5
81
330
1F
100
AcDbEntity
  8
0
  6
Continuous
 62
     7
370
    25
100
AcDbPolyline
 90
        3
 70
   128
 43
0.0
 10
554.1760297534
 20
502.6840485371
 10
592.0775664092
 20
502.6840086207
 10
669.176029746
 20
502.6840485371
  0
LINE
  5
82
330
1F
100
AcDbEntity
  8
0
  6
Continuous
 62
     7
370
    25
100
AcDbLine
 10
669.1821538086
 20
499.7160115647
 30
0.0
 11
669.176029746
 21
502.6840485371
 31
0.0
  0
LINE
  5
83
330
1F
100
AcDbEntity
  8
0
  6
Continuous
 62
     7
370
    25
100
AcDbLine
 10
669.1760297477
 20
540.5023587856
 30
0.0
 11
669.1821538105
 21
543.4703957579
 31
0.0
  0
LINE
  5
84
330
1F
100
AcDbEntity
  8
0
  6
Continuous
 62
     7
370
    25
100
AcDbLine
 10
554.1760297489
 20
540.5023587856
 30
0.0
 11
554.1699056861
 21
543.4703957579
 31
0.0
  0
LWPOLYLINE
  5
85
330
1F
100
AcDbEntity
  8
0
  6
Continuous
 62
     7
370
    25
100
AcDbPolyline
 90
        3
 70
   128
 43
0.0
 10
669.1760297477
 20
540.5023587856
 10
631.274493091
 20
540.5023987019
 10
554.1760297489
 20
540.5023587856
  0
LWPOLYLINE
  5
86
330
1F
100
AcDbEntity
  8
0
  6
Continuous
 62
     7
370
    25
100
AcDbPolyline
 90
        4
 70
   128
 43
0.0
 10
554.1699056861
 20
543.4703957579
 10
592.722199268
 20
543.4704286726
 10
631.274493091
 20
543.4704286726
 10
669.1821538105
 20
543.4703957579
  0
ARC
  5
87
330
1F
100
AcDbEntity
  8
0
  6
Continuous
 62
     7
370
    25
100
AcDbCircle
 10
668.8778750053
 20
521.4032958206
 30
0.0
 40
25.21029787871347
100
AcDbArc
 50
269.7685342994
 51
349.3677151812
  0
ARC
  5
88
330
1F
100
AcDbEntity
  8
0
  6
Continuous
 62
     7
370
    25
100
AcDbCircle
 10
668.8358085746
 20
521.7322186399
 30
0.0
 40
25.26105575306838
100
AcDbArc
 50
10.7318077233
 51
90.1355872726
  0
LINE
  5
89
330
1F
100
AcDbEntity
  8
0
  6
Continuous
 62
     7
370
    25
100
AcDbLine
 10
554.5760297483
 20
496.1932036613
 30
0.0
 11
668.7760297483
 21
496.1932036613
 31
0.0
  0
ARC
  5
8A
330
1F
100
AcDbEntity
  8
0
  6
Continuous
 62
     7
370
    25
100
AcDbCircle
 10
554.4821500833
 20
521.7682425218
 30
0.0
 40
25.22513583471737
100
AcDbArc
 50
89.7867634475
 51
169.3402814754
  0
ARC
  5
8B
330
1F
100
AcDbEntity
  8
0
  6
Continuous
 62
     7
370
    25
100
AcDbCircle
 10
554.5079539686
 20
521.4493784722
 30
0.0
 40
25.25626655682454
100
AcDbArc
 50
190.7221405913
 51
270.1544353192
  0
LINE
  5
8C
330
1F
100
AcDbEntity
  8
0
  6
Continuous
 62
     7
370
    25
100
AcDbLine
 10
668.7760297483
 20
546.9932036613
 30
0.0
 11
554.5760297483
 21
546.9932036613
 31
0.0
  0
CIRCLE
  5
8D
330
1F
100
AcDbEntity
  8
0
  6
Continuous
 62
     7
370
    25
100
AcDbCircle
 10
611.6760297483
 20
521.5932036613
 30
0.0
 40
11.75
  0
SPLINE
  5
8E
330
1F
100
AcDbEntity
  8
0
  6
Continuous
 62
     7
370
    25
100
AcDbSpline
210
0.0
220
0.0
230
1.0
 70
     8
 71
     3
 72
   104
 73
   100
 74
     0
 42
0.00000001
 43
0.00000001
 40
0.0
 40
0.0
 40
0.0
 40
0.0
 40
0.015625
 40
0.015625
 40
0.03125
 40
0.03125
 40
0.0625000000000001
 40
0.0625000000000001
 40
0.0781250000000001
 40
0.0781250000000001
 40
0.0937500000000001
 40
0.0937500000000001
 40
0.1250000000000002
 40
0.1250000000000002
 40
0.1406250000000002
 40
0.1406250000000002
 40
0.1562500000000002
 40
0.1562500000000002
 40
0.1718750000000002
 40
0.1718750000000002
 40
0.1875000000000002
 40
0.1875000000000002
 40
0.2187500000000002
 40
0.2187500000000002
 40
0.2343750000000001
 40
0.2343750000000001
 40
0.2500000000000001
 40
0.2656250000000001
 40
0.2656250000000001
 40
0.2812500000000001
 40
0.2812500000000001
 40
0.3125
 40
0.3125
 40
0.3281249999999999
 40
0.3281249999999999
 40
0.3437499999999999
 40
0.3437499999999999
 40
0.3593749999999999
 40
0.3593749999999999
 40
0.3749999999999998
 40
0.3749999999999998
 40
0.3906249999999998
 40
0.3906249999999998
 40
0.4062499999999997
 40
0.4062499999999997
 40
0.4374999999999997
 40
0.4374999999999997
 40
0.4531249999999997
 40
0.4531249999999997
 40
0.4687499999999996
 40
0.4687499999999996
 40
0.4999999999999996
 40
0.4999999999999996
 40
0.5312499999999996
 40
0.5312499999999996
 40
0.5468749999999996
 40
0.5468749999999996
 40
0.5624999999999996
 40
0.5624999999999996
 40
0.5937499999999997
 40
0.5937499999999997
 40
0.6093749999999997
 40
0.6093749999999997
 40
0.6249999999999997
 40
0.6406249999999997
 40
0.6406249999999997
 40
0.6562499999999997
 40
0.6562499999999997
 40
0.6874999999999997
 40
0.6874999999999997
 40
0.7031249999999998
 40
0.7031249999999998
 40
0.7187499999999998
 40
0.7187499999999998
 40
0.7499999999999998
 40
0.7499999999999998
 40
0.7812499999999998
 40
0.7812499999999998
 40
0.7968749999999998
 40
0.7968749999999998
 40
0.8124999999999998
 40
0.8124999999999998
 40
0.8437499999999999
 40
0.8437499999999999
 40
0.8593749999999999
 40
0.8593749999999999
 40
0.8749999999999999
 40
0.8749999999999999
 40
0.8906249999999999
 40
0.8906249999999999
 40
0.9062499999999999
 40
0.9062499999999999
 40
0.9374999999999999
 40
0.9374999999999999
 40
0.96875
 40
0.96875
 40
0.984375
 40
0.984375
 40
1.0
 40
1.0
 40
1.0
 40
1.0
 10
623.1278654702933
 20
518.8001042419293
 30
0.0
 10
623.0287805265068
 20
518.3773509809728
 30
0.0
 10
622.9069497039877
 20
517.9622268340131
 30
0.0
 10
622.6183697167992
 20
517.147044438693
 30
0.0
 10
622.4506278141092
 20
516.7450803754034
 30
0.0
 10
621.8867079814572
 20
515.5785901113263
 30
0.0
 10
621.432295117848
 20
514.8538728650487
 30
0.0
 10
620.6356001119201
 20
513.8444411161673
 30
0.0
 10
620.3499448573446
 20
513.5202721180535
 30
0.0
 10
619.7413918237484
 20
512.902338839926
 30
0.0
 10
619.4230713545313
 20
512.6128263453767
 30
0.0
 10
618.4275155076302
 20
511.8005215962035
 30
0.0
 10
617.7101566266855
 20
511.333309718642
 30
0.0
 10
616.5510113478189
 20
510.7476143169044
 30
0.0
 10
616.1536751455179
 20
510.5735374009682
 30
0.0
 10
615.3497081709937
 20
510.2719529197556
 30
0.0
 10
614.9412657149887
 20
510.1435106608181
 30
0.0
 10
614.1115610591172
 20
509.9309863349527
 30
0.0
 10
613.6902996202051
 20
509.8469016348616
 30
0.0
 10
612.8345985893394
 20
509.7243326475056
 30
0.0
 10
612.4011966972128
 20
509.6863443857405
 30
0.0
 10
611.1125804492214
 20
509.6435494947431
 30
0.0
 10
610.2586115278147
 20
509.7070357649072
 30
0.0
 10
608.9853883264846
 20
509.9414106549308
 30
0.0
 10
608.5616982117696
 20
510.0434746533504
 30
0.0
 10
607.7372750266999
 20
510.2898617378029
 30
0.0
 10
606.9305903238553
 20
510.5792325138298
 30
0.0
 10
606.1588443432696
 20
510.9532664139857
 30
0.0
 10
605.4049113045443
 20
511.3704644328765
 30
0.0
 10
605.0353073447733
 20
511.601988843916
 30
0.0
 10
603.9787303668701
 20
512.3464555010295
 30
0.0
 10
603.3360986695777
 20
512.9120218606428
 30
0.0
 10
602.4636769718725
 20
513.863003326526
 30
0.0
 10
602.187038008657
 20
514.1989977070878
 30
0.0
 10
601.6739629994318
 20
514.8958344390064
 30
0.0
 10
601.4370227659114
 20
515.2568264063394
 30
0.0
 10
601.002204996706
 20
516.0038729566563
 30
0.0
 10
600.8036552259402
 20
516.3917522850109
 30
0.0
 10
600.4525414420697
 20
517.1793463989977
 30
0.0
 10
600.2992069569685
 20
517.5799614133958
 30
0.0
 10
600.0360185947429
 20
518.3945315324083
 30
0.0
 10
599.926165914719
 20
518.8084870043019
 30
0.0
 10
599.7504834535235
 20
519.6499044129323
 30
0.0
 10
599.684459968701
 20
520.0799674190807
 30
0.0
 10
599.557298601215
 20
521.3699627935422
 30
0.0
 10
599.5653231439422
 20
522.2263232026992
 30
0.0
 10
599.7124656607668
 20
523.5055579535626
 30
0.0
 10
599.7846539728581
 20
523.9327246028455
 30
0.0
 10
599.974734793506
 20
524.777771559205
 30
0.0
 10
600.0915448327596
 20
525.1917224866246
 30
0.0
 10
600.5052093289851
 20
526.4086745298472
 30
0.0
 10
600.8645828210075
 20
527.1870565991373
 30
0.0
 10
601.756932758734
 20
528.6754585199704
 30
0.0
 10
602.27496763771
 20
529.3601687708532
 30
0.0
 10
603.153205432254
 20
530.2980521257437
 30
0.0
 10
603.4630594294146
 20
530.5959166050154
 30
0.0
 10
604.1177620190919
 20
531.1614434558944
 30
0.0
 10
604.4609971606278
 20
531.4272985870622
 30
0.0
 10
605.5196650647364
 20
532.1615306194097
 30
0.0
 10
606.2703385018841
 20
532.5731252973975
 30
0.0
 10
607.4646294393806
 20
533.0720489535034
 30
0.0
 10
607.8750155008887
 20
533.2183668951623
 30
0.0
 10
608.6995726447192
 20
533.4640288961933
 30
0.0
 10
609.5325713368259
 20
533.6649117967298
 30
0.0
 10
610.3821849230767
 20
533.7776591707003
 30
0.0
 10
611.2402509023642
 20
533.8455698728244
 30
0.0
 10
611.6759444920359
 20
533.856849026062
 30
0.0
 10
612.969185265895
 20
533.8219798765582
 30
0.0
 10
613.8178341288317
 20
533.7093188720792
 30
0.0
 10
615.0707733731705
 20
533.4077495809383
 30
0.0
 10
615.487246979868
 20
533.2841291142349
 30
0.0
 10
616.3020946641321
 20
532.9944421135367
 30
0.0
 10
616.6987810586905
 20
532.829279008227
 30
0.0
 10
617.857551615808
 20
532.2745789240869
 30
0.0
 10
618.5889906232542
 20
531.8262614299813
 30
0.0
 10
619.9644626066905
 20
530.7673830214967
 30
0.0
 10
620.5845067926896
 20
530.1751557057381
 30
0.0
 10
621.417889248654
 20
529.1971494432078
 30
0.0
 10
621.6794168512552
 20
528.856061355612
 30
0.0
 10
622.1689630838619
 20
528.1428081249852
 30
0.0
 10
622.3954211053963
 20
527.7724571126017
 30
0.0
 10
623.0095151805675
 20
526.6399213141742
 30
0.0
 10
623.3375880084483
 20
525.8493747290823
 30
0.0
 10
623.7062632083179
 20
524.6096377468301
 30
0.0
 10
623.808414749028
 20
524.1859577772514
 30
0.0
 10
623.9661711944798
 20
523.3396719926824
 30
0.0
 10
624.0225900035518
 20
522.9148412369746
 30
0.0
 10
624.0913062867836
 20
522.0618639361264
 30
0.0
 10
624.1035543231534
 20
521.6337132713846
 30
0.0
 10
624.0835600636177
 20
520.7740707141204
 30
0.0
 10
624.051048130608
 20
520.340813376255
 30
0.0
 10
623.8859683090203
 20
519.0515142852175
 30
0.0
 10
623.6849334906102
 20
518.2023603723405
 30
0.0
 10
623.120930822932
 20
516.5838564629116
 30
0.0
 10
622.7579560369654
 20
515.8080024335742
 30
0.0
 10
622.0883958332766
 20
514.6958187338041
 30
0.0
 10
621.8452659446061
 20
514.3358915746641
 30
0.0
 10
621.3250221962319
 20
513.6459918015867
 30
0.0
 10
621.0471307919659
 20
513.314692695539
 30
0.0
 10
620.7512285246588
 20
512.9972297683188
 30
0.0
  0
ARC
  5
8F
330
1F
100
AcDbEntity
  8
0
  6
Continuous
 62
     7
370
    25
100
AcDbCircle
 10
611.6760297483
 20
521.5932036613
 30
0.0
 40
12.50000000000004
100
AcDbArc
 50
223.4465753578
 51
316.5534246422
  0
SPLINE
  5
90
330
1F
100
AcDbEntity
  8
0
  6
Continuous
 62
     7
370
    25
100
AcDbSpline
210
0.0
220
0.0
230
1.0
 70
     8
 71
     3
 72
    34
 73
    30
 74
     0
 42
0.00000001
 43
0.00000001
 40
0.0
 40
0.0
 40
0.0
 40
0.0
 40
0.0625
 40
0.0625
 40
0.125
 40
0.125
 40
0.1875
 40
0.1875
 40
0.2500000000000001
 40
0.2500000000000001
 40
0.3750000000000001
 40
0.3750000000000001
 40
0.4375000000000001
 40
0.4375000000000001
 40
0.5000000000000001
 40
0.5000000000000001
 40
0.5625000000000001
 40
0.5625000000000001
 40
0.625
 40
0.625
 40
0.6875
 40
0.6875
 40
0.75
 40
0.75
 40
0.875
 40
0.875
 40
0.9375
 40
0.9375
 40
1.0
 40
1.0
 40
1.0
 40
1.0
 10
602.6008309719081
 20
512.9972297683196
 30
0.0
 10
602.9872134046249
 20
512.609557294881
 30
0.0
 10
603.3966354984466
 20
512.2493162267863
 30
0.0
 10
604.2620600664727
 20
511.5843529715473
 30
0.0
 10
604.7184004795922
 20
511.2797980549263
 30
0.0
 10
605.6565216184857
 20
510.7390746408136
 30
0.0
 10
606.1407422123206
 20
510.5008669493672
 30
0.0
 10
607.1393049715134
 20
510.0883389485084
 30
0.0
 10
607.6555259969405
 20
509.9135209255904
 30
0.0
 10
609.2392732649721
 20
509.4925033141782
 30
0.0
 10
610.3099663673868
 20
509.3552169389804
 30
0.0
 10
611.9378570328904
 20
509.3601030373871
 30
0.0
 10
612.4869972342469
 20
509.3984699623029
 30
0.0
 10
613.5609363316897
 20
509.5471634930592
 30
0.0
 10
614.0892855800236
 20
509.6569376459512
 30
0.0
 10
615.128977282048
 20
509.9463786289846
 30
0.0
 10
615.6403218274396
 20
510.1260368639385
 30
0.0
 10
616.645303012318
 20
510.5581267672725
 30
0.0
 10
617.1287517515007
 20
510.8062989276099
 30
0.0
 10
618.0547117165818
 20
511.3622879320595
 30
0.0
 10
618.4979685110918
 20
511.6704343551172
 30
0.0
 10
619.3445830209204
 20
512.3477234926463
 30
0.0
 10
619.7502528649535
 20
512.7197837302913
 30
0.0
 10
620.8729812606146
 20
513.898723331525
 30
0.0
 10
621.5043309445282
 20
514.7739463453826
 30
0.0
 10
622.2714289501957
 20
516.2238839508125
 30
0.0
 10
622.4922819684433
 20
516.7223273086558
 30
0.0
 10
622.8629734623278
 20
517.74221670609
 30
0.0
 10
623.0133718488067
 20
518.2647128181735
 30
0.0
 10
623.1278654702932
 20
518.800104241929
 30
0.0
  0
LINE
  5
91
330
1F
100
AcDbEntity
  8
0
  6
Continuous
 62
     7
370
    25
100
AcDbLine
 10
602.6131143265
 20
513.0563103229
 30
0.0
 11
603.2724508211
 21
512.4332863572
 31
0.0
  0
ARC
  5
92
330
1F
100
AcDbEntity
  8
0
  6
Continuous
 62
     7
370
    25
100
AcDbCircle
 10
611.6280700886
 20
521.6154393707
 30
0.0
 40
12.48056820902134
100
AcDbArc
 50
339.129204501
 51
223.6720956208
  0
CIRCLE
  5
93
330
1F
100
AcDbEntity
  8
0
  6
Continuous
 62
     7
370
    25
100
AcDbCircle
 10
611.6760297483
 20
521.5932036613
 30
0.0
 40
11.04999999999995
  0
CIRCLE
  5
94
330
1F
100
AcDbEntity
  8
0
  6
Continuous
 62
     7
370
    25
100
AcDbCircle
 10
611.6760297483
 20
521.5932036613
 30
0.0
 40
10.30000000000001
  0
CIRCLE
  5
95
330
1F
100
AcDbEntity
  8
0
  6
Continuous
 62
     7
370
    25
100
AcDbCircle
 10
611.6760297483
 20
521.5932036613
 30
0.0
 40
13.0
  0
SPLINE
  5
96
330
1F
100
AcDbEntity
  8
0
  6
Continuous
 62
     7
370
    25
100
AcDbSpline
210
0.0
220
0.0
230
1.0
 70
     8
 71
     3
 72
   123
 73
   119
 74
     0
 42
0.00000001
 43
0.00000001
 40
0.0
 40
0.0
 40
0.0
 40
0.0
 40
0.03125
 40
0.03125
 40
0.0625000000000001
 40
0.0625000000000001
 40
0.0703125000000001
 40
0.0703125000000001
 40
0.0781250000000001
 40
0.0781250000000001
 40
0.0937500000000001
 40
0.0937500000000001
 40
0.1093750000000001
 40
0.1093750000000001
 40
0.1250000000000001
 40
0.1250000000000001
 40
0.1562500000000001
 40
0.1562500000000001
 40
0.1640625000000001
 40
0.1640625000000001
 40
0.171875
 40
0.171875
 40
0.1875
 40
0.1875
 40
0.2031249999999999
 40
0.2031249999999999
 40
0.2187499999999999
 40
0.2187499999999999
 40
0.2343749999999999
 40
0.2343749999999999
 40
0.2421874999999999
 40
0.2421874999999999
 40
0.2499999999999998
 40
0.2499999999999998
 40
0.2812499999999998
 40
0.2812499999999998
 40
0.2968749999999997
 40
0.2968749999999997
 40
0.3124999999999996
 40
0.3281249999999996
 40
0.3281249999999996
 40
0.3437499999999995
 40
0.3437499999999995
 40
0.3749999999999994
 40
0.3749999999999994
 40
0.3828124999999995
 40
0.3828124999999995
 40
0.3906249999999995
 40
0.3906249999999995
 40
0.4062499999999995
 40
0.4062499999999995
 40
0.4218749999999995
 40
0.4218749999999995
 40
0.4374999999999996
 40
0.4374999999999996
 40
0.4531249999999996
 40
0.4531249999999996
 40
0.4687499999999996
 40
0.4687499999999996
 40
0.4999999999999996
 40
0.4999999999999996
 40
0.5156249999999997
 40
0.5156249999999997
 40
0.5312499999999997
 40
0.5312499999999997
 40
0.5468749999999997
 40
0.5468749999999997
 40
0.5624999999999998
 40
0.5624999999999998
 40
0.5937499999999997
 40
0.5937499999999997
 40
0.6093749999999997
 40
0.6093749999999997
 40
0.6249999999999997
 40
0.6249999999999997
 40
0.6406249999999997
 40
0.6406249999999997
 40
0.6484374999999997
 40
0.6484374999999997
 40
0.6562499999999998
 40
0.6562499999999998
 40
0.6874999999999997
 40
0.6874999999999997
 40
0.7031249999999997
 40
0.7031249999999997
 40
0.7187499999999997
 40
0.7187499999999997
 40
0.7343749999999997
 40
0.7343749999999997
 40
0.7499999999999997
 40
0.7499999999999997
 40
0.7656249999999998
 40
0.7656249999999998
 40
0.7812499999999998
 40
0.7812499999999998
 40
0.8124999999999998
 40
0.8124999999999998
 40
0.8281249999999998
 40
0.8281249999999998
 40
0.8437499999999998
 40
0.8437499999999998
 40
0.8593749999999999
 40
0.8593749999999999
 40
0.8749999999999999
 40
0.8749999999999999
 40
0.8906249999999999
 40
0.8906249999999999
 40
0.9062499999999999
 40
0.9062499999999999
 40
0.9374999999999999
 40
0.9374999999999999
 40
0.953125
 40
0.953125
 40
0.96875
 40
0.96875
 40
0.984375
 40
0.984375
 40
1.0
 40
1.0
 40
1.0
 40
1.0
 10
615.4329496635662
 20
508.8272542040464
 30
0.0
 10
614.3703595394707
 20
508.500592965912
 30
0.0
 10
613.2842027949706
 20
508.3103585566427
 30
0.0
 10
611.064842817433
 20
508.2022421542524
 30
0.0
 10
609.9693062313544
 20
508.2860161545339
 30
0.0
 10
608.6225878309907
 20
508.5557994399221
 30
0.0
 10
608.3542981820962
 20
508.6181427878619
 30
0.0
 10
607.8198678338833
 20
508.7599282078773
 30
0.0
 10
607.5529187298167
 20
508.8396773486504
 30
0.0
 10
606.765303069093
 20
509.1018498445727
 30
0.0
 10
606.2555856495596
 20
509.307476008657
 30
0.0
 10
605.2659824579473
 20
509.7786346471432
 30
0.0
 10
604.7860981872236
 20
510.0441701364942
 30
0.0
 10
603.8566490786394
 20
510.6361269439786
 30
0.0
 10
603.4048893543662
 20
510.9647887685257
 30
0.0
 10
602.1305039061655
 20
512.018406464832
 30
0.0
 10
601.3774021070037
 20
512.8147769614059
 30
0.0
 10
600.5564370595392
 20
513.9274620845093
 30
0.0
 10
600.3980014736998
 20
514.1566060395893
 30
0.0
 10
600.097542052289
 20
514.6210311879792
 30
0.0
 10
599.9550592292695
 20
514.8568590900481
 30
0.0
 10
599.5503982070048
 20
515.574977274467
 30
0.0
 10
599.3109251748289
 20
516.0678636369438
 30
0.0
 10
598.8922337926009
 20
517.0817561069065
 30
0.0
 10
598.7130078825525
 20
517.6027586863026
 30
0.0
 10
598.4171974920353
 20
518.6739974330408
 30
0.0
 10
598.3036347360654
 20
519.2133574700287
 30
0.0
 10
598.142736492474
 20
520.2984365745101
 30
0.0
 10
598.0953705696554
 20
520.8442980362535
 30
0.0
 10
598.074193015485
 20
521.6680978297151
 30
0.0
 10
598.0754531599431
 20
521.9435329315614
 30
0.0
 10
598.0947645693182
 20
522.4960868585011
 30
0.0
 10
598.1129539286038
 20
522.774029616147
 30
0.0
 10
598.2452809112292
 20
524.1509474092853
 30
0.0
 10
598.4812780934486
 20
525.2212532613789
 30
0.0
 10
599.0277931603014
 20
526.7805136367996
 30
0.0
 10
599.2441401765242
 20
527.2953651776025
 30
0.0
 10
599.7322114796885
 20
528.2839346758373
 30
0.0
 10
600.2764932583681
 20
529.2361543860892
 30
0.0
 10
600.9309693337474
 20
530.1171144108138
 30
0.0
 10
601.641862552196
 20
530.9615909643242
 30
0.0
 10
602.0266399368741
 20
531.3657620345028
 30
0.0
 10
603.2342033637867
 20
532.4907885737354
 30
0.0
 10
604.118801023913
 20
533.1374203300065
 30
0.0
 10
605.325830159478
 20
533.8140893715819
 30
0.0
 10
605.5727365792713
 20
533.9428644684531
 30
0.0
 10
606.0702241145178
 20
534.1835622217943
 30
0.0
 10
606.3215855353383
 20
534.2959544794055
 30
0.0
 10
607.0833783427305
 20
534.6097003580918
 30
0.0
 10
607.6014914068821
 20
534.7877047518836
 30
0.0
 10
608.6581231687488
 20
535.0816885548188
 30
0.0
 10
609.1966393664728
 20
535.19767556306
 30
0.0
 10
610.2948733373817
 20
535.3652052007793
 30
0.0
 10
610.8441283124142
 20
535.4151046574507
 30
0.0
 10
611.9406407190764
 20
535.4494751206238
 30
0.0
 10
612.4882826739516
 20
535.4341102455836
 30
0.0
 10
613.5823380083064
 20
535.3385685879036
 30
0.0
 10
614.1315056652227
 20
535.2577140564418
 30
0.0
 10
615.7577859750475
 20
534.9174233148416
 30
0.0
 10
616.7961939880539
 20
534.5668270099886
 30
0.0
 10
618.2865738796129
 20
533.859210588966
 30
0.0
 10
618.7751676213156
 20
533.5905928528148
 30
0.0
 10
619.7094866868666
 20
533.0014783511597
 30
0.0
 10
620.1555818761015
 20
532.6814485025027
 30
0.0
 10
621.0066697513846
 20
531.9916845741869
 30
0.0
 10
621.4116091809248
 20
531.6218846681368
 30
0.0
 10
622.1799125861097
 20
530.8320157234974
 30
0.0
 10
622.5448408564874
 20
530.4095307995899
 30
0.0
 10
623.5496092728569
 20
529.0967955956933
 30
0.0
 10
624.1092223277852
 20
528.1549282840202
 30
0.0
 10
624.7823120159227
 20
526.6414677775276
 30
0.0
 10
624.9782934405844
 20
526.1194078766063
 30
0.0
 10
625.303603011051
 20
525.0686173511255
 30
0.0
 10
625.4345868255862
 20
524.5365366683852
 30
0.0
 10
625.6339576465094
 20
523.4591617644577
 30
0.0
 10
625.7023485379965
 20
522.9138683633352
 30
0.0
 10
625.7565793211227
 20
522.0857209187507
 30
0.0
 10
625.7665176748361
 20
521.8074624727677
 30
0.0
 10
625.7699300138005
 20
521.2547138934337
 30
0.0
 10
625.763541045289
 20
520.9793825356587
 30
0.0
 10
625.6918615382582
 20
519.6078449301294
 30
0.0
 10
625.5089853538792
 20
518.526787730061
 30
0.0
 10
625.0409263414822
 20
516.9301627923104
 30
0.0
 10
624.8541986922753
 20
516.4093938259392
 30
0.0
 10
624.424683756025
 20
515.3995499028053
 30
0.0
 10
624.1814299153976
 20
514.908882747583
 30
0.0
 10
623.6380013922715
 20
513.9560220880575
 30
0.0
 10
623.3375314764493
 20
513.4934152661406
 30
0.0
 10
622.6786081898614
 20
512.599492310703
 30
0.0
 10
622.3261607195326
 20
512.1762235372604
 30
0.0
 10
621.5769940969875
 20
511.3753191744086
 30
0.0
 10
621.1803320464551
 20
510.9976261212831
 30
0.0
 10
620.3430785540351
 20
510.2875312664361
 30
0.0
 10
619.9006536177084
 20
509.9540116174043
 30
0.0
 10
618.516421735018
 20
509.0324365225246
 30
0.0
 10
617.5363887867945
 20
508.5330346968281
 30
0.0
 10
615.9811090152003
 20
507.9552241566383
 30
0.0
 10
615.4487651238969
 20
507.7920914571945
 30
0.0
 10
614.3783422029923
 20
507.5307723405829
 30
0.0
 10
613.8374395742719
 20
507.431442452343
 30
0.0
 10
612.744259741096
 20
507.2953993698021
 30
0.0
 10
612.1887570731574
 20
507.2587501637299
 30
0.0
 10
611.0831301280311
 20
507.2503508248359
 30
0.0
 10
610.5344307819787
 20
507.2779125360756
 30
0.0
 10
609.4450389778046
 20
507.3948499016076
 30
0.0
 10
608.9043469203775
 20
507.4842286489877
 30
0.0
 10
607.83106799997
 20
507.7255591147047
 30
0.0
 10
607.2950984385452
 20
507.8788437328289
 30
0.0
 10
605.7316301620459
 20
508.4255202468048
 30
0.0
 10
604.7459454411817
 20
508.9029709796563
 30
0.0
 10
603.3515528340542
 20
509.7870367941777
 30
0.0
 10
602.8983400229533
 20
510.1123218386364
 30
0.0
 10
602.0406433187013
 20
510.8062855010637
 30
0.0
 10
601.6347025431754
 20
511.1754600882552
 30
0.0
 10
600.867321858404
 20
511.9569148654315
 30
0.0
 10
600.50580866535
 20
512.3691225015481
 30
0.0
 10
599.827895700689
 20
513.2372335593444
 30
0.0
 10
599.5106792711707
 20
513.6947469590625
 30
0.0
 10
599.2210790145065
 20
514.168636184418
 30
0.0
  0
ARC
  5
97
330
1F
100
AcDbEntity
  8
0
  6
Continuous
 62
     7
370
    25
100
AcDbCircle
 10
611.6760297483
 20
521.5932036613
 30
0.0
 40
14.49999999999996
100
AcDbArc
 50
149.2002487064
 51
210.7997512935
  0
SPLINE
  5
98
330
1F
100
AcDbEntity
  8
0
  6
Continuous
 62
     7
370
    25
100
AcDbSpline
210
0.0
220
0.0
230
1.0
 70
     8
 71
     3
 72
    42
 73
    38
 74
     0
 42
0.00000001
 43
0.00000001
 40
0.0
 40
0.0
 40
0.0
 40
0.0
 40
0.0625
 40
0.0625
 40
0.1249999999999999
 40
0.1249999999999999
 40
0.1874999999999999
 40
0.1874999999999999
 40
0.2499999999999998
 40
0.2499999999999998
 40
0.3749999999999996
 40
0.3749999999999996
 40
0.4062499999999996
 40
0.4062499999999996
 40
0.4374999999999996
 40
0.4374999999999996
 40
0.4999999999999996
 40
0.4999999999999996
 40
0.5624999999999996
 40
0.5624999999999996
 40
0.6249999999999996
 40
0.6249999999999996
 40
0.6562499999999994
 40
0.6562499999999994
 40
0.6874999999999994
 40
0.6874999999999994
 40
0.7499999999999996
 40
0.7499999999999996
 40
0.8124999999999997
 40
0.8124999999999997
 40
0.8749999999999997
 40
0.8749999999999997
 40
0.9374999999999998
 40
0.9374999999999998
 40
0.9687499999999999
 40
0.9687499999999999
 40
1.0
 40
1.0
 40
1.0
 40
1.0
 10
599.2210790145078
 20
529.0177711382387
 30
0.0
 10
598.8838269979321
 20
528.4043780663685
 30
0.0
 10
598.5938826129419
 20
527.7717812242993
 30
0.0
 10
598.1067920492061
 20
526.4689180428358
 30
0.0
 10
597.9089374565833
 20
525.7939220163208
 30
0.0
 10
597.6157339534193
 20
524.4363104167268
 30
0.0
 10
597.5191133374672
 20
523.7524846205557
 30
0.0
 10
597.4240810975452
 20
522.374968452589
 30
0.0
 10
597.4253067823421
 20
521.6797648722472
 30
0.0
 10
597.5861778166033
 20
519.5880395929478
 30
0.0
 10
597.8947695751339
 20
518.2435354344436
 30
0.0
 10
598.5281172557764
 20
516.6243733729023
 30
0.0
 10
598.6680870703503
 20
516.3024308254336
 30
0.0
 10
598.9695542418536
 20
515.6743412854463
 30
0.0
 10
599.1311952620676
 20
515.3675186921876
 30
0.0
 10
599.6481155293966
 20
514.4682373131509
 30
0.0
 10
600.0352210836339
 20
513.8968517948606
 30
0.0
 10
600.8948153429043
 20
512.8106151083131
 30
0.0
 10
601.371655256072
 20
512.2923305641772
 30
0.0
 10
602.3846140865122
 20
511.3440093666092
 30
0.0
 10
602.9228749815059
 20
510.9121293812958
 30
0.0
 10
603.7773141398745
 20
510.3269073924986
 30
0.0
 10
604.0699990278823
 20
510.1423066797461
 30
0.0
 10
604.6714123067084
 20
509.7944509686244
 30
0.0
 10
604.9815520516383
 20
509.6305540861328
 30
0.0
 10
605.9248441424378
 20
509.1776587299703
 30
0.0
 10
606.5696841643834
 20
508.9270901627433
 30
0.0
 10
607.8903147396652
 20
508.5254412405168
 30
0.0
 10
608.5661042159935
 20
508.3743574309447
 30
0.0
 10
609.9498277016726
 20
508.1755143238845
 30
0.0
 10
610.6445349448817
 20
508.1300251088992
 30
0.0
 10
612.0253681317271
 20
508.1439331650889
 30
0.0
 10
612.7137655288484
 20
508.2036250361584
 30
0.0
 10
613.7431156942915
 20
508.3760677367466
 30
0.0
 10
614.0866441982726
 20
508.4476176404277
 30
0.0
 10
614.765299746269
 20
508.6173917955352
 30
0.0
 10
615.1009639685025
 20
508.7156235228897
 30
0.0
 10
615.4329496635688
 20
508.8272542040473
 30
0.0
  0
SPLINE
  5
99
330
1F
100
AcDbEntity
  8
0
  6
Continuous
 62
     7
370
    25
100
AcDbSpline
210
0.0
220
0.0
230
1.0
 70
     8
 71
     3
 72
    18
 73
    14
 74
     0
 42
0.00000001
 43
0.00000001
 40
0.0
 40
0.0
 40
0.0
 40
0.0
 40
0.0453111559716552
 40
0.1587285092263253
 40
0.2722484737222177
 40
0.383783267119816
 40
0.3944119690689316
 40
0.5083673481707751
 40
0.6245564885474945
 40
0.7407456289242138
 40
0.8547010080260512
 40
0.9686563871278939
 40
1.0
 40
1.0
 40
1.0
 40
1.0
 10
620.6736067877466
 20
532.883502129593
 30
0.0
 10
620.3912643611677
 20
533.128290683802
 30
0.0
 10
619.4021968456482
 20
533.985804058865
 30
0.0
 10
617.3721594274931
 20
535.0046851825085
 30
0.0
 10
614.7147292186149
 20
535.8679398794013
 30
0.0
 10
612.7692494085254
 20
536.0840225051063
 30
0.0
 10
610.825424950259
 20
536.1017654095743
 30
0.0
 10
608.8375772580349
 20
535.9081330189648
 30
0.0
 10
606.0910321298076
 20
535.077436299397
 30
0.0
 10
603.5596265033123
 20
533.7222459264005
 30
0.0
 10
601.3609614629349
 20
531.909978460042
 30
0.0
 10
599.9866236862146
 20
530.2546040520302
 30
0.0
 10
599.3569179070965
 20
529.2372358142218
 30
0.0
 10
599.2210790145078
 20
529.0177711382387
 30
0.0
  0
CIRCLE
  5
9A
330
1F
100
AcDbEntity
  8
0
  6
Continuous
 62
     7
370
    25
100
AcDbCircle
 10
611.6760297483
 20
521.5932036613
 30
0.0
 40
5.0
  0
SPLINE
  5
9B
330
1F
100
AcDbEntity
  8
0
  6
Continuous
 62
     7
370
    25
100
AcDbSpline
210
0.0
220
0.0
230
1.0
 70
     8
 71
     3
 72
    12
 73
     8
 74
     0
 42
0.00000001
 43
0.00000001
 40
0.0
 40
0.0
 40
0.0
 40
0.0
 40
0.0391208660686014
 40
0.1956614818148592
 40
0.509116214332211
 40
0.7807174544510718
 40
1.0
 40
1.0
 40
1.0
 40
1.0
 10
560.8760297482838
 20
506.7374668258398
 30
0.0
 10
560.8093790231362
 20
506.7377620879157
 30
0.0
 10
560.4760280276967
 20
506.7392388296424
 30
0.0
 10
559.6088164031569
 20
506.7760520120162
 30
0.0
 10
558.353744421672
 20
506.9379835724363
 30
0.0
 10
557.013234875418
 20
507.2406756024769
 30
0.0
 10
556.2285284217455
 20
507.5319709389069
 30
0.0
 10
555.8779924421635
 20
507.6620953894262
 30
0.0
  0
ARC
  5
9C
330
1F
100
AcDbEntity
  8
0
  6
Continuous
 62
     7
370
    25
100
AcDbCircle
 10
560.8760297483
 20
521.5932036613
 30
0.0
 40
16.7000000000001
100
AcDbArc
 50
18.0613810469
 51
41.9421492706
  0
ARC
  5
9D
330
1F
100
AcDbEntity
  8
0
  6
Continuous
 62
     7
370
    25
100
AcDbCircle
 10
560.8760297483
 20
521.5932036613
 30
0.0
 40
16.7000000000001
100
AcDbArc
 50
318.0555335738
 51
341.9494741164
  0
LINE
  5
9E
330
1F
100
AcDbEntity
  8
0
  6
Continuous
 62
     7
370
    25
100
AcDbLine
 10
548.4542347769
 20
510.4312589522
 30
0.0
 11
547.9504626236
 21
511.0187195365
 31
0.0
  0
LINE
  5
9F
330
1F
100
AcDbEntity
  8
0
  6
Continuous
 62
     7
370
    25
100
AcDbLine
 10
547.9504626236
 20
532.1676877861
 30
0.0
 11
548.4546861984
 21
532.7556507235
 31
0.0
  0
LINE
  5
A0
330
1F
100
AcDbEntity
  8
0
  6
Continuous
 62
     7
370
    25
100
AcDbLine
 10
611.6760297483
 20
507.1242454051
 30
0.0
 11
611.6760297483
 21
506.8432036613
 31
0.0
  0
SPLINE
  5
A1
330
1F
100
AcDbEntity
  8
0
  6
Continuous
 62
     7
370
    25
100
AcDbSpline
210
0.0
220
0.0
230
1.0
 70
     8
 71
     3
 72
     9
 73
     5
 74
     0
 42
0.00000001
 43
0.00000001
 40
0.0
 40
0.0
 40
0.0
 40
0.0
 40
0.23561291749176
 40
1.0
 40
1.0
 40
1.0
 40
1.0
 10
608.8123374636708
 20
507.5607140303239
 30
0.0
 10
609.0313190711375
 20
507.4960305741558
 30
0.0
 10
609.9607316423918
 20
507.2214978496488
 30
0.0
 10
610.9329095294877
 20
507.1663781735213
 30
0.0
 10
611.6760297482838
 20
507.1242454050973
 30
0.0
  0
ARC
  5
A2
330
1F
100
AcDbEntity
  8
0
  6
Continuous
 62
     7
370
    25
100
AcDbCircle
 10
611.6760297483
 20
521.5932036613
 30
0.0
 40
14.75000000000001
100
AcDbArc
 50
270.0
 51
241.6352570651
  0
SPLINE
  5
A3
330
1F
100
AcDbEntity
  8
0
  6
Continuous
 62
     7
370
    25
100
AcDbSpline
210
0.0
220
0.0
230
1.0
 70
     8
 71
     3
 72
    20
 73
    16
 74
     0
 42
0.00000001
 43
0.00000001
 40
0.0
 40
0.0
 40
0.0
 40
0.0
 40
0.0979684652441311
 40
0.1858435986979695
 40
0.2607165679502318
 40
0.3422749225510045
 40
0.4238332771521726
 40
0.5053916317528759
 40
0.5869502316027418
 40
0.6685126516889117
 40
0.7500750717762051
 40
0.8316374918639593
 40
0.9131999119512606
 40
0.9947625334500622
 40
1.0
 40
1.0
 40
1.0
 40
1.0
 10
604.6685580697848
 20
508.6140726936918
 30
0.0
 10
603.896244626265
 20
509.0967282311122
 30
0.0
 10
602.4311863617626
 20
510.0123130755026
 30
0.0
 10
600.7050897067053
 20
511.7292169112833
 30
0.0
 10
599.3398639019297
 20
513.5425016476867
 30
0.0
 10
598.2892677441254
 20
515.4935214311172
 30
0.0
 10
597.53075010691
 20
517.6402758006867
 30
0.0
 10
597.1131415813966
 20
519.8789065319667
 30
0.0
 10
597.0456877461615
 20
522.1549890413328
 30
0.0
 10
597.3324915437508
 20
524.4146741957956
 30
0.0
 10
597.9693631291498
 20
526.5998845452848
 30
0.0
 10
598.9321239464786
 20
528.6677808789
 30
0.0
 10
600.2291318072039
 20
530.5291262841313
 30
0.0
 10
601.2481664488803
 20
531.7362175968997
 30
0.0
 10
601.8850807608819
 20
532.2281449742122
 30
0.0
 10
601.9235117979842
 20
532.2578275844673
 30
0.0
  0
SPLINE
  5
A4
330
1F
100
AcDbEntity
  8
0
  6
Continuous
 62
     7
370
    25
100
AcDbSpline
210
0.0
220
0.0
230
1.0
 70
     8
 71
     3
 72
    12
 73
     8
 74
     0
 42
0.00000001
 43
0.00000001
 40
0.0
 40
0.0
 40
0.0
 40
0.0
 40
0.0370745301879395
 40
0.1854268129299954
 40
0.4824853423318855
 40
0.7398796535470538
 40
1.0
 40
1.0
 40
1.0
 40
1.0
 10
611.6760297482838
 20
506.7374668258398
 30
0.0
 10
611.6093787430748
 20
506.7377611943652
 30
0.0
 10
611.2760263469187
 20
506.7392334670337
 30
0.0
 10
610.4088657641566
 20
506.7762095008329
 30
0.0
 10
609.1533898023105
 20
506.9368521410656
 30
0.0
 10
607.7223554662705
 20
507.2649846688325
 30
0.0
 10
606.8500611648544
 20
507.5910909681188
 30
0.0
 10
606.4116165864618
 20
507.7550030086647
 30
0.0
  0
SPLINE
  5
A5
330
1F
100
AcDbEntity
  8
0
  6
Continuous
 62
     7
370
    25
100
AcDbSpline
210
0.0
220
0.0
230
1.0
 70
     8
 71
     3
 72
     9
 73
     5
 74
     0
 42
0.00000001
 43
0.00000001
 40
0.0
 40
0.0
 40
0.0
 40
0.0
 40
0.5010885993396859
 40
1.0
 40
1.0
 40
1.0
 40
1.0
 10
611.6760297482838
 20
506.7874668258398
 30
0.0
 10
610.8220542834684
 20
506.8242512488765
 30
0.0
 10
609.1178138239158
 20
506.8976602689287
 30
0.0
 10
607.4900849396886
 20
507.4076538016757
 30
0.0
 10
606.6779924421636
 20
507.6620953894262
 30
0.0
  0
LINE
  5
A6
330
1F
100
AcDbEntity
  8
0
  6
Continuous
 62
     7
370
    25
100
AcDbLine
 10
606.5789163816
 20
507.6966515277
 30
0.0
 11
605.6488985069
 21
508.130910056
 31
0.0
  0
LINE
  5
A7
330
1F
100
AcDbEntity
  8
0
  6
Continuous
 62
     7
370
    25
100
AcDbLine
 10
606.4116165865
 20
507.7550030087
 30
0.0
 11
604.2531410102
 21
508.7826390359
 31
0.0
  0
ARC
  5
A8
330
1F
100
AcDbEntity
  8
0
  6
Continuous
 62
     7
370
    25
100
AcDbCircle
 10
611.6760297483
 20
521.5932036613
 30
0.0
 40
16.70000000000009
100
AcDbArc
 50
287.8062935638
 51
72.1937064362
  0
ARC
  5
A9
330
1F
100
AcDbEntity
  8
0
  6
Continuous
 62
     7
370
    25
100
AcDbCircle
 10
611.6760297483
 20
521.5932036613
 30
0.0
 40
16.20000000000011
100
AcDbArc
 50
281.043665527
 51
78.956334473
  0
SPLINE
  5
AA
330
1F
100
AcDbEntity
  8
0
  6
Continuous
 62
     7
370
    25
100
AcDbSpline
210
0.0
220
0.0
230
1.0
 70
    24
 71
     3
 72
     9
 73
     5
 74
     0
 42
0.00000001
 43
0.00000001
 40
0.0
 40
0.0
 40
0.0
 40
0.0
 40
0.9076164894784495
 40
1.0
 40
1.0
 40
1.0
 40
1.0
 10
616.7828878822053
 20
505.6932036613272
 30
0.0
 10
616.1808467833323
 20
505.6932036613273
 30
0.0
 10
615.5175257596927
 20
505.6932036613274
 30
0.0
 10
614.8416899616772
 20
505.6932036613272
 30
0.0
 10
614.7792538781205
 20
505.6932036613272
 30
0.0
  0
LINE
  5
AB
330
1F
100
AcDbEntity
  8
0
  6
Continuous
 62
     7
370
    25
100
AcDbLine
 10
614.7792538781
 20
537.4932036613
 30
0.0
 11
616.7828878822
 21
537.4932036613
 31
0.0
  0
ARC
  5
AC
330
1F
100
AcDbEntity
  8
0
  6
Continuous
 62
     7
370
    25
100
AcDbCircle
 10
611.6760297483
 20
521.5932036613
 30
0.0
 40
16.20000000000007
100
AcDbArc
 50
101.043665527
 51
258.956334473
  0
ARC
  5
AD
330
1F
100
AcDbEntity
  8
0
  6
Continuous
 62
     7
370
    25
100
AcDbCircle
 10
611.6760297483
 20
521.5932036613
 30
0.0
 40
16.70000000000009
100
AcDbArc
 50
107.8062935638
 51
252.1937064362
  0
LINE
  5
AE
330
1F
100
AcDbEntity
  8
0
  6
Continuous
 62
     7
370
    25
100
AcDbLine
 10
608.5728056184
 20
505.6932036613
 30
0.0
 11
606.5691716144
 21
505.6932036613
 31
0.0
  0
SPLINE
  5
AF
330
1F
100
AcDbEntity
  8
0
  6
Continuous
 62
     7
370
    25
100
AcDbSpline
210
0.0
220
0.0
230
1.0
 70
    24
 71
     3
 72
     9
 73
     5
 74
     0
 42
0.00000001
 43
0.00000001
 40
0.0
 40
0.0
 40
0.0
 40
0.0
 40
0.9076164894784076
 40
1.0
 40
1.0
 40
1.0
 40
1.0
 10
606.5691716143623
 20
537.4932036613272
 30
0.0
 10
607.1712127132353
 20
537.4932036613272
 30
0.0
 10
607.8345337368748
 20
537.4932036613274
 30
0.0
 10
608.5103695348905
 20
537.4932036613272
 30
0.0
 10
608.5728056184473
 20
537.4932036613272
 30
0.0
  0
LINE
  5
B0
330
1F
100
AcDbEntity
  8
0
  6
Continuous
 62
     7
370
    25
100
AcDbLine
 10
608.5728056184
 20
505.6932036613
 30
0.0
 11
614.7792538781
 21
505.6932036613
 31
0.0
  0
LINE
  5
B1
330
1F
100
AcDbEntity
  8
0
  6
Continuous
 62
     7
370
    25
100
AcDbLine
 10
614.7792538781
 20
537.4932036613
 30
0.0
 11
608.5728056184
 21
537.4932036613
 31
0.0
  0
LINE
  5
B2
330
1F
100
AcDbEntity
  8
0
  6
Continuous
 62
     7
370
    25
100
AcDbLine
 10
611.6760297483
 20
506.8432036613
 30
0.0
 11
611.6760297483
 21
506.7374668258
 31
0.0
  0
LINE
  5
B3
330
1F
100
AcDbEntity
  8
0
  6
Continuous
 62
     7
370
    25
100
AcDbLine
 10
606.4116165865
 20
507.7550030087
 30
0.0
 11
604.6685580698
 21
508.6140726937
 31
0.0
  0
ARC
  5
B4
330
1F
100
AcDbEntity
  8
0
  6
Continuous
 62
     7
370
    25
100
AcDbCircle
 10
662.4760297483
 20
521.5932036613
 30
0.0
 40
16.70000000000013
100
AcDbArc
 50
198.0613810469
 51
221.9421492706
  0
ARC
  5
B5
330
1F
100
AcDbEntity
  8
0
  6
Continuous
 62
     7
370
    25
100
AcDbCircle
 10
662.4760297483
 20
521.5932036613
 30
0.0
 40
16.70000000000003
100
AcDbArc
 50
138.0555335738
 51
161.9494741164
  0
LINE
  5
B6
330
1F
100
AcDbEntity
  8
0
  6
Continuous
 62
     7
370
    25
100
AcDbLine
 10
674.8978247196
 20
532.7551483705
 30
0.0
 11
675.401596873
 21
532.1676877861
 31
0.0
  0
LINE
  5
B7
330
1F
100
AcDbEntity
  8
0
  6
Continuous
 62
     7
370
    25
100
AcDbLine
 10
675.4014437665
 20
511.0185323918
 30
0.0
 11
674.8973732982
 21
510.4307565991
 31
0.0
  0
LINE
  5
B8
330
1F
100
AcDbEntity
  8
0
  6
Continuous
 62
     7
370
    25
100
AcDbLine
 10
661.8760297483
 20
524.1932036613
 30
0.0
 11
663.0760297483
 21
524.1932036613
 31
0.0
  0
LINE
  5
B9
330
1F
100
AcDbEntity
  8
0
  6
Continuous
 62
     7
370
    25
100
AcDbLine
 10
661.8760297483
 20
522.9432036613
 30
0.0
 11
661.8760297483
 21
524.1932036613
 31
0.0
  0
SPLINE
  5
BA
330
1F
100
AcDbEntity
  8
0
  6
Continuous
 62
     7
370
    25
100
AcDbSpline
210
0.0
220
0.0
230
1.0
 70
     8
 71
     3
 72
    12
 73
     8
 74
     0
 42
0.00000001
 43
0.00000001
 40
0.0
 40
0.0
 40
0.0
 40
0.0
 40
0.2133534395476183
 40
0.4267919313634539
 40
0.6383539739091973
 40
0.849095035192751
 40
1.0
 40
1.0
 40
1.0
 40
1.0
 10
661.1260297482838
 20
522.1932036613272
 30
0.0
 10
661.2095235364409
 20
522.2013052214432
 30
0.0
 10
661.376544397131
 20
522.2175115713212
 30
0.0
 10
661.6003811587286
 20
522.344912696337
 30
0.0
 10
661.7694668796058
 20
522.5323067122429
 30
0.0
 10
661.8621284658158
 20
522.7432827375342
 30
0.0
 10
661.8719369407801
 20
522.8843430591531
 30
0.0
 10
661.8760297482838
 20
522.9432036613272
 30
0.0
  0
LINE
  5
BB
330
1F
100
AcDbEntity
  8
0
  6
Continuous
 62
     7
370
    25
100
AcDbLine
 10
659.8760297483
 20
522.1932036613
 30
0.0
 11
661.1260297483
 21
522.1932036613
 31
0.0
  0
LINE
  5
BC
330
1F
100
AcDbEntity
  8
0
  6
Continuous
 62
     7
370
    25
100
AcDbLine
 10
659.8760297483
 20
520.9932036613
 30
0.0
 11
659.8760297483
 21
522.1932036613
 31
0.0
  0
LINE
  5
BD
330
1F
100
AcDbEntity
  8
0
  6
Continuous
 62
     7
370
    25
100
AcDbLine
 10
661.1260297483
 20
520.9932036613
 30
0.0
 11
659.8760297483
 21
520.9932036613
 31
0.0
  0
SPLINE
  5
BE
330
1F
100
AcDbEntity
  8
0
  6
Continuous
 62
     7
370
    25
100
AcDbSpline
210
0.0
220
0.0
230
1.0
 70
     8
 71
     3
 72
    12
 73
     8
 74
     0
 42
0.00000001
 43
0.00000001
 40
0.0
 40
0.0
 40
0.0
 40
0.0
 40
0.2133534395475709
 40
0.4267919313633925
 40
0.6383539739091391
 40
0.8490950351927585
 40
1.0
 40
1.0
 40
1.0
 40
1.0
 10
661.8760297482838
 20
520.2432036613272
 30
0.0
 10
661.8679281881678
 20
520.3266974494843
 30
0.0
 10
661.8517218382899
 20
520.4937183101745
 30
0.0
 10
661.724320713274
 20
520.717555071772
 30
0.0
 10
661.5369266973682
 20
520.8866407926494
 30
0.0
 10
661.3259506720769
 20
520.9793023788592
 30
0.0
 10
661.1848903504579
 20
520.9891108538235
 30
0.0
 10
661.1260297482838
 20
520.9932036613272
 30
0.0
  0
LINE
  5
BF
330
1F
100
AcDbEntity
  8
0
  6
Continuous
 62
     7
370
    25
100
AcDbLine
 10
661.8760297483
 20
518.9932036613
 30
0.0
 11
661.8760297483
 21
520.2432036613
 31
0.0
  0
LINE
  5
C0
330
1F
100
AcDbEntity
  8
0
  6
Continuous
 62
     7
370
    25
100
AcDbLine
 10
663.0760297483
 20
518.9932036613
 30
0.0
 11
661.8760297483
 21
518.9932036613
 31
0.0
  0
LINE
  5
C1
330
1F
100
AcDbEntity
  8
0
  6
Continuous
 62
     7
370
    25
100
AcDbLine
 10
663.0760297483
 20
520.2432036613
 30
0.0
 11
663.0760297483
 21
518.9932036613
 31
0.0
  0
SPLINE
  5
C2
330
1F
100
AcDbEntity
  8
0
  6
Continuous
 62
     7
370
    25
100
AcDbSpline
210
0.0
220
0.0
230
1.0
 70
     8
 71
     3
 72
    12
 73
     8
 74
     0
 42
0.00000001
 43
0.00000001
 40
0.0
 40
0.0
 40
0.0
 40
0.0
 40
0.2133534395475732
 40
0.4267919313634818
 40
0.6383539739092341
 40
0.8490950351927967
 40
1.0
 40
1.0
 40
1.0
 40
1.0
 10
663.8260297482839
 20
520.9932036613272
 30
0.0
 10
663.7425359601267
 20
520.9851021012113
 30
0.0
 10
663.5755150994365
 20
520.9688957513333
 30
0.0
 10
663.351678337839
 20
520.8414946263175
 30
0.0
 10
663.1825926169619
 20
520.6541006104117
 30
0.0
 10
663.0899310307517
 20
520.4431245851204
 30
0.0
 10
663.0801225557875
 20
520.3020642635015
 30
0.0
 10
663.0760297482839
 20
520.2432036613272
 30
0.0
  0
LINE
  5
C3
330
1F
100
AcDbEntity
  8
0
  6
Continuous
 62
     7
370
    25
100
AcDbLine
 10
665.0760297483
 20
520.9932036613
 30
0.0
 11
663.8260297483
 21
520.9932036613
 31
0.0
  0
LINE
  5
C4
330
1F
100
AcDbEntity
  8
0
  6
Continuous
 62
     7
370
    25
100
AcDbLine
 10
665.0760297483
 20
522.1932036613
 30
0.0
 11
665.0760297483
 21
520.9932036613
 31
0.0
  0
LINE
  5
C5
330
1F
100
AcDbEntity
  8
0
  6
Continuous
 62
     7
370
    25
100
AcDbLine
 10
663.8260297483
 20
522.1932036613
 30
0.0
 11
665.0760297483
 21
522.1932036613
 31
0.0
  0
LINE
  5
C6
330
1F
100
AcDbEntity
  8
0
  6
Continuous
 62
     7
370
    25
100
AcDbLine
 10
663.0760297483
 20
524.1932036613
 30
0.0
 11
663.0760297483
 21
522.9432036613
 31
0.0
  0
CIRCLE
  5
C7
330
1F
100
AcDbEntity
  8
0
  6
Continuous
 62
     7
370
    25
100
AcDbCircle
 10
662.4760297483
 20
521.5932036613
 30
0.0
 40
4.197433366238897
  0
SPLINE
  5
C8
330
1F
100
AcDbEntity
  8
0
  6
Continuous
 62
     7
370
    25
100
AcDbSpline
210
0.0
220
0.0
230
1.0
 70
     8
 71
     3
 72
    12
 73
     8
 74
     0
 42
0.00000001
 43
0.00000001
 40
0.0
 40
0.0
 40
0.0
 40
0.0
 40
0.2133534395475455
 40
0.4267919313633854
 40
0.6383539739091141
 40
0.8490950351927247
 40
1.0
 40
1.0
 40
1.0
 40
1.0
 10
663.0760297482839
 20
522.9432036613272
 30
0.0
 10
663.0841313083998
 20
522.8597098731701
 30
0.0
 10
663.1003376582778
 20
522.6926890124801
 30
0.0
 10
663.2277387832937
 20
522.4688522508825
 30
0.0
 10
663.4151327991993
 20
522.2997665300052
 30
0.0
 10
663.6261088244906
 20
522.2071049437952
 30
0.0
 10
663.7671691461097
 20
522.1972964688309
 30
0.0
 10
663.8260297482839
 20
522.1932036613273
 30
0.0
  0
LINE
  5
C9
330
1F
100
AcDbEntity
  8
0
  6
Continuous
 62
     7
370
    25
100
AcDbLine
 10
561.4760297483
 20
518.9932036613
 30
0.0
 11
560.2760297483
 21
518.9932036613
 31
0.0
  0
LINE
  5
CA
330
1F
100
AcDbEntity
  8
0
  6
Continuous
 62
     7
370
    25
100
AcDbLine
 10
561.4760297483
 20
520.2432036613
 30
0.0
 11
561.4760297483
 21
518.9932036613
 31
0.0
  0
SPLINE
  5
CB
330
1F
100
AcDbEntity
  8
0
  6
Continuous
 62
     7
370
    25
100
AcDbSpline
210
0.0
220
0.0
230
1.0
 70
     8
 71
     3
 72
    12
 73
     8
 74
     0
 42
0.00000001
 43
0.00000001
 40
0.0
 40
0.0
 40
0.0
 40
0.0
 40
0.2133534395476183
 40
0.4267919313634539
 40
0.6383539739091973
 40
0.849095035192751
 40
1.0
 40
1.0
 40
1.0
 40
1.0
 10
562.226029748284
 20
520.9932036613272
 30
0.0
 10
562.1425359601268
 20
520.9851021012112
 30
0.0
 10
561.9755150994366
 20
520.9688957513332
 30
0.0
 10
561.751678337839
 20
520.8414946263175
 30
0.0
 10
561.5825926169618
 20
520.6541006104117
 30
0.0
 10
561.4899310307518
 20
520.4431245851204
 30
0.0
 10
561.4801225557876
 20
520.3020642635015
 30
0.0
 10
561.476029748284
 20
520.2432036613272
 30
0.0
  0
LINE
  5
CC
330
1F
100
AcDbEntity
  8
0
  6
Continuous
 62
     7
370
    25
100
AcDbLine
 10
563.4760297483
 20
520.9932036613
 30
0.0
 11
562.2260297483
 21
520.9932036613
 31
0.0
  0
LINE
  5
CD
330
1F
100
AcDbEntity
  8
0
  6
Continuous
 62
     7
370
    25
100
AcDbLine
 10
563.4760297483
 20
522.1932036613
 30
0.0
 11
563.4760297483
 21
520.9932036613
 31
0.0
  0
LINE
  5
CE
330
1F
100
AcDbEntity
  8
0
  6
Continuous
 62
     7
370
    25
100
AcDbLine
 10
562.2260297483
 20
522.1932036613
 30
0.0
 11
563.4760297483
 21
522.1932036613
 31
0.0
  0
SPLINE
  5
CF
330
1F
100
AcDbEntity
  8
0
  6
Continuous
 62
     7
370
    25
100
AcDbSpline
210
0.0
220
0.0
230
1.0
 70
     8
 71
     3
 72
    12
 73
     8
 74
     0
 42
0.00000001
 43
0.00000001
 40
0.0
 40
0.0
 40
0.0
 40
0.0
 40
0.2133534395475709
 40
0.4267919313633925
 40
0.6383539739091391
 40
0.8490950351927585
 40
1.0
 40
1.0
 40
1.0
 40
1.0
 10
561.476029748284
 20
522.9432036613272
 30
0.0
 10
561.4841313083999
 20
522.8597098731701
 30
0.0
 10
561.5003376582778
 20
522.6926890124801
 30
0.0
 10
561.6277387832938
 20
522.4688522508824
 30
0.0
 10
561.8151327991993
 20
522.2997665300051
 30
0.0
 10
562.0261088244907
 20
522.2071049437953
 30
0.0
 10
562.1671691461098
 20
522.1972964688309
 30
0.0
 10
562.2260297482838
 20
522.1932036613272
 30
0.0
  0
LINE
  5
D0
330
1F
100
AcDbEntity
  8
0
  6
Continuous
 62
     7
370
    25
100
AcDbLine
 10
561.4760297483
 20
524.1932036613
 30
0.0
 11
561.4760297483
 21
522.9432036613
 31
0.0
  0
LINE
  5
D1
330
1F
100
AcDbEntity
  8
0
  6
Continuous
 62
     7
370
    25
100
AcDbLine
 10
560.2760297483
 20
524.1932036613
 30
0.0
 11
561.4760297483
 21
524.1932036613
 31
0.0
  0
LINE
  5
D2
330
1F
100
AcDbEntity
  8
0
  6
Continuous
 62
     7
370
    25
100
AcDbLine
 10
560.2760297483
 20
522.9432036613
 30
0.0
 11
560.2760297483
 21
524.1932036613
 31
0.0
  0
SPLINE
  5
D3
330
1F
100
AcDbEntity
  8
0
  6
Continuous
 62
     7
370
    25
100
AcDbSpline
210
0.0
220
0.0
230
1.0
 70
     8
 71
     3
 72
    12
 73
     8
 74
     0
 42
0.00000001
 43
0.00000001
 40
0.0
 40
0.0
 40
0.0
 40
0.0
 40
0.2133534395475732
 40
0.4267919313634818
 40
0.6383539739092341
 40
0.8490950351927967
 40
1.0
 40
1.0
 40
1.0
 40
1.0
 10
559.5260297482838
 20
522.1932036613272
 30
0.0
 10
559.609523536441
 20
522.2013052214431
 30
0.0
 10
559.7765443971311
 20
522.2175115713211
 30
0.0
 10
560.0003811587287
 20
522.344912696337
 30
0.0
 10
560.1694668796059
 20
522.5323067122429
 30
0.0
 10
560.262128465816
 20
522.7432827375342
 30
0.0
 10
560.2719369407802
 20
522.884343059153
 30
0.0
 10
560.2760297482838
 20
522.9432036613272
 30
0.0
  0
LINE
  5
D4
330
1F
100
AcDbEntity
  8
0
  6
Continuous
 62
     7
370
    25
100
AcDbLine
 10
558.2760297483
 20
522.1932036613
 30
0.0
 11
559.5260297483
 21
522.1932036613
 31
0.0
  0
LINE
  5
D5
330
1F
100
AcDbEntity
  8
0
  6
Continuous
 62
     7
370
    25
100
AcDbLine
 10
558.2760297483
 20
520.9932036613
 30
0.0
 11
558.2760297483
 21
522.1932036613
 31
0.0
  0
LINE
  5
D6
330
1F
100
AcDbEntity
  8
0
  6
Continuous
 62
     7
370
    25
100
AcDbLine
 10
559.5260297483
 20
520.9932036613
 30
0.0
 11
558.2760297483
 21
520.9932036613
 31
0.0
  0
SPLINE
  5
D7
330
1F
100
AcDbEntity
  8
0
  6
Continuous
 62
     7
370
    25
100
AcDbSpline
210
0.0
220
0.0
230
1.0
 70
     8
 71
     3
 72
    12
 73
     8
 74
     0
 42
0.00000001
 43
0.00000001
 40
0.0
 40
0.0
 40
0.0
 40
0.0
 40
0.2133534395475455
 40
0.4267919313633853
 40
0.638353973909114
 40
0.8490950351927246
 40
1.0
 40
1.0
 40
1.0
 40
1.0
 10
560.2760297482838
 20
520.2432036613272
 30
0.0
 10
560.2679281881678
 20
520.3266974494843
 30
0.0
 10
560.2517218382899
 20
520.4937183101745
 30
0.0
 10
560.124320713274
 20
520.717555071772
 30
0.0
 10
559.9369266973682
 20
520.8866407926492
 30
0.0
 10
559.725950672077
 20
520.9793023788593
 30
0.0
 10
559.584890350458
 20
520.9891108538235
 30
0.0
 10
559.5260297482838
 20
520.9932036613271
 30
0.0
  0
LINE
  5
D8
330
1F
100
AcDbEntity
  8
0
  6
Continuous
 62
     7
370
    25
100
AcDbLine
 10
560.2760297483
 20
518.9932036613
 30
0.0
 11
560.2760297483
 21
520.2432036613
 31
0.0
  0
CIRCLE
  5
D9
330
1F
100
AcDbEntity
  8
0
  6
Continuous
 62
     7
370
    25
100
AcDbCircle
 10
560.8760297483
 20
521.5932036613
 30
0.0
 40
4.197433366238897
  0
SPLINE
  5
DA
330
1F
100
AcDbEntity
  8
0
  6
Continuous
 62
     7
370
    25
100
AcDbSpline
210
0.0
220
0.0
230
1.0
 70
     8
 71
     3
 72
    11
 73
     7
 74
     0
 42
0.00000001
 43
0.00000001
 40
0.0
 40
0.0
 40
0.0
 40
0.0
 40
0.2200386424382229
 40
0.6637869905998129
 40
0.8890365590789622
 40
0.9999999999999999
 40
0.9999999999999999
 40
0.9999999999999999
 40
0.9999999999999999
 10
554.198439603692
 20
515.8183066432046
 30
0.0
 10
553.9942181406904
 20
516.0833252544634
 30
0.0
 10
553.3781465778068
 20
516.8828025847681
 30
0.0
 10
552.8545972267898
 20
518.145971855296
 30
0.0
 10
552.6029680270286
 20
519.3125416686202
 30
0.0
 10
552.6236752217509
 20
519.8238214672795
 30
0.0
 10
552.630509405777
 20
519.9925637947517
 30
0.0
  0
SPLINE
  5
DB
330
1F
100
AcDbEntity
  8
0
  6
Continuous
 62
     7
370
    25
100
AcDbSpline
210
0.0
220
0.0
230
1.0
 70
     8
 71
     3
 72
     9
 73
     5
 74
     0
 42
0.00000001
 43
0.00000001
 40
0.0
 40
0.0
 40
0.0
 40
0.0
 40
0.9209630919903188
 40
1.0
 40
1.0
 40
1.0
 40
1.0
 10
552.5583972404446
 20
516.1386299188381
 30
0.0
 10
553.0728187783175
 20
516.0818028599194
 30
0.0
 10
553.6313878918323
 20
516.0200989117234
 30
0.0
 10
554.1569044035016
 20
515.8330874508356
 30
0.0
 10
554.198439603692
 20
515.8183066432046
 30
0.0
  0
SPLINE
  5
DC
330
1F
100
AcDbEntity
  8
0
  6
Continuous
 62
     7
370
    25
100
AcDbSpline
210
0.0
220
0.0
230
1.0
 70
     8
 71
     3
 72
    10
 73
     6
 74
     0
 42
0.00000001
 43
0.00000001
 40
0.0
 40
0.0
 40
0.0
 40
0.0
 40
0.2596150688488825
 40
0.6297606444810655
 40
1.0
 40
1.0
 40
1.0
 40
1.0
 10
505.3832362865074
 20
518.7301874878272
 30
0.0
 10
509.4610565052304
 20
518.4304333507288
 30
0.0
 10
519.3528193385956
 20
517.7033054555646
 30
0.0
 10
535.0823920212689
 20
516.8774585856746
 30
0.0
 10
546.7325702825335
 20
516.3849269364088
 30
0.0
 10
552.5583972404446
 20
516.1386299188381
 30
0.0
  0
SPLINE
  5
DD
330
1F
100
AcDbEntity
  8
0
  6
Continuous
 62
     7
370
    25
100
AcDbSpline
210
0.0
220
0.0
230
1.0
 70
     8
 71
     3
 72
    11
 73
     7
 74
     0
 42
0.00000001
 43
0.00000001
 40
0.0
 40
0.0
 40
0.0
 40
0.0
 40
0.0614641195413868
 40
0.4999988937835363
 40
0.9375097801832789
 40
1.0
 40
1.0
 40
1.0
 40
1.0
 10
505.3832362865075
 20
524.4562198348292
 30
0.0
 10
505.3715670903052
 20
524.339762862377
 30
0.0
 10
505.2766404040362
 20
523.3924075950458
 30
0.0
 10
505.1929375767696
 20
521.5951633965976
 30
0.0
 10
505.2765075002897
 20
519.7959653723567
 30
0.0
 10
505.371379205335
 20
518.8485905479237
 30
0.0
 10
505.3832362865074
 20
518.7301874878272
 30
0.0
  0
SPLINE
  5
DE
330
1F
100
AcDbEntity
  8
0
  6
Continuous
 62
     7
370
    25
100
AcDbSpline
210
0.0
220
0.0
230
1.0
 70
     8
 71
     3
 72
    11
 73
     7
 74
     0
 42
0.00000001
 43
0.00000001
 40
0.0
 40
0.0
 40
0.0
 40
0.0
 40
0.259458927729188
 40
0.6296002946237412
 40
0.8147836738016275
 40
0.9999999999999999
 40
0.9999999999999999
 40
0.9999999999999999
 40
0.9999999999999999
 10
552.5583972404446
 20
527.0477774038162
 30
0.0
 10
548.4753965910996
 20
526.8822788173953
 30
0.0
 10
538.5676303242952
 20
526.4806816949438
 30
0.0
 10
525.7524933653341
 20
525.8024288789205
 30
0.0
 10
514.1082210990746
 20
525.1250079867084
 30
0.0
 10
508.2917370159419
 20
524.679162438096
 30
0.0
 10
505.3832362865075
 20
524.4562198348292
 30
0.0
  0
SPLINE
  5
DF
330
1F
100
AcDbEntity
  8
0
  6
Continuous
 62
     7
370
    25
100
AcDbSpline
210
0.0
220
0.0
230
1.0
 70
     8
 71
     3
 72
     9
 73
     5
 74
     0
 42
0.00000001
 43
0.00000001
 40
0.0
 40
0.0
 40
0.0
 40
0.0
 40
0.0790369080192272
 40
1.0
 40
1.0
 40
1.0
 40
1.0
 10
554.1984396036912
 20
527.3681006794496
 30
0.0
 10
554.1569044034958
 20
527.3533198718169
 30
0.0
 10
553.6313878918264
 20
527.1663084109292
 30
0.0
 10
553.0728187783119
 20
527.1046044627337
 30
0.0
 10
552.5583972404446
 20
527.0477774038162
 30
0.0
  0
SPLINE
  5
E0
330
1F
100
AcDbEntity
  8
0
  6
Continuous
 62
     7
370
    25
100
AcDbSpline
210
0.0
220
0.0
230
1.0
 70
     8
 71
     3
 72
    12
 73
     8
 74
     0
 42
0.00000001
 43
0.00000001
 40
0.0
 40
0.0
 40
0.0
 40
0.0
 40
0.0727571946374234
 40
0.4133526261309634
 40
0.6671905865650156
 40
0.9211041697476652
 40
1.0
 40
1.0
 40
1.0
 40
1.0
 10
552.6305094057807
 20
523.1938435278878
 30
0.0
 10
552.6227656237688
 20
523.3042674745909
 30
0.0
 10
552.5787711755663
 20
523.9316147573569
 30
0.0
 10
552.8329835991613
 20
524.9385694712556
 30
0.0
 10
553.3248661636836
 20
526.1246260085339
 30
0.0
 10
553.8048554877884
 20
526.8822876674712
 30
0.0
 10
554.1230163583612
 20
527.2750034417654
 30
0.0
 10
554.1984396036912
 20
527.3681006794496
 30
0.0
  0
SPLINE
  5
E1
330
1F
100
AcDbEntity
  8
0
  6
Continuous
 62
     7
370
    25
100
AcDbSpline
210
0.0
220
0.0
230
1.0
 70
     8
 71
     3
 72
    10
 73
     6
 74
     0
 42
0.00000001
 43
0.00000001
 40
0.0
 40
0.0
 40
0.0
 40
0.0
 40
0.3880207377811397
 40
0.9790637766506771
 40
1.0
 40
1.0
 40
1.0
 40
1.0
 10
552.630509405777
 20
519.9925637947517
 30
0.0
 10
552.7038239365364
 20
520.4034036566076
 30
0.0
 10
552.8888130218595
 20
521.4400452264559
 30
0.0
 10
552.7931060960287
 20
522.5338145480272
 30
0.0
 10
552.6358879447808
 20
523.1720104167466
 30
0.0
 10
552.6305094057807
 20
523.1938435278878
 30
0.0
  0
ARC
  5
E2
330
1F
100
AcDbEntity
  8
0
  6
Continuous
 62
     7
370
    25
100
AcDbCircle
 10
560.8760297483
 20
521.5932036613
 30
0.0
 40
8.399443654264493
100
AcDbArc
 50
190.985757993
 51
169.0142420071
  0
SPLINE
  5
E3
330
1F
100
AcDbEntity
  8
0
  6
Continuous
 62
     7
370
    25
100
AcDbSpline
210
0.0
220
0.0
230
1.0
 70
     8
 71
     3
 72
     9
 73
     5
 74
     0
 42
0.00000001
 43
0.00000001
 40
0.0
 40
0.0
 40
0.0
 40
0.0
 40
0.6817923421274983
 40
1.0
 40
1.0
 40
1.0
 40
1.0
 10
554.1984396036912
 20
527.3681006794496
 30
0.0
 10
554.3407031643343
 20
527.5580110345549
 30
0.0
 10
554.5493642944948
 20
527.8365567784283
 30
0.0
 10
554.778790128375
 20
528.0694611513713
 30
0.0
 10
554.8517951856295
 20
528.1435731063937
 30
0.0
  0
ARC
  5
E4
330
1F
100
AcDbEntity
  8
0
  6
Continuous
 62
     7
370
    25
100
AcDbCircle
 10
560.8760297483
 20
521.5932036613
 30
0.0
 40
8.899367501836458
100
AcDbArc
 50
227.3959191961
 51
132.6040808039
  0
SPLINE
  5
E5
330
1F
100
AcDbEntity
  8
0
  6
Continuous
 62
     7
370
    25
100
AcDbSpline
210
0.0
220
0.0
230
1.0
 70
     8
 71
     3
 72
     9
 73
     5
 74
     0
 42
0.00000001
 43
0.00000001
 40
0.0
 40
0.0
 40
0.0
 40
0.0
 40
0.4941867114119646
 40
1.0
 40
1.0
 40
1.0
 40
1.0
 10
554.8517951856295
 20
515.0428342162605
 30
0.0
 10
554.7413048816919
 20
515.161024291522
 30
0.0
 10
554.5177248027743
 20
515.4001850632144
 30
0.0
 10
554.3056897506851
 20
515.6778566597922
 30
0.0
 10
554.198439603692
 20
515.8183066432046
 30
0.0
  0
SPLINE
  5
E6
330
1F
100
AcDbEntity
  8
0
  6
Continuous
 62
     7
370
    25
100
AcDbSpline
210
0.0
220
0.0
230
1.0
 70
     8
 71
     3
 72
    11
 73
     7
 74
     0
 42
0.00000001
 43
0.00000001
 40
0.0
 40
0.0
 40
0.0
 40
0.0
 40
0.1851296338675976
 40
0.3702933375482637
 40
0.7405333240509888
 40
1.0
 40
1.0
 40
1.0
 40
1.0
 10
505.3717168233292
 20
524.8990794156624
 30
0.0
 10
508.281305976318
 20
525.0588634655802
 30
0.0
 10
514.1010197403772
 20
525.3784609708252
 30
0.0
 10
525.7413398389411
 20
526.0210398591437
 30
0.0
 10
538.5499825317172
 20
526.7287381273152
 30
0.0
 10
548.4471898120652
 20
527.277555308182
 30
0.0
 10
552.5252719212998
 20
527.5036919811985
 30
0.0
  0
ARC
  5
E7
330
1F
100
AcDbEntity
  8
0
  6
Continuous
 62
     7
370
    25
100
AcDbCircle
 10
545.3101827141
 20
526.7503056145
 30
0.0
 40
7.254316183201653
100
AcDbArc
 50
2.3501399448
 51
5.9611177314
  0
ARC
  5
E8
330
1F
100
AcDbEntity
  8
0
  6
Continuous
 62
     7
370
    25
100
AcDbCircle
 10
509.6322393646
 20
524.7883225917
 30
0.0
 40
4.261961918957724
100
AcDbArc
 50
178.5108705387
 51
184.4691613064
  0
SPLINE
  5
E9
330
1F
100
AcDbEntity
  8
0
  6
Continuous
 62
     7
370
    25
100
AcDbSpline
210
0.0
220
0.0
230
1.0
 70
     8
 71
     3
 72
    10
 73
     6
 74
     0
 42
0.00000001
 43
0.00000001
 40
0.0
 40
0.0
 40
0.0
 40
0.0
 40
0.3702717503651153
 40
0.7405122151371735
 40
1.0
 40
1.0
 40
1.0
 40
1.0
 10
552.5252719212998
 20
515.6827153414561
 30
0.0
 10
546.7055998596306
 20
516.005243827124
 30
0.0
 10
535.0667474613338
 20
516.650273546867
 30
0.0
 10
519.3476078773792
 20
517.5190880343458
 30
0.0
 10
509.4501104536805
 20
518.0631429451126
 30
0.0
 10
505.3717168233325
 20
518.2873279069919
 30
0.0
  0
ARC
  5
EA
330
1F
100
AcDbEntity
  8
0
  6
Continuous
 62
     7
370
    25
100
AcDbCircle
 10
509.6322393674
 20
518.3980847309
 30
0.0
 40
4.261961921766334
100
AcDbArc
 50
175.530838696
 51
181.4891294598
  0
ARC
  5
EB
330
1F
100
AcDbEntity
  8
0
  6
Continuous
 62
     7
370
    25
100
AcDbCircle
 10
545.3101827139
 20
516.4361017081
 30
0.0
 40
7.254316183335417
100
AcDbArc
 50
354.0388822686
 51
357.6498600552
  0
SPLINE
  5
EC
330
1F
100
AcDbEntity
  8
0
  6
Continuous
 62
     7
370
    25
100
AcDbSpline
210
0.0
220
0.0
230
1.0
 70
     8
 71
     3
 72
    12
 73
     8
 74
     0
 42
0.00000001
 43
0.00000001
 40
0.0
 40
0.0
 40
0.0
 40
0.0
 40
0.1224290494151408
 40
0.3423522449770226
 40
0.5614228816909415
 40
0.7807229538533408
 40
1.0
 40
1.0
 40
1.0
 40
1.0
 10
503.4475088536598
 20
518.8408618574834
 30
0.0
 10
503.4565129295239
 20
518.8385031730426
 30
0.0
 10
503.4816913132551
 20
518.8319075087178
 30
0.0
 10
503.6976789968995
 20
518.8148995409786
 30
0.0
 10
504.1335771266288
 20
518.789388566824
 30
0.0
 10
504.717502740059
 20
518.7598363842649
 30
0.0
 10
505.1613328716271
 20
518.7400701073858
 30
0.0
 10
505.3832362865074
 20
518.7301874878272
 30
0.0
  0
SPLINE
  5
ED
330
1F
100
AcDbEntity
  8
0
  6
Continuous
 62
     7
370
    25
100
AcDbSpline
210
0.0
220
0.0
230
1.0
 70
     8
 71
     3
 72
    11
 73
     7
 74
     0
 42
0.00000001
 43
0.00000001
 40
0.0
 40
0.0
 40
0.0
 40
0.0
 40
0.0800485240044343
 40
0.500000585353891
 40
0.9209248322279646
 40
1.0
 40
1.0
 40
1.0
 40
1.0
 10
503.4475088536598
 20
518.8408618574834
 30
0.0
 10
503.4477950980739
 20
518.987106282584
 30
0.0
 10
503.4495830432784
 20
519.9005809414173
 30
0.0
 10
503.4508187401088
 20
521.5949905291757
 30
0.0
 10
503.4495810420136
 20
523.2876173810304
 30
0.0
 10
503.4477918200457
 20
524.2010807566742
 30
0.0
 10
503.4475088536598
 20
524.3455454651654
 30
0.0
  0
SPLINE
  5
EE
330
1F
100
AcDbEntity
  8
0
  6
Continuous
 62
     7
370
    25
100
AcDbSpline
210
0.0
220
0.0
230
1.0
 70
     8
 71
     3
 72
    12
 73
     8
 74
     0
 42
0.00000001
 43
0.00000001
 40
0.0
 40
0.0
 40
0.0
 40
0.0
 40
0.1130367476169231
 40
0.3328594693547942
 40
0.5544127937944856
 40
0.7774207483513269
 40
1.0
 40
1.0
 40
1.0
 40
1.0
 10
505.3832362865075
 20
524.4562198348292
 30
0.0
 10
505.2691654465206
 20
524.4512045891278
 30
0.0
 10
504.9332608839127
 20
524.4364361880719
 30
0.0
 10
504.399193027518
 20
524.4108439839625
 30
0.0
 10
503.8826673896309
 20
524.3829687210916
 30
0.0
 10
503.5257726724763
 20
524.359526847501
 30
0.0
 10
503.4735800549579
 20
524.3502029357413
 30
0.0
 10
503.4475088536598
 20
524.3455454651654
 30
0.0
  0
SPLINE
  5
EF
330
1F
100
AcDbEntity
  8
0
  6
Continuous
 62
     7
370
    25
100
AcDbSpline
210
0.0
220
0.0
230
1.0
 70
     8
 71
     3
 72
     9
 73
     5
 74
     0
 42
0.00000001
 43
0.00000001
 40
0.0
 40
0.0
 40
0.0
 40
0.0
 40
0.5000106123815413
 40
1.0
 40
1.0
 40
1.0
 40
1.0
 10
555.3514030344725
 20
514.6110025270143
 30
0.0
 10
554.9216816676517
 20
514.8988430651076
 30
0.0
 10
554.0622571750911
 20
515.474511922859
 30
0.0
 10
553.0375930898128
 20
515.6133151839458
 30
0.0
 10
552.5252719212998
 20
515.6827153414561
 30
0.0
  0
SPLINE
  5
F0
330
1F
100
AcDbEntity
  8
0
  6
Continuous
 62
     7
370
    25
100
AcDbSpline
210
0.0
220
0.0
230
1.0
 70
     8
 71
     3
 72
     9
 73
     5
 74
     0
 42
0.00000001
 43
0.00000001
 40
0.0
 40
0.0
 40
0.0
 40
0.0
 40
0.9838702326459098
 40
1.0
 40
1.0
 40
1.0
 40
1.0
 10
554.8517951856295
 20
515.0428342162605
 30
0.0
 10
555.0131360005643
 20
514.898001803242
 30
0.0
 10
555.1771218694128
 20
514.7507949783854
 30
0.0
 10
555.3486365426946
 20
514.6132215543382
 30
0.0
 10
555.3514030344725
 20
514.6110025270143
 30
0.0
  0
SPLINE
  5
F1
330
1F
100
AcDbEntity
  8
0
  6
Continuous
 62
     7
370
    25
100
AcDbSpline
210
0.0
220
0.0
230
1.0
 70
     8
 71
     3
 72
     9
 73
     5
 74
     0
 42
0.00000001
 43
0.00000001
 40
0.0
 40
0.0
 40
0.0
 40
0.0
 40
0.5055561057107117
 40
1.0
 40
1.0
 40
1.0
 40
1.0
 10
552.5252719212998
 20
527.5036919811985
 30
0.0
 10
553.0433314386329
 20
527.5743480154684
 30
0.0
 10
554.0680634347083
 20
527.714107052046
 30
0.0
 10
554.9268040034698
 20
528.2904403268417
 30
0.0
 10
555.3514030344725
 20
528.5754047956401
 30
0.0
  0
SPLINE
  5
F2
330
1F
100
AcDbEntity
  8
0
  6
Continuous
 62
     7
370
    25
100
AcDbSpline
210
0.0
220
0.0
230
1.0
 70
     8
 71
     3
 72
     9
 73
     5
 74
     0
 42
0.00000001
 43
0.00000001
 40
0.0
 40
0.0
 40
0.0
 40
0.0
 40
0.0161297673533699
 40
1.0
 40
1.0
 40
1.0
 40
1.0
 10
555.3514030344725
 20
528.5754047956401
 30
0.0
 10
555.3486365426947
 20
528.5731857683162
 30
0.0
 10
555.1771218694086
 20
528.4356123442662
 30
0.0
 10
555.0131360005622
 20
528.2884055194112
 30
0.0
 10
554.8517951856295
 20
528.1435731063937
 30
0.0
  0
SPLINE
  5
F3
330
1F
100
AcDbEntity
  8
0
  6
Continuous
 62
     7
370
    25
100
AcDbSpline
210
0.0
220
0.0
230
1.0
 70
     8
 71
     3
 72
    12
 73
     8
 74
     0
 42
0.00000001
 43
0.00000001
 40
0.0
 40
0.0
 40
0.0
 40
0.0
 40
0.2230315344150065
 40
0.4461337558340091
 40
0.6675099896777056
 40
0.8870667292264937
 40
1.0
 40
1.0
 40
1.0
 40
1.0
 10
503.9198631187444
 20
524.844708536214
 30
0.0
 10
503.9393969048703
 20
524.8428182889191
 30
0.0
 10
503.9784706681068
 20
524.8390371952398
 30
0.0
 10
504.2460598501628
 20
524.8459800315104
 30
0.0
 10
504.633588933988
 20
524.8615688540002
 30
0.0
 10
505.0343110464511
 20
524.8809061340646
 30
0.0
 10
505.2861704687089
 20
524.8944717352409
 30
0.0
 10
505.3717168233292
 20
524.8990794156624
 30
0.0
  0
ARC
  5
F4
330
1F
100
AcDbEntity
  8
0
  6
Continuous
 62
     7
370
    25
100
AcDbCircle
 10
503.9476087413
 20
524.3453788798
 30
0.0
 40
0.5000999153470841
100
AcDbArc
 50
93.1804119247
 51
179.9809145383
  0
SPLINE
  5
F5
330
1F
100
AcDbEntity
  8
0
  6
Continuous
 62
     7
370
    25
100
AcDbSpline
210
0.0
220
0.0
230
1.0
 70
     8
 71
     3
 72
    12
 73
     8
 74
     0
 42
0.00000001
 43
0.00000001
 40
0.0
 40
0.0
 40
0.0
 40
0.0
 40
0.2190444340109039
 40
0.4380981679380251
 40
0.6571027493691832
 40
0.8772791087290155
 40
1.0
 40
1.0
 40
1.0
 40
1.0
 10
505.3717168233325
 20
518.2873279069919
 30
0.0
 10
505.2052990825617
 20
518.2961567199417
 30
0.0
 10
504.8724565354626
 20
518.3138147206839
 30
0.0
 10
504.4342980928193
 20
518.333333210093
 30
0.0
 10
504.1073322660599
 20
518.3446389937252
 30
0.0
 10
503.9454883890455
 20
518.3464628618019
 30
0.0
 10
503.9266170566335
 20
518.3429544324771
 30
0.0
 10
503.9198631187445
 20
518.3416987864407
 30
0.0
  0
ARC
  5
F6
330
1F
100
AcDbEntity
  8
0
  6
Continuous
 62
     7
370
    25
100
AcDbCircle
 10
503.9476087413
 20
518.8410284428
 30
0.0
 40
0.500099915347086
100
AcDbArc
 50
180.0190854624
 51
266.8195880753
  0
LINE
  5
F7
330
1F
100
AcDbEntity
  8
0
  6
Continuous
 62
     7
370
    25
100
AcDbLine
 10
552.5252719213
 20
527.5036919812
 30
0.0
 11
552.4982857396
 21
527.5749822566
 31
0.0
  0
LINE
  5
F8
330
1F
100
AcDbEntity
  8
0
  6
Continuous
 62
     7
370
    25
100
AcDbLine
 10
503.9151727581
 20
524.8491469893
 30
0.0
 11
503.9198631187
 21
524.8447085362
 31
0.0
  0
ELLIPSE
  5
F9
330
1F
100
AcDbEntity
  8
0
  6
Continuous
 62
     7
370
    25
100
AcDbEllipse
 10
505.4149443008
 20
524.9324394393
 30
0.0
 11
1.499999304622747
 21
0.08287263343856921
 31
0.0
210
0.0
220
0.0
230
1.0
 40
0.0174284859
 41
2.255125316698056
 42
3.158083049615084
  0
LINE
  5
FA
330
1F
100
AcDbEntity
  8
0
  6
Continuous
 62
     7
370
    25
100
AcDbLine
 10
507.9305589698
 20
525.1411990273
 30
0.0
 11
504.4655957604
 21
524.9003077483
 31
0.0
  0
LINE
  5
FB
330
1F
100
AcDbEntity
  8
0
  6
Continuous
 62
     7
370
    25
100
AcDbLine
 10
507.9305589698
 20
525.1411006361
 30
0.0
 11
507.9305589698
 21
525.1411990273
 31
0.0
  0
ELLIPSE
  5
FC
330
1F
100
AcDbEntity
  8
0
  6
Continuous
 62
     7
370
    25
100
AcDbEllipse
 10
517.3800453908
 20
525.4707466875
 30
0.0
 11
14.4999932780205
 21
0.8011021232407529
 31
0.0
210
0.0
220
0.0
230
1.0
 40
0.0174284859
 41
1.543516838852419
 42
2.279642175408009
  0
ELLIPSE
  5
FD
330
1F
100
AcDbEntity
  8
0
  6
Continuous
 62
     7
370
    25
100
AcDbEllipse
 10
518.7010553063
 20
526.4210302368
 30
0.0
 11
35.70262504606012
 21
1.972514619921981
 31
0.0
210
0.0
220
0.0
230
1.0
 40
0.0174284859
 41
4.685109492442207
 42
5.167309992307956
  0
ELLIPSE
  5
FE
330
1F
100
AcDbEntity
  8
0
  6
Continuous
 62
     7
370
    25
100
AcDbEllipse
 10
537.7212827784
 20
526.7934262966
 30
0.0
 11
7.499996523113964
 21
0.4143631671935282
 31
0.0
210
0.0
220
0.0
230
1.0
 40
0.0174284859
 41
1.83482668100791
 42
2.025717338717957
  0
LINE
  5
FF
330
1F
100
AcDbEntity
  8
0
  6
Continuous
 62
     7
370
    25
100
AcDbLine
 10
535.7766303773
 20
526.6610818454
 30
0.0
 11
535.75701212
 21
526.8114723899
 31
0.0
  0
SPLINE
  5
100
330
1F
100
AcDbEntity
  8
0
  6
Continuous
 62
     7
370
    25
100
AcDbSpline
210
0.0
220
0.0
230
1.0
 70
     8
 71
     3
 72
    10
 73
     6
 74
     0
 42
0.00000001
 43
0.00000001
 40
0.0
 40
0.0
 40
0.0
 40
0.0
 40
0.0186368637458698
 40
0.3939469944633808
 40
1.0
 40
1.0
 40
1.0
 40
1.0
 10
535.9604016630302
 20
526.6615682126023
 30
0.0
 10
535.9579454557814
 20
526.661480462123
 30
0.0
 10
535.9060260193042
 20
526.6596255879298
 30
0.0
 10
535.8020271708265
 20
526.6569456065521
 30
0.0
 10
535.7863265134772
 20
526.6595026879495
 30
0.0
 10
535.7766303773336
 20
526.6610818453573
 30
0.0
  0
LINE
  5
101
330
1F
100
AcDbEntity
  8
0
  6
Continuous
 62
     7
370
    25
100
AcDbLine
 10
552.4982857396
 20
527.5749822566
 30
0.0
 11
535.960401663
 21
526.6615682126
 31
0.0
  0
LINE
  5
102
330
1F
100
AcDbEntity
  8
0
  6
Continuous
 62
     7
370
    25
100
AcDbLine
 10
535.9583359311
 20
516.5086354612
 30
0.0
 11
552.4922443546
 21
515.595440999
 31
0.0
  0
SPLINE
  5
103
330
1F
100
AcDbEntity
  8
0
  6
Continuous
 62
     7
370
    25
100
AcDbSpline
210
0.0
220
0.0
230
1.0
 70
     8
 71
     3
 72
    11
 73
     7
 74
     0
 42
0.00000001
 43
0.00000001
 40
0.0
 40
0.0
 40
0.0
 40
0.0
 40
0.417746929449508
 40
0.83927706624105
 40
0.9817832068818855
 40
1.0
 40
1.0
 40
1.0
 40
1.0
 10
535.7746304904618
 20
516.5099849065105
 30
0.0
 10
535.7792675184936
 20
516.5110680976942
 30
0.0
 10
535.788583568495
 20
516.5132442896772
 30
0.0
 10
535.8640800342453
 20
516.5120421127858
 30
0.0
 10
535.9343402348171
 20
516.5095715854459
 30
0.0
 10
535.9558930714749
 20
516.5087307624889
 30
0.0
 10
535.9583359311049
 20
516.5086354612305
 30
0.0
  0
LINE
  5
104
330
1F
100
AcDbEntity
  8
0
  6
Continuous
 62
     7
370
    25
100
AcDbLine
 10
535.75701212
 20
516.3749349327
 30
0.0
 11
535.7746304905
 21
516.5099849065
 31
0.0
  0
ELLIPSE
  5
105
330
1F
100
AcDbEntity
  8
0
  6
Continuous
 62
     7
370
    25
100
AcDbEllipse
 10
537.7212827784
 20
516.3929810261
 30
0.0
 11
7.499996523113964
 21
-0.4143631671934145
 31
0.0
210
0.0
220
0.0
230
1.0
 40
0.0174284859
 41
4.257467968461991
 42
4.448358626171672
  0
ELLIPSE
  5
106
330
1F
100
AcDbEntity
  8
0
  6
Continuous
 62
     7
370
    25
100
AcDbEllipse
 10
518.7010553063
 20
516.7653770858
 30
0.0
 11
35.70262504606012
 21
-1.972514619921981
 31
0.0
210
0.0
220
0.0
230
1.0
 40
0.0174284859
 41
1.115875314871708
 42
1.598075814737373
  0
ELLIPSE
  5
107
330
1F
100
AcDbEntity
  8
0
  6
Continuous
 62
     7
370
    25
100
AcDbEllipse
 10
517.3800453908
 20
517.7156606351
 30
0.0
 11
14.4999932780205
 21
-0.8011021232407529
 31
0.0
210
0.0
220
0.0
230
1.0
 40
0.0174284859
 41
4.003543131771904
 42
4.739668468327189
  0
LINE
  5
108
330
1F
100
AcDbEntity
  8
0
  6
Continuous
 62
     7
370
    25
100
AcDbLine
 10
507.9305589698
 20
518.0452082954
 30
0.0
 11
507.9305589698
 21
518.0453066866
 31
0.0
  0
LINE
  5
109
330
1F
100
AcDbEntity
  8
0
  6
Continuous
 62
     7
370
    25
100
AcDbLine
 10
504.4655957604
 20
518.2860995743
 30
0.0
 11
507.9305589698
 21
518.0452082954
 31
0.0
  0
ELLIPSE
  5
10A
330
1F
100
AcDbEntity
  8
0
  6
Continuous
 62
     7
370
    25
100
AcDbEllipse
 10
505.4149443008
 20
518.2539678834
 30
0.0
 11
1.499999304622747
 21
-0.08287263343868288
 31
0.0
210
0.0
220
0.0
230
1.0
 40
0.0174284859
 41
3.125102257565118
 42
4.028059990478688
  0
LINE
  5
10B
330
1F
100
AcDbEntity
  8
0
  6
Continuous
 62
     7
370
    25
100
AcDbLine
 10
503.9198631187
 20
518.3416987864
 30
0.0
 11
503.9151727581
 21
518.3372603334
 31
0.0
  0
LINE
  5
10C
330
1F
100
AcDbEntity
  8
0
  6
Continuous
 62
     7
370
    25
100
AcDbLine
 10
552.4922443546
 20
515.595440999
 30
0.0
 11
552.5252719213
 21
515.6827153415
 31
0.0
  0
SPLINE
  5
10D
330
1F
100
AcDbEntity
  8
0
  6
Continuous
 62
     7
370
    25
100
AcDbSpline
210
0.0
220
0.0
230
1.0
 70
     8
 71
     3
 72
     9
 73
     5
 74
     0
 42
0.00000001
 43
0.00000001
 40
0.0
 40
0.0
 40
0.0
 40
0.0
 40
0.5001021276704758
 40
1.0
 40
1.0
 40
1.0
 40
1.0
 10
555.318184168417
 20
528.6410962426003
 30
0.0
 10
554.8892363927097
 20
528.3545706085117
 30
0.0
 10
554.0315160352591
 20
527.7816363652139
 30
0.0
 10
553.0092929066441
 20
527.6438575787597
 30
0.0
 10
552.4982857396034
 20
527.5749822565592
 30
0.0
  0
LINE
  5
10E
330
1F
100
AcDbEntity
  8
0
  6
Continuous
 62
     7
370
    25
100
AcDbLine
 10
555.3181841684
 20
528.6410962426
 30
0.0
 11
555.3514030345
 21
528.5754047956
 31
0.0
  0
SPLINE
  5
10F
330
1F
100
AcDbEntity
  8
0
  6
Continuous
 62
     7
370
    25
100
AcDbSpline
210
0.0
220
0.0
230
1.0
 70
     8
 71
     3
 72
     9
 73
     5
 74
     0
 42
0.00000001
 43
0.00000001
 40
0.0
 40
0.0
 40
0.0
 40
0.0
 40
0.4007227371565442
 40
1.0
 40
1.0
 40
1.0
 40
1.0
 10
552.4922443545516
 20
515.5954409990159
 30
0.0
 10
552.900930477961
 20
515.5470337369502
 30
0.0
 10
553.9208030370007
 20
515.4262338482064
 30
0.0
 10
554.7898790808266
 20
514.8661265748527
 30
0.0
 10
555.3106965935734
 20
514.5304670211787
 30
0.0
  0
LINE
  5
110
330
1F
100
AcDbEntity
  8
0
  6
Continuous
 62
     7
370
    25
100
AcDbLine
 10
555.3514030345
 20
514.611002527
 30
0.0
 11
555.3106965936
 21
514.5304670212
 31
0.0
  0
ARC
  5
111
330
1F
100
AcDbEntity
  8
0
  6
Continuous
 62
     7
370
    25
100
AcDbCircle
 10
560.8760297483
 20
521.5932036613
 30
0.0
 40
8.975658044222053
100
AcDbArc
 50
65.1648853947
 51
128.2586979829
  0
LWPOLYLINE
  5
112
330
1F
100
AcDbEntity
  8
0
  6
Continuous
 62
     7
370
    25
100
AcDbPolyline
 90
        3
 70
   128
 43
0.0
 10
564.8113431725
 20
529.8438633846
 10
564.7067616084
 20
529.7776109734
 10
564.6458810657
 20
529.7387950071
  0
ARC
  5
113
330
1F
100
AcDbEntity
  8
0
  6
Continuous
 62
     7
370
    25
100
AcDbCircle
 10
560.8760297483
 20
521.5932036613
 30
0.0
 40
9.141120151092256
100
AcDbArc
 50
295.4997164176
 51
64.5002794289
  0
LWPOLYLINE
  5
114
330
1F
100
AcDbEntity
  8
0
  6
Continuous
 62
     7
370
    25
100
AcDbPolyline
 90
        3
 70
   128
 43
0.0
 10
564.6621739761
 20
513.4372062449
 10
564.7067616084
 20
513.4087963493
 10
564.8113431728
 20
513.3425439378
  0
ARC
  5
115
330
1F
100
AcDbEntity
  8
0
  6
Continuous
 62
     7
370
    25
100
AcDbCircle
 10
560.8760297483
 20
521.5932036613
 30
0.0
 40
8.991950954660814
100
AcDbArc
 50
231.762407147
 51
294.9014811666
  0
LINE
  5
116
330
1F
100
AcDbEntity
  8
0
  6
Continuous
 62
     7
370
    25
100
AcDbLine
 10
503.442818493
 20
518.8364234044
 30
0.0
 11
503.4475088537
 21
518.8408618575
 31
0.0
  0
LINE
  5
117
330
1F
100
AcDbEntity
  8
0
  6
Continuous
 62
     7
370
    25
100
AcDbLine
 10
503.442818493
 20
524.3499839182
 30
0.0
 11
503.442818493
 21
518.8364234044
 31
0.0
  0
LINE
  5
118
330
1F
100
AcDbEntity
  8
0
  6
Continuous
 62
     7
370
    25
100
AcDbLine
 10
503.4475088537
 20
524.3455454652
 30
0.0
 11
503.442818493
 21
524.3499839182
 31
0.0
  0
ARC
  5
119
330
1F
100
AcDbEntity
  8
0
  6
Continuous
 62
     7
370
    25
100
AcDbCircle
 10
503.9429183806
 20
518.8365899898
 30
0.0
 40
0.5000999153473116
100
AcDbArc
 50
180.0190854618
 51
266.8195880752
  0
ARC
  5
11A
330
1F
100
AcDbEntity
  8
0
  6
Continuous
 62
     7
370
    25
100
AcDbCircle
 10
503.9429183806
 20
524.3498173329
 30
0.0
 40
0.5000999153469703
100
AcDbArc
 50
93.1804119247
 51
179.9809145383
  0
LINE
  5
11B
330
1F
100
AcDbEntity
  8
0
  6
Continuous
 62
     7
370
    25
100
AcDbLine
 10
504.4655957604
 20
524.9003077483
 30
0.0
 11
504.4584880296
 21
524.8999407117
 31
0.0
  0
LINE
  5
11C
330
1F
100
AcDbEntity
  8
0
  6
Continuous
 62
     7
370
    25
100
AcDbLine
 10
504.4655957604
 20
518.2860995743
 30
0.0
 11
504.4584880296
 21
518.286466611
 31
0.0
  0
SPLINE
  5
11D
330
1F
100
AcDbEntity
  8
0
  6
Continuous
 62
     7
370
    25
100
AcDbSpline
210
0.0
220
0.0
230
1.0
 70
     8
 71
     3
 72
    12
 73
     8
 74
     0
 42
0.00000001
 43
0.00000001
 40
0.0
 40
0.0
 40
0.0
 40
0.0
 40
0.1345419440893861
 40
0.4125227334043415
 40
0.6966514762099344
 40
0.8475579366075753
 40
1.0
 40
1.0
 40
1.0
 40
1.0
 10
564.6466596721078
 20
529.7396016241476
 30
0.0
 10
564.2173022486778
 20
529.9304270707399
 30
0.0
 10
562.9008377132533
 20
530.5155221900663
 30
0.0
 10
560.5272097692309
 20
531.1404708388573
 30
0.0
 10
558.002263337157
 20
531.4418264743498
 30
0.0
 10
555.8573256183801
 20
531.5474131439543
 30
0.0
 10
554.7209779116944
 20
531.5530461116509
 30
0.0
 10
554.1499278634723
 20
531.5558768530304
 30
0.0
  0
ARC
  5
11E
330
1F
100
AcDbEntity
  8
0
  6
Continuous
 62
     7
370
    25
100
AcDbCircle
 10
558.6424588565
 20
530.9360528085
 30
0.0
 40
4.535087272519783
100
AcDbArc
 50
149.0284626407
 51
172.1446266983
  0
SPLINE
  5
11F
330
1F
100
AcDbEntity
  8
0
  6
Continuous
 62
     7
370
    25
100
AcDbSpline
210
0.0
220
0.0
230
1.0
 70
     8
 71
     3
 72
    12
 73
     8
 74
     0
 42
0.00000001
 43
0.00000001
 40
0.0
 40
0.0
 40
0.0
 40
0.0
 40
0.1662426524176547
 40
0.3368059756191312
 40
0.6054181071254572
 40
0.8801435087136176
 40
1.0
 40
1.0
 40
1.0
 40
1.0
 10
554.7539705009733
 20
533.2698640429982
 30
0.0
 10
555.3916520215095
 20
533.1143788675153
 30
0.0
 10
556.68358849831
 20
532.79936743416
 30
0.0
 10
558.8677748806595
 20
532.1364023291613
 30
0.0
 10
561.2297492242192
 20
531.2842074123561
 30
0.0
 10
563.1952867861116
 20
530.4415787337441
 30
0.0
 10
564.3090617709073
 20
529.9037206410487
 30
0.0
 10
564.6473772490649
 20
529.7403431902214
 30
0.0
  0
LINE
  5
120
330
1F
100
AcDbEntity
  8
0
  6
Continuous
 62
     7
370
    25
100
AcDbLine
 10
564.6473772491
 20
529.7403431902
 30
0.0
 11
564.6466596721
 21
529.7396016241
 31
0.0
  0
LINE
  5
121
330
1F
100
AcDbEntity
  8
0
  6
Continuous
 62
     7
370
    25
100
AcDbLine
 10
554.753970501
 20
533.269864043
 30
0.0
 11
554.7698285779
 21
533.3393375746
 31
0.0
  0
ARC
  5
122
330
1F
100
AcDbEntity
  8
0
  6
Continuous
 62
     7
370
    25
100
AcDbCircle
 10
544.0480503414
 20
486.3677027623
 30
0.0
 40
48.17977797259044
100
AcDbArc
 50
64.4718479123
 51
77.1419190681
  0
LWPOLYLINE
  5
123
330
1F
100
AcDbEntity
  8
0
  6
Continuous
 62
     7
370
    25
100
AcDbPolyline
 90
        3
 70
   128
 43
0.0
 10
564.6473772491
 20
529.7403431902
 10
564.7067650994
 20
529.7778668938
 10
564.8113431722
 20
529.8438649237
  0
LINE
  5
124
330
1F
100
AcDbEntity
  8
0
  6
Continuous
 62
     7
370
    25
100
AcDbLine
 10
555.3181841684
 20
528.6410962426
 30
0.0
 11
553.1203122483
 21
531.428213117
 31
0.0
  0
ARC
  5
125
330
1F
100
AcDbEntity
  8
0
  6
Continuous
 62
     7
370
    25
100
AcDbCircle
 10
560.8760297483
 20
521.5932036613
 30
0.0
 40
12.52511736202722
100
AcDbArc
 50
127.8583068702
 51
128.2586979829
  0
LINE
  5
126
330
1F
100
AcDbEntity
  8
0
  6
Continuous
 62
     7
370
    25
100
AcDbLine
 10
554.1499278635
 20
531.555876853
 30
0.0
 11
553.1892295146
 21
531.4821705993
 31
0.0
  0
LINE
  5
127
330
1F
100
AcDbEntity
  8
0
  6
Continuous
 62
     7
370
    25
100
AcDbLine
 10
564.6458810657
 20
529.7387950071
 30
0.0
 11
564.6466596721
 21
529.7396016241
 31
0.0
  0
LINE
  5
128
330
1F
100
AcDbEntity
  8
0
  6
Continuous
 62
     7
370
    25
100
AcDbLine
 10
550.2024591878
 20
531.0030491123
 30
0.0
 11
552.3025417039
 21
531.119040061
 31
0.0
  0
LINE
  5
129
330
1F
100
AcDbEntity
  8
0
  6
Continuous
 62
     7
370
    25
100
AcDbLine
 10
552.4982857396
 20
527.5749822566
 30
0.0
 11
552.3025417039
 21
531.119040061
 31
0.0
  0
SPLINE
  5
12A
330
1F
100
AcDbEntity
  8
0
  6
Continuous
 62
     7
370
    25
100
AcDbSpline
210
0.0
220
0.0
230
1.0
 70
     8
 71
     3
 72
    17
 73
    13
 74
     0
 42
0.00000001
 43
0.00000001
 40
0.0
 40
0.0
 40
0.0
 40
0.0
 40
0.2859834379244693
 40
0.5215922644122241
 40
0.7592399016809407
 40
0.85214924050605
 40
0.9266708633836012
 40
0.9605058393195369
 40
0.983541715330858
 40
0.9930790992390823
 40
0.9972256067114856
 40
1.0
 40
1.0
 40
1.0
 40
1.0
 10
548.7617908257243
 20
530.4789054303122
 30
0.0
 10
547.5330126419769
 20
529.947037306292
 30
0.0
 10
545.2918996601462
 20
528.9769870782444
 30
0.0
 10
541.9529509732444
 20
527.9347564074596
 30
0.0
 10
539.4502956065375
 20
527.316937846533
 30
0.0
 10
537.6799893225013
 20
526.9629625373149
 30
0.0
 10
536.8148684871641
 20
526.8082615027021
 30
0.0
 10
536.2892810578885
 20
526.7197615118703
 30
0.0
 10
536.0556189442315
 20
526.6806497490477
 30
0.0
 10
535.977968784742
 20
526.666329982286
 30
0.0
 10
535.961887130542
 20
526.6625962299682
 30
0.0
 10
535.960826742566
 20
526.6618623887734
 30
0.0
 10
535.9604016630302
 20
526.6615682126023
 30
0.0
  0
LINE
  5
12B
330
1F
100
AcDbEntity
  8
0
  6
Continuous
 62
     7
370
    25
100
AcDbLine
 10
550.2024591878
 20
531.0030491123
 30
0.0
 11
548.7617908257
 21
530.4789054303
 31
0.0
  0
ARC
  5
12C
330
1F
100
AcDbEntity
  8
0
  6
Continuous
 62
     7
370
    25
100
AcDbCircle
 10
542.9583580346
 20
526.8698030495
 30
0.0
 40
6.834138728217853
100
AcDbArc
 50
31.8771071303
 51
46.9488007428
  0
SPLINE
  5
12D
330
1F
100
AcDbEntity
  8
0
  6
Continuous
 62
     7
370
    25
100
AcDbSpline
210
0.0
220
0.0
230
1.0
 70
     8
 71
     3
 72
    10
 73
     6
 74
     0
 42
0.00000001
 43
0.00000001
 40
0.0
 40
0.0
 40
0.0
 40
0.0
 40
0.597585536557433
 40
0.9790563563182065
 40
1.0
 40
1.0
 40
1.0
 40
1.0
 10
535.8503763433424
 20
526.6706951099417
 30
0.0
 10
535.8478572039891
 20
526.6669558122152
 30
0.0
 10
535.8437299632085
 20
526.6608295206917
 30
0.0
 10
535.9181010897636
 20
526.6604529618354
 30
0.0
 10
535.9583090418682
 20
526.6615130408358
 30
0.0
 10
535.9604016630302
 20
526.6615682126023
 30
0.0
  0
SPLINE
  5
12E
330
1F
100
AcDbEntity
  8
0
  6
Continuous
 62
     7
370
    25
100
AcDbSpline
210
0.0
220
0.0
230
1.0
 70
     8
 71
     3
 72
    15
 73
    11
 74
     0
 42
0.00000001
 43
0.00000001
 40
0.0
 40
0.0
 40
0.0
 40
0.0
 40
0.01289814015984
 40
0.05194435415656
 40
0.1318327952014351
 40
0.2279057212361154
 40
0.4677439605522689
 40
0.7076088995728957
 40
0.8538517081976971
 40
0.9999999999999999
 40
0.9999999999999999
 40
0.9999999999999999
 40
0.9999999999999999
 10
535.8503763433424
 20
526.6706951099417
 30
0.0
 10
535.8838449468667
 20
526.6785400072292
 30
0.0
 10
536.0186322086772
 20
526.710133563973
 30
0.0
 10
536.4579025886438
 20
526.8125243072817
 30
0.0
 10
537.2693582086284
 20
527.0148458027707
 30
0.0
 10
538.9226245404172
 20
527.4824947020006
 30
0.0
 10
541.2689836711814
 20
528.3140814800358
 30
0.0
 10
543.8125795130086
 20
529.5076720751109
 30
0.0
 10
545.9313569326499
 20
530.7145941198013
 30
0.0
 10
547.0597031742301
 20
531.4808197863033
 30
0.0
 10
547.6236939233589
 20
531.8638087764976
 30
0.0
  0
LWPOLYLINE
  5
12F
330
1F
100
AcDbEntity
  8
0
  6
Continuous
 62
     7
370
    25
100
AcDbPolyline
 90
        4
 70
   128
 43
0.0
 10
535.8308495293
 20
526.8217906862
 10
535.8330941649
 20
526.8044325393
 10
535.8420691989
 20
526.7349997932
 10
535.8503763433
 20
526.6706951099
  0
LINE
  5
130
330
1F
100
AcDbEntity
  8
0
  6
Continuous
 62
     7
370
    25
100
AcDbLine
 10
537.618973813
 20
527.2513181895
 30
0.0
 11
535.8308495293
 21
526.8217906862
 31
0.0
  0
ARC
  5
131
330
1F
100
AcDbEntity
  8
0
  6
Continuous
 62
     7
370
    25
100
AcDbCircle
 10
529.4334154145
 20
557.6770117833
 30
0.0
 40
31.50755777528326
100
AcDbArc
 50
285.0579972479
 51
305.1719294169
  0
LINE
  5
132
330
1F
100
AcDbEntity
  8
0
  6
Continuous
 62
     7
370
    25
100
AcDbLine
 10
547.6236939234
 20
531.8638087765
 30
0.0
 11
547.5827740372
 21
531.9218767895
 31
0.0
  0
SPLINE
  5
133
330
1F
100
AcDbEntity
  8
0
  6
Continuous
 62
     7
370
    25
100
AcDbSpline
210
0.0
220
0.0
230
1.0
 70
     8
 71
     3
 72
     9
 73
     5
 74
     0
 42
0.00000001
 43
0.00000001
 40
0.0
 40
0.0
 40
0.0
 40
0.0
 40
0.4998978730609617
 40
1.0
 40
1.0
 40
1.0
 40
1.0
 10
552.302541703898
 20
531.1190400610031
 30
0.0
 10
552.4507366197938
 20
531.1390063990053
 30
0.0
 10
552.7471870027257
 20
531.1789472330802
 30
0.0
 10
552.9959202315025
 20
531.3451131756507
 30
0.0
 10
553.1203122482541
 20
531.428213116955
 30
0.0
  0
ARC
  5
134
330
1F
100
AcDbEntity
  8
0
  6
Continuous
 62
     7
370
    25
100
AcDbCircle
 10
535.7490410285
 20
527.1603965497
 30
0.0
 40
0.5000763403475459
100
AcDbArc
 50
273.1626296397
 51
281.691363562
  0
SPLINE
  5
135
330
1F
100
AcDbEntity
  8
0
  6
Continuous
 62
     7
370
    25
100
AcDbSpline
210
0.0
220
0.0
230
1.0
 70
     8
 71
     3
 72
    13
 73
     9
 74
     0
 42
0.00000001
 43
0.00000001
 40
0.0
 40
0.0
 40
0.0
 40
0.0
 40
0.0460329529079903
 40
0.2492425848193757
 40
0.4775225570272938
 40
0.705172116868792
 40
0.8526808263814702
 40
1.0
 40
1.0
 40
1.0
 40
1.0
 10
564.663408222755
 20
513.4359319012248
 30
0.0
 10
564.5350735707167
 20
513.3734229327881
 30
0.0
 10
563.8402135112311
 20
513.0349719779108
 30
0.0
 10
562.4805502766545
 20
512.4169945538818
 30
0.0
 10
560.472577659836
 20
511.6065222271686
 30
0.0
 10
558.4580673979331
 20
510.913897425904
 30
0.0
 10
556.5957841166876
 20
510.3636636242059
 30
0.0
 10
555.503414553449
 20
510.0961475131
 30
0.0
 10
554.957580897442
 20
509.9624754465397
 30
0.0
  0
LINE
  5
136
330
1F
100
AcDbEntity
  8
0
  6
Continuous
 62
     7
370
    25
100
AcDbLine
 10
554.5041208196
 20
511.9100779758
 30
0.0
 11
554.9575808974
 21
509.9624754465
 31
0.0
  0
SPLINE
  5
137
330
1F
100
AcDbEntity
  8
0
  6
Continuous
 62
     7
370
    25
100
AcDbSpline
210
0.0
220
0.0
230
1.0
 70
     8
 71
     3
 72
    14
 73
    10
 74
     0
 42
0.00000001
 43
0.00000001
 40
0.0
 40
0.0
 40
0.0
 40
0.0
 40
0.1287979975174464
 40
0.2577402562244546
 40
0.4892610666678019
 40
0.7206947598225004
 40
0.9447692774709466
 40
0.9460214504140287
 40
1.0
 40
1.0
 40
1.0
 40
1.0
 10
554.5041208195549
 20
511.9100779757537
 30
0.0
 10
554.9640682560814
 20
511.8927261240365
 30
0.0
 10
555.8844782968048
 20
511.8580029855269
 30
0.0
 10
557.6105536224061
 20
511.8631957707048
 30
0.0
 10
559.6632200485444
 20
511.991571293614
 30
0.0
 10
561.9779314053515
 20
512.407118685155
 30
0.0
 10
563.4552430251817
 20
512.9062056927096
 30
0.0
 10
564.3265042367193
 20
513.2804490872652
 30
0.0
 10
564.4965506678047
 20
513.3594294541908
 30
0.0
 10
564.6627418616181
 20
513.4366192039747
 30
0.0
  0
LINE
  5
138
330
1F
100
AcDbEntity
  8
0
  6
Continuous
 62
     7
370
    25
100
AcDbLine
 10
564.6627418616
 20
513.436619204
 30
0.0
 11
564.6634082228
 21
513.4359319012
 31
0.0
  0
ARC
  5
139
330
1F
100
AcDbEntity
  8
0
  6
Continuous
 62
     7
370
    25
100
AcDbCircle
 10
544.0480503414
 20
556.8187045603
 30
0.0
 40
48.10950076354631
100
AcDbArc
 50
282.8580809319
 51
283.1066633214
  0
LWPOLYLINE
  5
13A
330
1F
100
AcDbEntity
  8
0
  6
Continuous
 62
     7
370
    25
100
AcDbPolyline
 90
        3
 70
   128
 43
0.0
 10
564.6634082228
 20
513.4359319012
 10
564.7067650994
 20
513.4085404289
 10
564.8113431725
 20
513.3425423988
  0
ARC
  5
13B
330
1F
100
AcDbEntity
  8
0
  6
Continuous
 62
     7
370
    25
100
AcDbCircle
 10
544.0480503414
 20
556.8187045603
 30
0.0
 40
48.17977797259061
100
AcDbArc
 50
282.8580809319
 51
295.5281512988
  0
LINE
  5
13C
330
1F
100
AcDbEntity
  8
0
  6
Continuous
 62
     7
370
    25
100
AcDbLine
 10
554.754189306
 20
509.9155847047
 30
0.0
 11
554.7698285779
 21
509.8470697481
 31
0.0
  0
LINE
  5
13D
330
1F
100
AcDbEntity
  8
0
  6
Continuous
 62
     7
370
    25
100
AcDbLine
 10
552.4922443546
 20
515.595440999
 30
0.0
 11
552.3488825256
 21
512.9997930296
 31
0.0
  0
LINE
  5
13E
330
1F
100
AcDbEntity
  8
0
  6
Continuous
 62
     7
370
    25
100
AcDbLine
 10
552.3488825256
 20
512.9997930296
 30
0.0
 11
548.3988015038
 21
513.2179623832
 31
0.0
  0
SPLINE
  5
13F
330
1F
100
AcDbEntity
  8
0
  6
Continuous
 62
     7
370
    25
100
AcDbSpline
210
0.0
220
0.0
230
1.0
 70
     8
 71
     3
 72
    18
 73
    14
 74
     0
 42
0.00000001
 43
0.00000001
 40
0.0
 40
0.0
 40
0.0
 40
0.0
 40
0.0068251959707206
 40
0.0088434044614839
 40
0.0223953684577813
 40
0.0309542405206889
 40
0.0563126817251111
 40
0.119862815099592
 40
0.1957140481646522
 40
0.3754356489149285
 40
0.5559517461447957
 40
0.7770243168945056
 40
0.9999999999999999
 40
0.9999999999999999
 40
0.9999999999999999
 40
0.9999999999999999
 10
535.9583359311049
 20
516.5086354612305
 30
0.0
 10
535.9619560759987
 20
516.5075972780467
 30
0.0
 10
535.9666466966993
 20
516.5062521043933
 30
0.0
 10
536.0101794119388
 20
516.498662117632
 30
0.0
 10
536.0847112803375
 20
516.4869105828395
 30
0.0
 10
536.251543781258
 20
516.4611918199056
 30
0.0
 10
536.6331153272228
 20
516.4026748733623
 30
0.0
 10
537.3160672625565
 20
516.2935042870572
 30
0.0
 10
538.6606581098339
 20
516.0587110645895
 30
0.0
 10
540.517413838626
 20
515.6814692462175
 30
0.0
 10
542.9863678182553
 20
515.0667121779559
 30
0.0
 10
545.6292330523369
 20
514.2807970658272
 30
0.0
 10
547.472978031563
 20
513.5732514159786
 30
0.0
 10
548.3988015037781
 20
513.2179623832357
 30
0.0
  0
LINE
  5
140
330
1F
100
AcDbEntity
  8
0
  6
Continuous
 62
     7
370
    25
100
AcDbLine
 10
548.3988015038
 20
513.2179623832
 30
0.0
 11
547.2693260863
 21
511.5677905936
 31
0.0
  0
SPLINE
  5
141
330
1F
100
AcDbEntity
  8
0
  6
Continuous
 62
     7
370
    25
100
AcDbSpline
210
0.0
220
0.0
230
1.0
 70
     8
 71
     3
 72
    15
 73
    11
 74
     0
 42
0.00000001
 43
0.00000001
 40
0.0
 40
0.0
 40
0.0
 40
0.0
 40
0.2255198391625388
 40
0.4515645943751977
 40
0.6337799820516989
 40
0.815879032447355
 40
0.8946729146060252
 40
0.9638048440471942
 40
0.9940832206369753
 40
1.0
 40
1.0
 40
1.0
 40
1.0
 10
547.2693260862862
 20
511.5677905935969
 30
0.0
 10
546.4238775454322
 20
512.1127982629384
 30
0.0
 10
544.7310126124244
 20
513.204082151981
 30
0.0
 10
542.2546964187449
 20
514.4211855415737
 30
0.0
 10
539.9262855040338
 20
515.3520853500089
 30
0.0
 10
538.1858060142114
 20
515.9078758948224
 30
0.0
 10
536.9281371578417
 20
516.2444287217867
 30
0.0
 10
536.2840042599294
 20
516.3997758281113
 30
0.0
 10
535.9560589698473
 20
516.4753292263786
 30
0.0
 10
535.8635215262232
 20
516.4968499344287
 30
0.0
 10
535.8483945396878
 20
516.5003678991375
 30
0.0
  0
SPLINE
  5
142
330
1F
100
AcDbEntity
  8
0
  6
Continuous
 62
     7
370
    25
100
AcDbSpline
210
0.0
220
0.0
230
1.0
 70
     8
 71
     3
 72
    11
 73
     7
 74
     0
 42
0.00000001
 43
0.00000001
 40
0.0
 40
0.0
 40
0.0
 40
0.0
 40
0.0195561212296721
 40
0.1681891996745123
 40
0.5898876540792167
 40
1.0
 40
1.0
 40
1.0
 40
1.0
 10
535.9583359311049
 20
516.5086354612305
 30
0.0
 10
535.9563772179567
 20
516.5086935749462
 30
0.0
 10
535.9395316281339
 20
516.5091933723867
 30
0.0
 10
535.887631064375
 20
516.5100397898003
 30
0.0
 10
535.8383464323092
 20
516.5079504912783
 30
0.0
 10
535.8450764173857
 20
516.5028718500948
 30
0.0
 10
535.8483945396878
 20
516.5003678991374
 30
0.0
  0
LINE
  5
143
330
1F
100
AcDbEntity
  8
0
  6
Continuous
 62
     7
370
    25
100
AcDbLine
 10
555.3106965936
 20
514.5304670212
 30
0.0
 11
553.7017396003
 21
512.4886055202
 31
0.0
  0
LINE
  5
144
330
1F
100
AcDbEntity
  8
0
  6
Continuous
 62
     7
370
    25
100
AcDbLine
 10
564.6627418616
 20
513.436619204
 30
0.0
 11
564.6621739761
 21
513.4372062449
 31
0.0
  0
ARC
  5
145
330
1F
100
AcDbEntity
  8
0
  6
Continuous
 62
     7
370
    25
100
AcDbCircle
 10
560.8760297483
 20
521.5932036613
 30
0.0
 40
11.59155496206738
100
AcDbArc
 50
231.762407147
 51
236.6533814372
  0
LWPOLYLINE
  5
146
330
1F
100
AcDbEntity
  8
0
  6
Continuous
 62
     7
370
    25
100
AcDbPolyline
 90
        4
 70
   128
 43
0.0
 10
535.8483945397
 20
516.5003678991
 10
535.8461522934
 20
516.4830096441
 10
535.8371798105
 20
516.4135767825
 10
535.8308495293
 20
516.3646166365
  0
ARC
  5
147
330
1F
100
AcDbEntity
  8
0
  6
Continuous
 62
     7
370
    25
100
AcDbCircle
 10
529.4334154145
 20
485.5093955393
 30
0.0
 40
31.57783498432753
100
AcDbArc
 50
54.8280705831
 51
55.6099480104
  0
LINE
  5
148
330
1F
100
AcDbEntity
  8
0
  6
Continuous
 62
     7
370
    25
100
AcDbLine
 10
547.623255952
 20
511.3219770359
 30
0.0
 11
547.5827740372
 21
511.2645305331
 31
0.0
  0
ARC
  5
149
330
1F
100
AcDbEntity
  8
0
  6
Continuous
 62
     7
370
    25
100
AcDbCircle
 10
529.4334154145
 20
485.5093955393
 30
0.0
 40
31.50755777528333
100
AcDbArc
 50
54.8280705831
 51
74.9420027521
  0
LINE
  5
14A
330
1F
100
AcDbEntity
  8
0
  6
Continuous
 62
     7
370
    25
100
AcDbLine
 10
535.8308495293
 20
516.3646166365
 30
0.0
 11
537.618973813
 21
515.9350891332
 31
0.0
  0
LINE
  5
14B
330
1F
100
AcDbEntity
  8
0
  6
Continuous
 62
     7
370
    25
100
AcDbLine
 10
535.75701212
 20
526.8114723899
 30
0.0
 11
535.8308495293
 21
526.8217906862
 31
0.0
  0
SPLINE
  5
14C
330
1F
100
AcDbEntity
  8
0
  6
Continuous
 62
     7
370
    25
100
AcDbSpline
210
0.0
220
0.0
230
1.0
 70
     8
 71
     3
 72
    10
 73
     6
 74
     0
 42
0.00000001
 43
0.00000001
 40
0.0
 40
0.0
 40
0.0
 40
0.0
 40
0.0490769085761636
 40
0.5995805843665465
 40
1.0
 40
1.0
 40
1.0
 40
1.0
 10
553.701739600315
 20
512.4886055202023
 30
0.0
 10
553.682792061946
 20
512.5032282558037
 30
0.0
 10
553.4513069000392
 20
512.681876597993
 30
0.0
 10
553.0054331252221
 20
512.915928591414
 30
0.0
 10
552.5434265483375
 20
512.9749429644316
 30
0.0
 10
552.348882525584
 20
512.999793029564
 30
0.0
  0
ARC
  5
14D
330
1F
100
AcDbEntity
  8
0
  6
Continuous
 62
     7
370
    25
100
AcDbCircle
 10
535.7470411387
 20
516.0106702021
 30
0.0
 40
0.500076340518995
100
AcDbArc
 50
78.306520338
 51
86.8373700346
  0
SPLINE
  5
14E
330
1F
100
AcDbEntity
  8
0
  6
Continuous
 62
     7
370
    25
100
AcDbSpline
210
0.0
220
0.0
230
1.0
 70
     8
 71
     3
 72
     9
 73
     5
 74
     0
 42
0.00000001
 43
0.00000001
 40
0.0
 40
0.0
 40
0.0
 40
0.0
 40
0.8458911907780411
 40
1.0
 40
1.0
 40
1.0
 40
1.0
 10
535.8308495292773
 20
516.3646166364512
 30
0.0
 10
535.8100089331662
 20
516.3684314434435
 30
0.0
 10
535.7853714900313
 20
516.3729412516008
 30
0.0
 10
535.7607989628551
 20
516.3746687153517
 30
0.0
 10
535.7570121199524
 20
516.3749349327335
 30
0.0
  0
LINE
  5
14F
330
1F
100
AcDbEntity
  8
0
  6
Continuous
 62
     7
370
    25
100
AcDbLine
 10
547.6236939234
 20
531.8638087765
 30
0.0
 11
549.4624347727
 21
532.8607750122
 31
0.0
  0
LINE
  5
150
330
1F
100
AcDbEntity
  8
0
  6
Continuous
 62
     7
370
    25
100
AcDbLine
 10
550.2024591878
 20
531.0030491123
 30
0.0
 11
549.4624347727
 21
532.8607750122
 31
0.0
  0
LINE
  5
151
330
1F
100
AcDbEntity
  8
0
  6
Continuous
 62
     7
370
    25
100
AcDbLine
 10
553.1892295146
 20
531.4821705993
 30
0.0
 11
553.3110632612
 21
533.4781511083
 31
0.0
  0
LINE
  5
152
330
1F
100
AcDbEntity
  8
0
  6
Continuous
 62
     7
370
    25
100
AcDbLine
 10
553.3110632612
 20
533.4781511083
 30
0.0
 11
554.753970501
 21
533.269864043
 31
0.0
  0
ARC
  5
153
330
1F
100
AcDbEntity
  8
0
  6
Continuous
 62
     7
370
    25
100
AcDbCircle
 10
529.4334154145
 20
485.5093955393
 30
0.0
 40
33.57753037464042
100
AcDbArc
 50
54.8280705831
 51
55.6099480104
  0
LINE
  5
154
330
1F
100
AcDbEntity
  8
0
  6
Continuous
 62
     7
370
    25
100
AcDbLine
 10
548.7751443031
 20
512.9565824563
 30
0.0
 11
547.623255952
 21
511.3219770359
 31
0.0
  0
ARC
  5
155
330
1F
100
AcDbEntity
  8
0
  6
Continuous
 62
     7
370
    25
100
AcDbCircle
 10
544.0480503414
 20
556.8187045603
 30
0.0
 40
46.10980537323352
100
AcDbArc
 50
282.8580809319
 51
283.1066633214
  0
LINE
  5
156
330
1F
100
AcDbEntity
  8
0
  6
Continuous
 62
     7
370
    25
100
AcDbLine
 10
554.309183301
 20
511.865136271
 30
0.0
 11
554.754189306
 21
509.9155847047
 31
0.0
  0
ARC
  5
157
330
1F
100
AcDbEntity
  8
0
  6
Continuous
 62
     7
370
    25
100
AcDbCircle
 10
552.7670145431
 20
524.5650981371
 30
0.0
 40
6.929946387144418
100
AcDbArc
 50
86.5070253286
 51
111.7198462835
  0
ARC
  5
158
330
1F
100
AcDbEntity
  8
0
  6
Continuous
 62
     7
370
    25
100
AcDbCircle
 10
552.7670145431
 20
518.6213091855
 30
0.0
 40
6.929946387144254
100
AcDbArc
 50
234.8280705831
 51
282.8580809319
  0
ARC
  5
159
330
1F
100
AcDbEntity
  8
0
  6
Continuous
 62
     7
370
    25
100
AcDbCircle
 10
552.7670145431
 20
524.5650981371
 30
0.0
 40
8.929641777457228
100
AcDbArc
 50
86.5070253286
 51
111.7198462835
  0
ARC
  5
15A
330
1F
100
AcDbEntity
  8
0
  6
Continuous
 62
     7
370
    25
100
AcDbCircle
 10
552.7670145431
 20
518.6213091855
 30
0.0
 40
8.929641777457046
100
AcDbArc
 50
234.8280705831
 51
282.8580809319
  0
ARC
  5
15B
330
1F
100
AcDbEntity
  8
0
  6
Continuous
 62
     7
370
    25
100
AcDbCircle
 10
552.7670145431
 20
524.5650981371
 30
0.0
 40
8.999918986501363
100
AcDbArc
 50
77.1419190681
 51
125.1719294169
  0
ARC
  5
15C
330
1F
100
AcDbEntity
  8
0
  6
Continuous
 62
     7
370
    25
100
AcDbCircle
 10
552.7670145431
 20
518.6213091855
 30
0.0
 40
8.999918986501244
100
AcDbArc
 50
234.8280705831
 51
282.8580809319
  0
SPLINE
  5
15D
330
1F
100
AcDbEntity
  8
0
  6
Continuous
 62
     7
370
    25
100
AcDbSpline
210
0.0
220
0.0
230
1.0
 70
     8
 71
     3
 72
    11
 73
     7
 74
     0
 42
0.00000001
 43
0.00000001
 40
0.0
 40
0.0
 40
0.0
 40
0.0
 40
0.2200386424382228
 40
0.6637869905998133
 40
0.8890365590789624
 40
1.0
 40
1.0
 40
1.0
 40
1.0
 10
669.1536198928757
 20
527.3681006794499
 30
0.0
 10
669.3578413558773
 20
527.1030820681912
 30
0.0
 10
669.9739129187609
 20
526.3036047378864
 30
0.0
 10
670.4974622697779
 20
525.0404354673584
 30
0.0
 10
670.749091469539
 20
523.8738656540344
 30
0.0
 10
670.7283842748168
 20
523.362585855375
 30
0.0
 10
670.7215500907906
 20
523.1938435279027
 30
0.0
  0
SPLINE
  5
15E
330
1F
100
AcDbEntity
  8
0
  6
Continuous
 62
     7
370
    25
100
AcDbSpline
210
0.0
220
0.0
230
1.0
 70
     8
 71
     3
 72
     9
 73
     5
 74
     0
 42
0.00000001
 43
0.00000001
 40
0.0
 40
0.0
 40
0.0
 40
0.0
 40
0.9209630919903188
 40
1.0
 40
1.0
 40
1.0
 40
1.0
 10
670.7936622561231
 20
527.0477774038163
 30
0.0
 10
670.2792407182502
 20
527.104604462735
 30
0.0
 10
669.7206716047355
 20
527.166308410931
 30
0.0
 10
669.1951550930662
 20
527.3533198718188
 30
0.0
 10
669.1536198928757
 20
527.3681006794499
 30
0.0
  0
SPLINE
  5
15F
330
1F
100
AcDbEntity
  8
0
  6
Continuous
 62
     7
370
    25
100
AcDbSpline
210
0.0
220
0.0
230
1.0
 70
     8
 71
     3
 72
    10
 73
     6
 74
     0
 42
0.00000001
 43
0.00000001
 40
0.0
 40
0.0
 40
0.0
 40
0.0
 40
0.2596150688488825
 40
0.6297606444810656
 40
1.0
 40
1.0
 40
1.0
 40
1.0
 10
717.9688232100602
 20
524.4562198348273
 30
0.0
 10
713.8910029913372
 20
524.7559739719256
 30
0.0
 10
703.9992401579719
 20
525.4831018670898
 30
0.0
 10
688.2696674752988
 20
526.30894873698
 30
0.0
 10
676.6194892140342
 20
526.8014803862457
 30
0.0
 10
670.7936622561231
 20
527.0477774038163
 30
0.0
  0
SPLINE
  5
160
330
1F
100
AcDbEntity
  8
0
  6
Continuous
 62
     7
370
    25
100
AcDbSpline
210
0.0
220
0.0
230
1.0
 70
     8
 71
     3
 72
    11
 73
     7
 74
     0
 42
0.00000001
 43
0.00000001
 40
0.0
 40
0.0
 40
0.0
 40
0.0
 40
0.0614641195413868
 40
0.4999988937835362
 40
0.9375097801832789
 40
1.0
 40
1.0
 40
1.0
 40
1.0
 10
717.9688232100601
 20
518.7301874878253
 30
0.0
 10
717.9804924062624
 20
518.8466444602774
 30
0.0
 10
718.0754190925314
 20
519.7939997276086
 30
0.0
 10
718.1591219197979
 20
521.5912439260568
 30
0.0
 10
718.075551996278
 20
523.3904419502977
 30
0.0
 10
717.9806802912326
 20
524.3378167747308
 30
0.0
 10
717.9688232100602
 20
524.4562198348273
 30
0.0
  0
SPLINE
  5
161
330
1F
100
AcDbEntity
  8
0
  6
Continuous
 62
     7
370
    25
100
AcDbSpline
210
0.0
220
0.0
230
1.0
 70
     8
 71
     3
 72
    11
 73
     7
 74
     0
 42
0.00000001
 43
0.00000001
 40
0.0
 40
0.0
 40
0.0
 40
0.0
 40
0.2594589277291878
 40
0.629600294623741
 40
0.8147836738016273
 40
0.9999999999999999
 40
0.9999999999999999
 40
0.9999999999999999
 40
0.9999999999999999
 10
670.7936622561231
 20
516.1386299188382
 30
0.0
 10
674.876662905468
 20
516.3041285052591
 30
0.0
 10
684.7844291722724
 20
516.7057256277106
 30
0.0
 10
697.5995661312335
 20
517.383978443734
 30
0.0
 10
709.243838397493
 20
518.0613993359461
 30
0.0
 10
715.0603224806258
 20
518.5072448845584
 30
0.0
 10
717.9688232100602
 20
518.7301874878253
 30
0.0
  0
SPLINE
  5
162
330
1F
100
AcDbEntity
  8
0
  6
Continuous
 62
     7
370
    25
100
AcDbSpline
210
0.0
220
0.0
230
1.0
 70
     8
 71
     3
 72
     9
 73
     5
 74
     0
 42
0.00000001
 43
0.00000001
 40
0.0
 40
0.0
 40
0.0
 40
0.0
 40
0.0790369080192268
 40
0.9999999999999999
 40
0.9999999999999999
 40
0.9999999999999999
 40
0.9999999999999999
 10
669.1536198928765
 20
515.8183066432048
 30
0.0
 10
669.1951550930719
 20
515.8330874508375
 30
0.0
 10
669.7206716047411
 20
516.0200989117252
 30
0.0
 10
670.2792407182558
 20
516.0818028599207
 30
0.0
 10
670.7936622561231
 20
516.1386299188382
 30
0.0
  0
SPLINE
  5
163
330
1F
100
AcDbEntity
  8
0
  6
Continuous
 62
     7
370
    25
100
AcDbSpline
210
0.0
220
0.0
230
1.0
 70
     8
 71
     3
 72
    12
 73
     8
 74
     0
 42
0.00000001
 43
0.00000001
 40
0.0
 40
0.0
 40
0.0
 40
0.0
 40
0.0727571946374234
 40
0.4133526261309632
 40
0.6671905865650166
 40
0.9211041697476653
 40
1.0
 40
1.0
 40
1.0
 40
1.0
 10
670.7215500907869
 20
519.9925637947666
 30
0.0
 10
670.7292938727988
 20
519.8821398480635
 30
0.0
 10
670.7732883210014
 20
519.2547925652975
 30
0.0
 10
670.5190758974064
 20
518.2478378513988
 30
0.0
 10
670.0271933328842
 20
517.0617813141205
 30
0.0
 10
669.5472040087793
 20
516.3041196551832
 30
0.0
 10
669.2290431382065
 20
515.9114038808891
 30
0.0
 10
669.1536198928765
 20
515.8183066432048
 30
0.0
  0
SPLINE
  5
164
330
1F
100
AcDbEntity
  8
0
  6
Continuous
 62
     7
370
    25
100
AcDbSpline
210
0.0
220
0.0
230
1.0
 70
     8
 71
     3
 72
    10
 73
     6
 74
     0
 42
0.00000001
 43
0.00000001
 40
0.0
 40
0.0
 40
0.0
 40
0.0
 40
0.38802073778114
 40
0.9790637766506777
 40
1.0
 40
1.0
 40
1.0
 40
1.0
 10
670.7215500907906
 20
523.1938435279027
 30
0.0
 10
670.6482355600313
 20
522.7830036660469
 30
0.0
 10
670.4632464747081
 20
521.7463620961985
 30
0.0
 10
670.5589534005392
 20
520.6525927746272
 30
0.0
 10
670.7161715517868
 20
520.0143969059078
 30
0.0
 10
670.7215500907869
 20
519.9925637947666
 30
0.0
  0
ARC
  5
165
330
1F
100
AcDbEntity
  8
0
  6
Continuous
 62
     7
370
    25
100
AcDbCircle
 10
662.4760297483
 20
521.5932036613
 30
0.0
 40
8.399443654264582
100
AcDbArc
 50
10.985757993
 51
349.0142420071
  0
SPLINE
  5
166
330
1F
100
AcDbEntity
  8
0
  6
Continuous
 62
     7
370
    25
100
AcDbSpline
210
0.0
220
0.0
230
1.0
 70
     8
 71
     3
 72
     9
 73
     5
 74
     0
 42
0.00000001
 43
0.00000001
 40
0.0
 40
0.0
 40
0.0
 40
0.0
 40
0.6817923421274983
 40
1.0
 40
1.0
 40
1.0
 40
1.0
 10
669.1536198928765
 20
515.8183066432048
 30
0.0
 10
669.0113563322334
 20
515.6283962880997
 30
0.0
 10
668.802695202073
 20
515.3498505442261
 30
0.0
 10
668.5732693681927
 20
515.1169461712831
 30
0.0
 10
668.5002643109381
 20
515.0428342162608
 30
0.0
  0
ARC
  5
167
330
1F
100
AcDbEntity
  8
0
  6
Continuous
 62
     7
370
    25
100
AcDbCircle
 10
662.4760297483
 20
521.5932036613
 30
0.0
 40
8.899367501836373
100
AcDbArc
 50
47.3959191961
 51
312.6040808039
  0
SPLINE
  5
168
330
1F
100
AcDbEntity
  8
0
  6
Continuous
 62
     7
370
    25
100
AcDbSpline
210
0.0
220
0.0
230
1.0
 70
     8
 71
     3
 72
     9
 73
     5
 74
     0
 42
0.00000001
 43
0.00000001
 40
0.0
 40
0.0
 40
0.0
 40
0.0
 40
0.4941867114119614
 40
0.9999999999999999
 40
0.9999999999999999
 40
0.9999999999999999
 40
0.9999999999999999
 10
668.5002643109381
 20
528.1435731063939
 30
0.0
 10
668.6107546148758
 20
528.0253830311326
 30
0.0
 10
668.8343346937934
 20
527.7862222594401
 30
0.0
 10
669.0463697458825
 20
527.5085506628623
 30
0.0
 10
669.1536198928757
 20
527.3681006794499
 30
0.0
  0
SPLINE
  5
169
330
1F
100
AcDbEntity
  8
0
  6
Continuous
 62
     7
370
    25
100
AcDbSpline
210
0.0
220
0.0
230
1.0
 70
     8
 71
     3
 72
    11
 73
     7
 74
     0
 42
0.00000001
 43
0.00000001
 40
0.0
 40
0.0
 40
0.0
 40
0.0
 40
0.1851296338675978
 40
0.370293337548264
 40
0.740533324050989
 40
1.0
 40
1.0
 40
1.0
 40
1.0
 10
717.9803426732385
 20
518.287327906992
 30
0.0
 10
715.0707535202496
 20
518.1275438570742
 30
0.0
 10
709.2510397561905
 20
517.8079463518292
 30
0.0
 10
697.6107196576265
 20
517.1653674635108
 30
0.0
 10
684.8020769648505
 20
516.4576691953393
 30
0.0
 10
674.9048696845025
 20
515.9088520144726
 30
0.0
 10
670.8267875752678
 20
515.682715341456
 30
0.0
  0
ARC
  5
16A
330
1F
100
AcDbEntity
  8
0
  6
Continuous
 62
     7
370
    25
100
AcDbCircle
 10
678.0418767827
 20
516.4361017081
 30
0.0
 40
7.254316183387629
100
AcDbArc
 50
182.3501399448
 51
185.9611177313
  0
ARC
  5
16B
330
1F
100
AcDbEntity
  8
0
  6
Continuous
 62
     7
370
    25
100
AcDbCircle
 10
713.719820132
 20
518.398084731
 30
0.0
 40
4.261961918983669
100
AcDbArc
 50
358.5108705387
 51
4.4691613064
  0
SPLINE
  5
16C
330
1F
100
AcDbEntity
  8
0
  6
Continuous
 62
     7
370
    25
100
AcDbSpline
210
0.0
220
0.0
230
1.0
 70
     8
 71
     3
 72
    10
 73
     6
 74
     0
 42
0.00000001
 43
0.00000001
 40
0.0
 40
0.0
 40
0.0
 40
0.0
 40
0.3702717503651153
 40
0.7405122151371735
 40
1.0
 40
1.0
 40
1.0
 40
1.0
 10
670.8267875752678
 20
527.5036919811984
 30
0.0
 10
676.646459636937
 20
527.1811634955304
 30
0.0
 10
688.2853120352339
 20
526.5361337757874
 30
0.0
 10
704.0044516191884
 20
525.6673192883086
 30
0.0
 10
713.9019490428872
 20
525.1232643775418
 30
0.0
 10
717.9803426732352
 20
524.8990794156626
 30
0.0
  0
ARC
  5
16D
330
1F
100
AcDbEntity
  8
0
  6
Continuous
 62
     7
370
    25
100
AcDbCircle
 10
713.7198201291
 20
524.7883225917
 30
0.0
 40
4.261961921792844
100
AcDbArc
 50
355.530838696
 51
1.4891294598
  0
ARC
  5
16E
330
1F
100
AcDbEntity
  8
0
  6
Continuous
 62
     7
370
    25
100
AcDbCircle
 10
678.0418767826
 20
526.7503056145
 30
0.0
 40
7.25431618333922
100
AcDbArc
 50
174.0388822687
 51
177.6498600552
  0
SPLINE
  5
16F
330
1F
100
AcDbEntity
  8
0
  6
Continuous
 62
     7
370
    25
100
AcDbSpline
210
0.0
220
0.0
230
1.0
 70
     8
 71
     3
 72
    12
 73
     8
 74
     0
 42
0.00000001
 43
0.00000001
 40
0.0
 40
0.0
 40
0.0
 40
0.0
 40
0.1224290494151405
 40
0.3423522449770235
 40
0.5614228816909439
 40
0.7807229538533379
 40
1.0
 40
1.0
 40
1.0
 40
1.0
 10
719.9045506429078
 20
524.345545465171
 30
0.0
 10
719.8955465670438
 20
524.3479041496118
 30
0.0
 10
719.8703681833126
 20
524.3544998139366
 30
0.0
 10
719.6543804996682
 20
524.3715077816759
 30
0.0
 10
719.2184823699389
 20
524.3970187558305
 30
0.0
 10
718.6345567565088
 20
524.4265709383897
 30
0.0
 10
718.1907266249406
 20
524.4463372152687
 30
0.0
 10
717.9688232100602
 20
524.4562198348273
 30
0.0
  0
SPLINE
  5
170
330
1F
100
AcDbEntity
  8
0
  6
Continuous
 62
     7
370
    25
100
AcDbSpline
210
0.0
220
0.0
230
1.0
 70
     8
 71
     3
 72
    11
 73
     7
 74
     0
 42
0.00000001
 43
0.00000001
 40
0.0
 40
0.0
 40
0.0
 40
0.0
 40
0.0800485240044343
 40
0.500000585353891
 40
0.9209248322279646
 40
1.0
 40
1.0
 40
1.0
 40
1.0
 10
719.9045506429078
 20
524.345545465171
 30
0.0
 10
719.9042643984938
 20
524.1993010400704
 30
0.0
 10
719.9024764532893
 20
523.2858263812373
 30
0.0
 10
719.901240756459
 20
521.5914167934787
 30
0.0
 10
719.9024784545542
 20
519.898789941624
 30
0.0
 10
719.904267676522
 20
518.9853265659802
 30
0.0
 10
719.9045506429078
 20
518.840861857489
 30
0.0
  0
SPLINE
  5
171
330
1F
100
AcDbEntity
  8
0
  6
Continuous
 62
     7
370
    25
100
AcDbSpline
210
0.0
220
0.0
230
1.0
 70
     8
 71
     3
 72
    12
 73
     8
 74
     0
 42
0.00000001
 43
0.00000001
 40
0.0
 40
0.0
 40
0.0
 40
0.0
 40
0.1130367476169228
 40
0.3328594693547931
 40
0.5544127937944839
 40
0.7774207483513221
 40
1.0
 40
1.0
 40
1.0
 40
1.0
 10
717.9688232100601
 20
518.7301874878253
 30
0.0
 10
718.0828940500471
 20
518.7352027335266
 30
0.0
 10
718.418798612655
 20
518.7499711345827
 30
0.0
 10
718.9528664690497
 20
518.7755633386919
 30
0.0
 10
719.469392106937
 20
518.8034386015629
 30
0.0
 10
719.8262868240913
 20
518.8268804751534
 30
0.0
 10
719.8784794416098
 20
518.8362043869131
 30
0.0
 10
719.9045506429078
 20
518.840861857489
 30
0.0
  0
SPLINE
  5
172
330
1F
100
AcDbEntity
  8
0
  6
Continuous
 62
     7
370
    25
100
AcDbSpline
210
0.0
220
0.0
230
1.0
 70
     8
 71
     3
 72
     9
 73
     5
 74
     0
 42
0.00000001
 43
0.00000001
 40
0.0
 40
0.0
 40
0.0
 40
0.0
 40
0.5000106123815413
 40
1.0
 40
1.0
 40
1.0
 40
1.0
 10
668.0006564620952
 20
528.5754047956402
 30
0.0
 10
668.430377828916
 20
528.2875642575468
 30
0.0
 10
669.2898023214766
 20
527.7118953997954
 30
0.0
 10
670.3144664067548
 20
527.5730921387086
 30
0.0
 10
670.8267875752678
 20
527.5036919811984
 30
0.0
  0
SPLINE
  5
173
330
1F
100
AcDbEntity
  8
0
  6
Continuous
 62
     7
370
    25
100
AcDbSpline
210
0.0
220
0.0
230
1.0
 70
     8
 71
     3
 72
     9
 73
     5
 74
     0
 42
0.00000001
 43
0.00000001
 40
0.0
 40
0.0
 40
0.0
 40
0.0
 40
0.9838702326459098
 40
1.0
 40
1.0
 40
1.0
 40
1.0
 10
668.5002643109381
 20
528.1435731063939
 30
0.0
 10
668.3389234960034
 20
528.2884055194124
 30
0.0
 10
668.1749376271548
 20
528.435612344269
 30
0.0
 10
668.003422953873
 20
528.5731857683162
 30
0.0
 10
668.0006564620952
 20
528.5754047956402
 30
0.0
  0
SPLINE
  5
174
330
1F
100
AcDbEntity
  8
0
  6
Continuous
 62
     7
370
    25
100
AcDbSpline
210
0.0
220
0.0
230
1.0
 70
     8
 71
     3
 72
     9
 73
     5
 74
     0
 42
0.00000001
 43
0.00000001
 40
0.0
 40
0.0
 40
0.0
 40
0.0
 40
0.5055561057107117
 40
1.0
 40
1.0
 40
1.0
 40
1.0
 10
670.8267875752678
 20
515.682715341456
 30
0.0
 10
670.3087280579348
 20
515.612059307186
 30
0.0
 10
669.2839960618594
 20
515.4723002706086
 30
0.0
 10
668.4252554930979
 20
514.8959669958127
 30
0.0
 10
668.0006564620952
 20
514.6110025270143
 30
0.0
  0
SPLINE
  5
175
330
1F
100
AcDbEntity
  8
0
  6
Continuous
 62
     7
370
    25
100
AcDbSpline
210
0.0
220
0.0
230
1.0
 70
     8
 71
     3
 72
     9
 73
     5
 74
     0
 42
0.00000001
 43
0.00000001
 40
0.0
 40
0.0
 40
0.0
 40
0.0
 40
0.0161297673533699
 40
1.0
 40
1.0
 40
1.0
 40
1.0
 10
668.0006564620952
 20
514.6110025270143
 30
0.0
 10
668.0034229538729
 20
514.6132215543382
 30
0.0
 10
668.1749376271591
 20
514.7507949783882
 30
0.0
 10
668.3389234960055
 20
514.8980018032433
 30
0.0
 10
668.5002643109381
 20
515.0428342162608
 30
0.0
  0
SPLINE
  5
176
330
1F
100
AcDbEntity
  8
0
  6
Continuous
 62
     7
370
    25
100
AcDbSpline
210
0.0
220
0.0
230
1.0
 70
     8
 71
     3
 72
    12
 73
     8
 74
     0
 42
0.00000001
 43
0.00000001
 40
0.0
 40
0.0
 40
0.0
 40
0.0
 40
0.2230315344150105
 40
0.4461337558340124
 40
0.6675099896777127
 40
0.8870667292264942
 40
1.0
 40
1.0
 40
1.0
 40
1.0
 10
719.4321963778233
 20
518.3416987864406
 30
0.0
 10
719.4126625916974
 20
518.3435890337354
 30
0.0
 10
719.3735888284609
 20
518.3473701274146
 30
0.0
 10
719.1059996464048
 20
518.340427291144
 30
0.0
 10
718.7184705625796
 20
518.3248384686542
 30
0.0
 10
718.3177484501165
 20
518.3055011885899
 30
0.0
 10
718.0658890278587
 20
518.2919355874135
 30
0.0
 10
717.9803426732385
 20
518.287327906992
 30
0.0
  0
ARC
  5
177
330
1F
100
AcDbEntity
  8
0
  6
Continuous
 62
     7
370
    25
100
AcDbCircle
 10
719.4044507553
 20
518.8410284428
 30
0.0
 40
0.5000999153467147
100
AcDbArc
 50
273.1804119247
 51
359.9809145383
  0
SPLINE
  5
178
330
1F
100
AcDbEntity
  8
0
  6
Continuous
 62
     7
370
    25
100
AcDbSpline
210
0.0
220
0.0
230
1.0
 70
     8
 71
     3
 72
    12
 73
     8
 74
     0
 42
0.00000001
 43
0.00000001
 40
0.0
 40
0.0
 40
0.0
 40
0.0
 40
0.2190444340109019
 40
0.4380981679380211
 40
0.6571027493691812
 40
0.8772791087290173
 40
1.0
 40
1.0
 40
1.0
 40
1.0
 10
717.9803426732352
 20
524.8990794156626
 30
0.0
 10
718.1467604140059
 20
524.8902506027127
 30
0.0
 10
718.4796029611051
 20
524.8725926019705
 30
0.0
 10
718.9177614037483
 20
524.8530741125614
 30
0.0
 10
719.2447272305079
 20
524.8417683289292
 30
0.0
 10
719.4065711075222
 20
524.8399444608526
 30
0.0
 10
719.4254424399343
 20
524.8434528901773
 30
0.0
 10
719.4321963778232
 20
524.844708536214
 30
0.0
  0
ARC
  5
179
330
1F
100
AcDbEntity
  8
0
  6
Continuous
 62
     7
370
    25
100
AcDbCircle
 10
719.4044507553
 20
524.3453788798
 30
0.0
 40
0.5000999153473011
100
AcDbArc
 50
0.0190854624
 51
86.8195880753
  0
LINE
  5
17A
330
1F
100
AcDbEntity
  8
0
  6
Continuous
 62
     7
370
    25
100
AcDbLine
 10
670.8267875753
 20
515.6827153415
 30
0.0
 11
670.853773757
 21
515.6114250661
 31
0.0
  0
LINE
  5
17B
330
1F
100
AcDbEntity
  8
0
  6
Continuous
 62
     7
370
    25
100
AcDbLine
 10
719.4368867385
 20
518.3372603334
 30
0.0
 11
719.4321963778
 21
518.3416987864
 31
0.0
  0
ELLIPSE
  5
17C
330
1F
100
AcDbEntity
  8
0
  6
Continuous
 62
     7
370
    25
100
AcDbEllipse
 10
717.9371151958
 20
518.2539678834
 30
0.0
 11
1.499999304622747
 21
0.08287263343879657
 31
0.0
210
0.0
220
0.0
230
1.0
 40
0.0174284859
 41
5.396717970286828
 42
6.299675703199679
  0
LINE
  5
17D
330
1F
100
AcDbEntity
  8
0
  6
Continuous
 62
     7
370
    25
100
AcDbLine
 10
715.4215005267
 20
518.0452082954
 30
0.0
 11
718.8864637362
 21
518.2860995743
 31
0.0
  0
LINE
  5
17E
330
1F
100
AcDbEntity
  8
0
  6
Continuous
 62
     7
370
    25
100
AcDbLine
 10
715.4215005267
 20
518.0453066866
 30
0.0
 11
715.4215005267
 21
518.0452082954
 31
0.0
  0
ELLIPSE
  5
17F
330
1F
100
AcDbEntity
  8
0
  6
Continuous
 62
     7
370
    25
100
AcDbEllipse
 10
705.9720141058
 20
517.7156606351
 30
0.0
 11
14.49999327802038
 21
0.8011021232406392
 31
0.0
210
0.0
220
0.0
230
1.0
 40
0.0174284859
 41
4.685109492442212
 42
5.421234828998334
  0
ELLIPSE
  5
180
330
1F
100
AcDbEntity
  8
0
  6
Continuous
 62
     7
370
    25
100
AcDbEllipse
 10
704.6510041902
 20
516.7653770858
 30
0.0
 11
35.70262504606012
 21
1.972514619921981
 31
0.0
210
0.0
220
0.0
230
1.0
 40
0.0174284859
 41
1.543516838852413
 42
2.025717338718007
  0
ELLIPSE
  5
181
330
1F
100
AcDbEntity
  8
0
  6
Continuous
 62
     7
370
    25
100
AcDbEllipse
 10
685.6307767182
 20
516.3929810261
 30
0.0
 11
7.499996523114078
 21
0.4143631671935282
 31
0.0
210
0.0
220
0.0
230
1.0
 40
0.0174284859
 41
4.976419334597757
 42
5.167309992307906
  0
LINE
  5
182
330
1F
100
AcDbEntity
  8
0
  6
Continuous
 62
     7
370
    25
100
AcDbLine
 10
687.5754291192
 20
516.5253254773
 30
0.0
 11
687.5950473766
 21
516.3749349327
 31
0.0
  0
SPLINE
  5
183
330
1F
100
AcDbEntity
  8
0
  6
Continuous
 62
     7
370
    25
100
AcDbSpline
210
0.0
220
0.0
230
1.0
 70
     8
 71
     3
 72
    10
 73
     6
 74
     0
 42
0.00000001
 43
0.00000001
 40
0.0
 40
0.0
 40
0.0
 40
0.0
 40
0.0186368637458853
 40
0.3939469944633829
 40
1.0
 40
1.0
 40
1.0
 40
1.0
 10
687.3916578335375
 20
516.5248391100521
 30
0.0
 10
687.3941140407862
 20
516.5249268605314
 30
0.0
 10
687.4460334772635
 20
516.5267817347246
 30
0.0
 10
687.5500323257411
 20
516.5294617161023
 30
0.0
 10
687.5657329830905
 20
516.5269046347049
 30
0.0
 10
687.5754291192341
 20
516.5253254772971
 30
0.0
  0
LINE
  5
184
330
1F
100
AcDbEntity
  8
0
  6
Continuous
 62
     7
370
    25
100
AcDbLine
 10
670.853773757
 20
515.6114250661
 30
0.0
 11
687.3916578335
 21
516.5248391101
 31
0.0
  0
LINE
  5
185
330
1F
100
AcDbEntity
  8
0
  6
Continuous
 62
     7
370
    25
100
AcDbLine
 10
687.3937235655
 20
526.6777718614
 30
0.0
 11
670.859815142
 21
527.5909663236
 31
0.0
  0
SPLINE
  5
186
330
1F
100
AcDbEntity
  8
0
  6
Continuous
 62
     7
370
    25
100
AcDbSpline
210
0.0
220
0.0
230
1.0
 70
     8
 71
     3
 72
    11
 73
     7
 74
     0
 42
0.00000001
 43
0.00000001
 40
0.0
 40
0.0
 40
0.0
 40
0.0
 40
0.417746929449515
 40
0.8392770662410639
 40
0.9817832068818853
 40
1.0
 40
1.0
 40
1.0
 40
1.0
 10
687.5774290061058
 20
526.676422416144
 30
0.0
 10
687.5727919780741
 20
526.6753392249602
 30
0.0
 10
687.5634759280726
 20
526.6731630329772
 30
0.0
 10
687.4879794623225
 20
526.6743652098687
 30
0.0
 10
687.4177192617506
 20
526.6768357372085
 30
0.0
 10
687.3961664250929
 20
526.6776765601655
 30
0.0
 10
687.3937235654628
 20
526.677771861424
 30
0.0
  0
LINE
  5
187
330
1F
100
AcDbEntity
  8
0
  6
Continuous
 62
     7
370
    25
100
AcDbLine
 10
687.5950473766
 20
526.8114723899
 30
0.0
 11
687.5774290061
 21
526.6764224161
 31
0.0
  0
ELLIPSE
  5
188
330
1F
100
AcDbEntity
  8
0
  6
Continuous
 62
     7
370
    25
100
AcDbEllipse
 10
685.6307767182
 20
526.7934262966
 30
0.0
 11
7.499996523114078
 21
-0.4143631671935282
 31
0.0
210
0.0
220
0.0
230
1.0
 40
0.0174284859
 41
1.115875314872206
 42
1.306765972581883
  0
ELLIPSE
  5
189
330
1F
100
AcDbEntity
  8
0
  6
Continuous
 62
     7
370
    25
100
AcDbEllipse
 10
704.6510041902
 20
526.4210302368
 30
0.0
 11
35.70262504606012
 21
-1.972514619921981
 31
0.0
210
0.0
220
0.0
230
1.0
 40
0.0174284859
 41
4.257467968461738
 42
4.739668468327166
  0
ELLIPSE
  5
18A
330
1F
100
AcDbEntity
  8
0
  6
Continuous
 62
     7
370
    25
100
AcDbEllipse
 10
705.9720141058
 20
525.4707466875
 30
0.0
 11
14.49999327802038
 21
-0.8011021232406392
 31
0.0
210
0.0
220
0.0
230
1.0
 40
0.0174284859
 41
0.861950478181597
 42
1.598075814737383
  0
LINE
  5
18B
330
1F
100
AcDbEntity
  8
0
  6
Continuous
 62
     7
370
    25
100
AcDbLine
 10
715.4215005267
 20
525.1411990273
 30
0.0
 11
715.4215005267
 21
525.1411006361
 31
0.0
  0
LINE
  5
18C
330
1F
100
AcDbEntity
  8
0
  6
Continuous
 62
     7
370
    25
100
AcDbLine
 10
718.8864637362
 20
524.9003077483
 30
0.0
 11
715.4215005267
 21
525.1411990273
 31
0.0
  0
ELLIPSE
  5
18D
330
1F
100
AcDbEntity
  8
0
  6
Continuous
 62
     7
370
    25
100
AcDbEllipse
 10
717.9371151958
 20
524.9324394393
 30
0.0
 11
1.499999304622747
 21
-0.08287263343868288
 31
0.0
210
0.0
220
0.0
230
1.0
 40
0.0174284859
 41
6.266694911160002
 42
7.169652644073085
  0
LINE
  5
18E
330
1F
100
AcDbEntity
  8
0
  6
Continuous
 62
     7
370
    25
100
AcDbLine
 10
719.4321963778
 20
524.8447085362
 30
0.0
 11
719.4368867385
 21
524.8491469893
 31
0.0
  0
LINE
  5
18F
330
1F
100
AcDbEntity
  8
0
  6
Continuous
 62
     7
370
    25
100
AcDbLine
 10
670.859815142
 20
527.5909663236
 30
0.0
 11
670.8267875753
 21
527.5036919812
 31
0.0
  0
SPLINE
  5
190
330
1F
100
AcDbEntity
  8
0
  6
Continuous
 62
     7
370
    25
100
AcDbSpline
210
0.0
220
0.0
230
1.0
 70
     8
 71
     3
 72
     9
 73
     5
 74
     0
 42
0.00000001
 43
0.00000001
 40
0.0
 40
0.0
 40
0.0
 40
0.0
 40
0.5001021276704746
 40
0.9999999999999999
 40
0.9999999999999999
 40
0.9999999999999999
 40
0.9999999999999999
 10
668.0338753281507
 20
514.5453110800541
 30
0.0
 10
668.462823103858
 20
514.8318367141427
 30
0.0
 10
669.3205434613085
 20
515.4047709574405
 30
0.0
 10
670.3427665899236
 20
515.5425497438947
 30
0.0
 10
670.8537737569643
 20
515.6114250660953
 30
0.0
  0
LINE
  5
191
330
1F
100
AcDbEntity
  8
0
  6
Continuous
 62
     7
370
    25
100
AcDbLine
 10
668.0338753282
 20
514.5453110801
 30
0.0
 11
668.0006564621
 21
514.611002527
 31
0.0
  0
SPLINE
  5
192
330
1F
100
AcDbEntity
  8
0
  6
Continuous
 62
     7
370
    25
100
AcDbSpline
210
0.0
220
0.0
230
1.0
 70
     8
 71
     3
 72
     9
 73
     5
 74
     0
 42
0.00000001
 43
0.00000001
 40
0.0
 40
0.0
 40
0.0
 40
0.0
 40
0.4007227371565442
 40
1.0
 40
1.0
 40
1.0
 40
1.0
 10
670.8598151420161
 20
527.5909663236387
 30
0.0
 10
670.4511290186067
 20
527.6393735857042
 30
0.0
 10
669.431256459567
 20
527.760173474448
 30
0.0
 10
668.562180415741
 20
528.3202807478017
 30
0.0
 10
668.0413629029943
 20
528.6559403014758
 30
0.0
  0
LINE
  5
193
330
1F
100
AcDbEntity
  8
0
  6
Continuous
 62
     7
370
    25
100
AcDbLine
 10
668.0006564621
 20
528.5754047956
 30
0.0
 11
668.041362903
 21
528.6559403015
 31
0.0
  0
ARC
  5
194
330
1F
100
AcDbEntity
  8
0
  6
Continuous
 62
     7
370
    25
100
AcDbCircle
 10
662.4760297483
 20
521.5932036613
 30
0.0
 40
8.975658044222213
100
AcDbArc
 50
245.1648853947
 51
308.2586979829
  0
LWPOLYLINE
  5
195
330
1F
100
AcDbEntity
  8
0
  6
Continuous
 62
     7
370
    25
100
AcDbPolyline
 90
        3
 70
   128
 43
0.0
 10
658.540716324
 20
513.342543938
 10
658.6452978882
 20
513.4087963493
 10
658.7061784309
 20
513.4476123156
  0
ARC
  5
196
330
1F
100
AcDbEntity
  8
0
  6
Continuous
 62
     7
370
    25
100
AcDbCircle
 10
662.4760297483
 20
521.5932036613
 30
0.0
 40
9.14112015109211
100
AcDbArc
 50
115.4997164176
 51
244.500279429
  0
LWPOLYLINE
  5
197
330
1F
100
AcDbEntity
  8
0
  6
Continuous
 62
     7
370
    25
100
AcDbPolyline
 90
        3
 70
   128
 43
0.0
 10
658.6898855205
 20
529.7492010778
 10
658.6452978882
 20
529.7776109734
 10
658.5407163237
 20
529.8438633848
  0
ARC
  5
198
330
1F
100
AcDbEntity
  8
0
  6
Continuous
 62
     7
370
    25
100
AcDbCircle
 10
662.4760297483
 20
521.5932036613
 30
0.0
 40
8.991950954660766
100
AcDbArc
 50
51.762407147
 51
114.9014811666
  0
LINE
  5
199
330
1F
100
AcDbEntity
  8
0
  6
Continuous
 62
     7
370
    25
100
AcDbLine
 10
719.9092410036
 20
524.3499839182
 30
0.0
 11
719.9045506429
 21
524.3455454652
 31
0.0
  0
LINE
  5
19A
330
1F
100
AcDbEntity
  8
0
  6
Continuous
 62
     7
370
    25
100
AcDbLine
 10
719.9092410036
 20
518.8364234044
 30
0.0
 11
719.9092410036
 21
524.3499839182
 31
0.0
  0
LINE
  5
19B
330
1F
100
AcDbEntity
  8
0
  6
Continuous
 62
     7
370
    25
100
AcDbLine
 10
719.9045506429
 20
518.8408618575
 30
0.0
 11
719.9092410036
 21
518.8364234044
 31
0.0
  0
ARC
  5
19C
330
1F
100
AcDbEntity
  8
0
  6
Continuous
 62
     7
370
    25
100
AcDbCircle
 10
719.409141116
 20
524.3498173329
 30
0.0
 40
0.5000999153475345
100
AcDbArc
 50
0.0190854618
 51
86.8195880752
  0
ARC
  5
19D
330
1F
100
AcDbEntity
  8
0
  6
Continuous
 62
     7
370
    25
100
AcDbCircle
 10
719.409141116
 20
518.8365899898
 30
0.0
 40
0.5000999153466861
100
AcDbArc
 50
273.1804119247
 51
359.9809145383
  0
LINE
  5
19E
330
1F
100
AcDbEntity
  8
0
  6
Continuous
 62
     7
370
    25
100
AcDbLine
 10
718.8864637362
 20
524.9003077483
 30
0.0
 11
718.893571467
 21
524.8999407117
 31
0.0
  0
LINE
  5
19F
330
1F
100
AcDbEntity
  8
0
  6
Continuous
 62
     7
370
    25
100
AcDbLine
 10
718.8864637362
 20
518.2860995743
 30
0.0
 11
718.893571467
 21
518.286466611
 31
0.0
  0
SPLINE
  5
1A0
330
1F
100
AcDbEntity
  8
0
  6
Continuous
 62
     7
370
    25
100
AcDbSpline
210
0.0
220
0.0
230
1.0
 70
     8
 71
     3
 72
    12
 73
     8
 74
     0
 42
0.00000001
 43
0.00000001
 40
0.0
 40
0.0
 40
0.0
 40
0.0
 40
0.1662426524176553
 40
0.3368059756191313
 40
0.6054181071254575
 40
0.8801435087136176
 40
1.0
 40
1.0
 40
1.0
 40
1.0
 10
668.5980889955944
 20
509.9165432796563
 30
0.0
 10
667.9604074750582
 20
510.0720284551392
 30
0.0
 10
666.6684709982577
 20
510.3870398884944
 30
0.0
 10
664.4842846159082
 20
511.0500049934931
 30
0.0
 10
662.1223102723485
 20
511.9021999102984
 30
0.0
 10
660.156772710456
 20
512.7448285889104
 30
0.0
 10
659.0429977256604
 20
513.2826866816057
 30
0.0
 10
658.7046822475028
 20
513.446064132433
 30
0.0
  0
LINE
  5
1A1
330
1F
100
AcDbEntity
  8
0
  6
Continuous
 62
     7
370
    25
100
AcDbLine
 10
668.5980889956
 20
509.9165432797
 30
0.0
 11
668.5822309187
 21
509.8470697481
 31
0.0
  0
ARC
  5
1A2
330
1F
100
AcDbEntity
  8
0
  6
Continuous
 62
     7
370
    25
100
AcDbCircle
 10
679.3040091551
 20
556.8187045603
 30
0.0
 40
48.17977797259049
100
AcDbArc
 50
244.4718479123
 51
257.1419190681
  0
LWPOLYLINE
  5
1A3
330
1F
100
AcDbEntity
  8
0
  6
Continuous
 62
     7
370
    25
100
AcDbPolyline
 90
        3
 70
   128
 43
0.0
 10
658.7046822475
 20
513.4460641324
 10
658.6452943972
 20
513.4085404289
 10
658.5407163243
 20
513.342542399
  0
SPLINE
  5
1A4
330
1F
100
AcDbEntity
  8
0
  6
Continuous
 62
     7
370
    25
100
AcDbSpline
210
0.0
220
0.0
230
1.0
 70
     8
 71
     3
 72
    12
 73
     8
 74
     0
 42
0.00000001
 43
0.00000001
 40
0.0
 40
0.0
 40
0.0
 40
0.0
 40
0.1345419440893861
 40
0.4125227334043415
 40
0.6966514762099344
 40
0.8475579366075746
 40
1.0
 40
1.0
 40
1.0
 40
1.0
 10
658.7053998244598
 20
513.4468056985069
 30
0.0
 10
659.1347572478899
 20
513.2559802519146
 30
0.0
 10
660.4512217833145
 20
512.6708851325881
 30
0.0
 10
662.8248497273368
 20
512.0459364837972
 30
0.0
 10
665.3497961594106
 20
511.7445808483047
 30
0.0
 10
667.4947338781876
 20
511.6389941787002
 30
0.0
 10
668.6310815848733
 20
511.6333612110035
 30
0.0
 10
669.2021316330954
 20
511.6305304696241
 30
0.0
  0
ARC
  5
1A5
330
1F
100
AcDbEntity
  8
0
  6
Continuous
 62
     7
370
    25
100
AcDbCircle
 10
664.7096006401
 20
512.2503545142
 30
0.0
 40
4.535087272523126
100
AcDbArc
 50
329.0284626407
 51
352.1446266983
  0
LINE
  5
1A6
330
1F
100
AcDbEntity
  8
0
  6
Continuous
 62
     7
370
    25
100
AcDbLine
 10
658.7046822475
 20
513.4460641324
 30
0.0
 11
658.7053998245
 21
513.4468056985
 31
0.0
  0
LINE
  5
1A7
330
1F
100
AcDbEntity
  8
0
  6
Continuous
 62
     7
370
    25
100
AcDbLine
 10
668.0338753282
 20
514.5453110801
 30
0.0
 11
670.2317472483
 21
511.7581942057
 31
0.0
  0
ARC
  5
1A8
330
1F
100
AcDbEntity
  8
0
  6
Continuous
 62
     7
370
    25
100
AcDbCircle
 10
662.4760297483
 20
521.5932036613
 30
0.0
 40
12.52511736202733
100
AcDbArc
 50
307.8583068702
 51
308.2586979829
  0
LINE
  5
1A9
330
1F
100
AcDbEntity
  8
0
  6
Continuous
 62
     7
370
    25
100
AcDbLine
 10
669.2021316331
 20
511.6305304696
 30
0.0
 11
670.162829982
 21
511.7042367234
 31
0.0
  0
LINE
  5
1AA
330
1F
100
AcDbEntity
  8
0
  6
Continuous
 62
     7
370
    25
100
AcDbLine
 10
658.7061784309
 20
513.4476123156
 30
0.0
 11
658.7053998245
 21
513.4468056985
 31
0.0
  0
ARC
  5
1AB
330
1F
100
AcDbEntity
  8
0
  6
Continuous
 62
     7
370
    25
100
AcDbCircle
 10
680.393701462
 20
516.3166042732
 30
0.0
 40
6.834138728214517
100
AcDbArc
 50
211.8771071303
 51
226.9488007428
  0
SPLINE
  5
1AC
330
1F
100
AcDbEntity
  8
0
  6
Continuous
 62
     7
370
    25
100
AcDbSpline
210
0.0
220
0.0
230
1.0
 70
     8
 71
     3
 72
    17
 73
    13
 74
     0
 42
0.00000001
 43
0.00000001
 40
0.0
 40
0.0
 40
0.0
 40
0.0
 40
0.2859834379244686
 40
0.5215922644122235
 40
0.7592399016809398
 40
0.8521492405060501
 40
0.9266708633836005
 40
0.9605058393195371
 40
0.9835417153308582
 40
0.9930790992390822
 40
0.9972256067114857
 40
1.0
 40
1.0
 40
1.0
 40
1.0
 10
674.5902686708433
 20
512.7075018923422
 30
0.0
 10
675.8190468545907
 20
513.2393700163624
 30
0.0
 10
678.0601598364215
 20
514.2094202444101
 30
0.0
 10
681.3991085233233
 20
515.2516509151948
 30
0.0
 10
683.9017638900302
 20
515.8694694761214
 30
0.0
 10
685.6720701740663
 20
516.2234447853396
 30
0.0
 10
686.5371910094036
 20
516.3781458199524
 30
0.0
 10
687.0627784386791
 20
516.4666458107841
 30
0.0
 10
687.2964405523362
 20
516.5057575736067
 30
0.0
 10
687.3740907118257
 20
516.5200773403684
 30
0.0
 10
687.3901723660257
 20
516.5238110926862
 30
0.0
 10
687.3912327540016
 20
516.524544933881
 30
0.0
 10
687.3916578335375
 20
516.5248391100521
 30
0.0
  0
SPLINE
  5
1AD
330
1F
100
AcDbEntity
  8
0
  6
Continuous
 62
     7
370
    25
100
AcDbSpline
210
0.0
220
0.0
230
1.0
 70
     8
 71
     3
 72
    10
 73
     6
 74
     0
 42
0.00000001
 43
0.00000001
 40
0.0
 40
0.0
 40
0.0
 40
0.0
 40
0.5975855365574314
 40
0.979056356318194
 40
1.0
 40
1.0
 40
1.0
 40
1.0
 10
687.5016831532253
 20
516.5157122127127
 30
0.0
 10
687.5042022925786
 20
516.5194515104392
 30
0.0
 10
687.5083295333593
 20
516.5255778019628
 30
0.0
 10
687.4339584068039
 20
516.525954360819
 30
0.0
 10
687.3937504546994
 20
516.5248942818187
 30
0.0
 10
687.3916578335375
 20
516.5248391100521
 30
0.0
  0
SPLINE
  5
1AE
330
1F
100
AcDbEntity
  8
0
  6
Continuous
 62
     7
370
    25
100
AcDbSpline
210
0.0
220
0.0
230
1.0
 70
     8
 71
     3
 72
    15
 73
    11
 74
     0
 42
0.00000001
 43
0.00000001
 40
0.0
 40
0.0
 40
0.0
 40
0.0
 40
0.01289814015984
 40
0.05194435415656
 40
0.1318327952014351
 40
0.2279057212361163
 40
0.4677439605522698
 40
0.7076088995728966
 40
0.8538517081976971
 40
0.9999999999999999
 40
0.9999999999999999
 40
0.9999999999999999
 40
0.9999999999999999
 10
687.5016831532253
 20
516.5157122127127
 30
0.0
 10
687.468214549701
 20
516.5078673154252
 30
0.0
 10
687.3334272878905
 20
516.4762737586816
 30
0.0
 10
686.8941569079238
 20
516.3738830153727
 30
0.0
 10
686.0827012879394
 20
516.1715615198839
 30
0.0
 10
684.4294349561504
 20
515.7039126206538
 30
0.0
 10
682.0830758253862
 20
514.8723258426186
 30
0.0
 10
679.5394799835591
 20
513.6787352475435
 30
0.0
 10
677.4207025639178
 20
512.4718132028531
 30
0.0
 10
676.2923563223376
 20
511.7055875363511
 30
0.0
 10
675.7283655732087
 20
511.3225985461568
 30
0.0
  0
LINE
  5
1AF
330
1F
100
AcDbEntity
  8
0
  6
Continuous
 62
     7
370
    25
100
AcDbLine
 10
673.1496003088
 20
512.1833582104
 30
0.0
 11
671.0495177927
 21
512.0673672617
 31
0.0
  0
LINE
  5
1B0
330
1F
100
AcDbEntity
  8
0
  6
Continuous
 62
     7
370
    25
100
AcDbLine
 10
670.853773757
 20
515.6114250661
 30
0.0
 11
671.0495177927
 21
512.0673672617
 31
0.0
  0
LINE
  5
1B1
330
1F
100
AcDbEntity
  8
0
  6
Continuous
 62
     7
370
    25
100
AcDbLine
 10
673.1496003088
 20
512.1833582104
 30
0.0
 11
674.5902686708
 21
512.7075018923
 31
0.0
  0
LWPOLYLINE
  5
1B2
330
1F
100
AcDbEntity
  8
0
  6
Continuous
 62
     7
370
    25
100
AcDbPolyline
 90
        4
 70
   128
 43
0.0
 10
687.5212099673
 20
516.3646166365
 10
687.5189653316
 20
516.3819747833
 10
687.5099902977
 20
516.4514075295
 10
687.5016831532
 20
516.5157122127
  0
LINE
  5
1B3
330
1F
100
AcDbEntity
  8
0
  6
Continuous
 62
     7
370
    25
100
AcDbLine
 10
685.7330856835
 20
515.9350891332
 30
0.0
 11
687.5212099673
 21
516.3646166365
 31
0.0
  0
ARC
  5
1B4
330
1F
100
AcDbEntity
  8
0
  6
Continuous
 62
     7
370
    25
100
AcDbCircle
 10
693.9186440821
 20
485.5093955393
 30
0.0
 40
31.50755777528337
100
AcDbArc
 50
105.0579972479
 51
125.1719294169
  0
LINE
  5
1B5
330
1F
100
AcDbEntity
  8
0
  6
Continuous
 62
     7
370
    25
100
AcDbLine
 10
675.7283655732
 20
511.3225985462
 30
0.0
 11
675.7692854594
 21
511.2645305331
 31
0.0
  0
SPLINE
  5
1B6
330
1F
100
AcDbEntity
  8
0
  6
Continuous
 62
     7
370
    25
100
AcDbSpline
210
0.0
220
0.0
230
1.0
 70
     8
 71
     3
 72
     9
 73
     5
 74
     0
 42
0.00000001
 43
0.00000001
 40
0.0
 40
0.0
 40
0.0
 40
0.0
 40
0.4998978730609584
 40
1.0
 40
1.0
 40
1.0
 40
1.0
 10
671.0495177926697
 20
512.0673672616513
 30
0.0
 10
670.9013228767739
 20
512.0474009236491
 30
0.0
 10
670.6048724938419
 20
512.0074600895744
 30
0.0
 10
670.3561392650652
 20
511.8412941470037
 30
0.0
 10
670.2317472483136
 20
511.7581942056995
 30
0.0
  0
ARC
  5
1B7
330
1F
100
AcDbEntity
  8
0
  6
Continuous
 62
     7
370
    25
100
AcDbCircle
 10
687.6030184681
 20
516.0260107729
 30
0.0
 40
0.5000763403505326
100
AcDbArc
 50
93.1626296397
 51
101.691363562
  0
SPLINE
  5
1B8
330
1F
100
AcDbEntity
  8
0
  6
Continuous
 62
     7
370
    25
100
AcDbSpline
210
0.0
220
0.0
230
1.0
 70
     8
 71
     3
 72
    13
 73
     9
 74
     0
 42
0.00000001
 43
0.00000001
 40
0.0
 40
0.0
 40
0.0
 40
0.0
 40
0.0460329529079903
 40
0.2492425848193757
 40
0.4775225570272938
 40
0.705172116868792
 40
0.8526808263814702
 40
1.0
 40
1.0
 40
1.0
 40
1.0
 10
658.6886512738126
 20
529.7504754214298
 30
0.0
 10
658.816985925851
 20
529.8129843898663
 30
0.0
 10
659.5118459853365
 20
530.1514353447436
 30
0.0
 10
660.8715092199132
 20
530.7694127687727
 30
0.0
 10
662.8794818367317
 20
531.5798850954858
 30
0.0
 10
664.8939920986346
 20
532.2725098967504
 30
0.0
 10
666.7562753798801
 20
532.8227436984486
 30
0.0
 10
667.8486449431186
 20
533.0902598095544
 30
0.0
 10
668.3944785991257
 20
533.2239318761149
 30
0.0
  0
LINE
  5
1B9
330
1F
100
AcDbEntity
  8
0
  6
Continuous
 62
     7
370
    25
100
AcDbLine
 10
668.847938677
 20
531.2763293469
 30
0.0
 11
668.3944785991
 21
533.2239318761
 31
0.0
  0
SPLINE
  5
1BA
330
1F
100
AcDbEntity
  8
0
  6
Continuous
 62
     7
370
    25
100
AcDbSpline
210
0.0
220
0.0
230
1.0
 70
     8
 71
     3
 72
    14
 73
    10
 74
     0
 42
0.00000001
 43
0.00000001
 40
0.0
 40
0.0
 40
0.0
 40
0.0
 40
0.1287979975174464
 40
0.2577402562244546
 40
0.4892610666678019
 40
0.7206947598225004
 40
0.9447692774709466
 40
0.9460214504140287
 40
1.0
 40
1.0
 40
1.0
 40
1.0
 10
668.8479386770127
 20
531.2763293469008
 30
0.0
 10
668.3879912404861
 20
531.293681198618
 30
0.0
 10
667.4675811997629
 20
531.3284043371276
 30
0.0
 10
665.7415058741616
 20
531.3232115519496
 30
0.0
 10
663.6888394480233
 20
531.1948360290405
 30
0.0
 10
661.3741280912162
 20
530.7792886374993
 30
0.0
 10
659.8968164713858
 20
530.2802016299449
 30
0.0
 10
659.0255552598485
 20
529.9059582353892
 30
0.0
 10
658.8555088287628
 20
529.8269778684637
 30
0.0
 10
658.6893176349496
 20
529.7497881186797
 30
0.0
  0
LINE
  5
1BB
330
1F
100
AcDbEntity
  8
0
  6
Continuous
 62
     7
370
    25
100
AcDbLine
 10
658.6893176349
 20
529.7497881187
 30
0.0
 11
658.6886512738
 21
529.7504754214
 31
0.0
  0
ARC
  5
1BC
330
1F
100
AcDbEntity
  8
0
  6
Continuous
 62
     7
370
    25
100
AcDbCircle
 10
679.3040091551
 20
486.3677027623
 30
0.0
 40
48.10950076354645
100
AcDbArc
 50
102.8580809319
 51
103.1066633214
  0
LWPOLYLINE
  5
1BD
330
1F
100
AcDbEntity
  8
0
  6
Continuous
 62
     7
370
    25
100
AcDbPolyline
 90
        3
 70
   128
 43
0.0
 10
658.6886512738
 20
529.7504754214
 10
658.6452943972
 20
529.7778668938
 10
658.540716324
 20
529.8438649239
  0
ARC
  5
1BE
330
1F
100
AcDbEntity
  8
0
  6
Continuous
 62
     7
370
    25
100
AcDbCircle
 10
679.3040091551
 20
486.3677027623
 30
0.0
 40
48.17977797259061
100
AcDbArc
 50
102.8580809319
 51
115.5281512988
  0
LINE
  5
1BF
330
1F
100
AcDbEntity
  8
0
  6
Continuous
 62
     7
370
    25
100
AcDbLine
 10
668.5978701906
 20
533.2708226179
 30
0.0
 11
668.5822309187
 21
533.3393375746
 31
0.0
  0
LINE
  5
1C0
330
1F
100
AcDbEntity
  8
0
  6
Continuous
 62
     7
370
    25
100
AcDbLine
 10
670.859815142
 20
527.5909663236
 30
0.0
 11
671.003176971
 21
530.1866142931
 31
0.0
  0
LINE
  5
1C1
330
1F
100
AcDbEntity
  8
0
  6
Continuous
 62
     7
370
    25
100
AcDbLine
 10
671.003176971
 20
530.1866142931
 30
0.0
 11
674.9532579928
 21
529.9684449394
 31
0.0
  0
SPLINE
  5
1C2
330
1F
100
AcDbEntity
  8
0
  6
Continuous
 62
     7
370
    25
100
AcDbSpline
210
0.0
220
0.0
230
1.0
 70
     8
 71
     3
 72
    18
 73
    14
 74
     0
 42
0.00000001
 43
0.00000001
 40
0.0
 40
0.0
 40
0.0
 40
0.0
 40
0.0068251959707208
 40
0.0088434044614841
 40
0.0223953684577808
 40
0.0309542405206893
 40
0.0563126817251106
 40
0.1198628150995916
 40
0.1957140481646518
 40
0.3754356489149282
 40
0.5559517461447966
 40
0.7770243168945055
 40
1.0
 40
1.0
 40
1.0
 40
1.0
 10
687.3937235654628
 20
526.677771861424
 30
0.0
 10
687.390103420569
 20
526.6788100446079
 30
0.0
 10
687.3854127998684
 20
526.6801552182612
 30
0.0
 10
687.3418800846288
 20
526.6877452050225
 30
0.0
 10
687.2673482162302
 20
526.6994967398149
 30
0.0
 10
687.1005157153098
 20
526.7252155027488
 30
0.0
 10
686.7189441693449
 20
526.7837324492921
 30
0.0
 10
686.0359922340111
 20
526.8929030355972
 30
0.0
 10
684.6914013867338
 20
527.127696258065
 30
0.0
 10
682.8346456579417
 20
527.504938076437
 30
0.0
 10
680.3656916783124
 20
528.1196951446985
 30
0.0
 10
677.7228264442308
 20
528.9056102568272
 30
0.0
 10
675.8790814650047
 20
529.613155906676
 30
0.0
 10
674.9532579927895
 20
529.9684449394188
 30
0.0
  0
LINE
  5
1C3
330
1F
100
AcDbEntity
  8
0
  6
Continuous
 62
     7
370
    25
100
AcDbLine
 10
674.9532579928
 20
529.9684449394
 30
0.0
 11
676.0827334103
 21
531.6186167291
 31
0.0
  0
SPLINE
  5
1C4
330
1F
100
AcDbEntity
  8
0
  6
Continuous
 62
     7
370
    25
100
AcDbSpline
210
0.0
220
0.0
230
1.0
 70
     8
 71
     3
 72
    15
 73
    11
 74
     0
 42
0.00000001
 43
0.00000001
 40
0.0
 40
0.0
 40
0.0
 40
0.0
 40
0.2255198391625381
 40
0.4515645943751972
 40
0.6337799820516985
 40
0.8158790324473556
 40
0.8946729146060259
 40
0.9638048440471941
 40
0.9940832206369753
 40
0.9999999999999999
 40
0.9999999999999999
 40
0.9999999999999999
 40
0.9999999999999999
 10
676.0827334102814
 20
531.6186167290575
 30
0.0
 10
676.9281819511355
 20
531.073609059716
 30
0.0
 10
678.6210468841432
 20
529.9823251706734
 30
0.0
 10
681.0973630778227
 20
528.7652217810808
 30
0.0
 10
683.4257739925339
 20
527.8343219726456
 30
0.0
 10
685.1662534823563
 20
527.2785314278321
 30
0.0
 10
686.4239223387259
 20
526.9419786008677
 30
0.0
 10
687.0680552366383
 20
526.7866314945431
 30
0.0
 10
687.3960005267203
 20
526.711078096276
 30
0.0
 10
687.4885379703445
 20
526.6895573882258
 30
0.0
 10
687.5036649568799
 20
526.6860394235171
 30
0.0
  0
SPLINE
  5
1C5
330
1F
100
AcDbEntity
  8
0
  6
Continuous
 62
     7
370
    25
100
AcDbSpline
210
0.0
220
0.0
230
1.0
 70
     8
 71
     3
 72
    11
 73
     7
 74
     0
 42
0.00000001
 43
0.00000001
 40
0.0
 40
0.0
 40
0.0
 40
0.0
 40
0.0195561212296573
 40
0.1681891996745121
 40
0.589887654079213
 40
1.0
 40
1.0
 40
1.0
 40
1.0
 10
687.3937235654628
 20
526.677771861424
 30
0.0
 10
687.3956822786109
 20
526.6777137477084
 30
0.0
 10
687.4125278684338
 20
526.6772139502677
 30
0.0
 10
687.4644284321926
 20
526.6763675328541
 30
0.0
 10
687.5137130642585
 20
526.6784568313761
 30
0.0
 10
687.506983079182
 20
526.6835354725596
 30
0.0
 10
687.5036649568799
 20
526.6860394235171
 30
0.0
  0
LINE
  5
1C6
330
1F
100
AcDbEntity
  8
0
  6
Continuous
 62
     7
370
    25
100
AcDbLine
 10
668.041362903
 20
528.6559403015
 30
0.0
 11
669.6503198963
 21
530.6978018025
 31
0.0
  0
LINE
  5
1C7
330
1F
100
AcDbEntity
  8
0
  6
Continuous
 62
     7
370
    25
100
AcDbLine
 10
658.6893176349
 20
529.7497881187
 30
0.0
 11
658.6898855205
 21
529.7492010778
 31
0.0
  0
ARC
  5
1C8
330
1F
100
AcDbEntity
  8
0
  6
Continuous
 62
     7
370
    25
100
AcDbCircle
 10
662.4760297483
 20
521.5932036613
 30
0.0
 40
11.5915549620674
100
AcDbArc
 50
51.762407147
 51
56.6533814372
  0
LWPOLYLINE
  5
1C9
330
1F
100
AcDbEntity
  8
0
  6
Continuous
 62
     7
370
    25
100
AcDbPolyline
 90
        4
 70
   128
 43
0.0
 10
687.5036649569
 20
526.6860394235
 10
687.5059072032
 20
526.7033976785
 10
687.5148796861
 20
526.7728305401
 10
687.5212099673
 20
526.8217906862
  0
ARC
  5
1CA
330
1F
100
AcDbEntity
  8
0
  6
Continuous
 62
     7
370
    25
100
AcDbCircle
 10
693.9186440821
 20
557.6770117833
 30
0.0
 40
31.57783498432748
100
AcDbArc
 50
234.8280705831
 51
235.6099480104
  0
LINE
  5
1CB
330
1F
100
AcDbEntity
  8
0
  6
Continuous
 62
     7
370
    25
100
AcDbLine
 10
675.7288035446
 20
531.8644302867
 30
0.0
 11
675.7692854594
 21
531.9218767895
 31
0.0
  0
ARC
  5
1CC
330
1F
100
AcDbEntity
  8
0
  6
Continuous
 62
     7
370
    25
100
AcDbCircle
 10
693.9186440821
 20
557.6770117833
 30
0.0
 40
31.5075577752834
100
AcDbArc
 50
234.8280705831
 51
254.9420027521
  0
LINE
  5
1CD
330
1F
100
AcDbEntity
  8
0
  6
Continuous
 62
     7
370
    25
100
AcDbLine
 10
687.5212099673
 20
526.8217906862
 30
0.0
 11
685.7330856835
 21
527.2513181895
 31
0.0
  0
LINE
  5
1CE
330
1F
100
AcDbEntity
  8
0
  6
Continuous
 62
     7
370
    25
100
AcDbLine
 10
687.5950473766
 20
516.3749349327
 30
0.0
 11
687.5212099673
 21
516.3646166365
 31
0.0
  0
SPLINE
  5
1CF
330
1F
100
AcDbEntity
  8
0
  6
Continuous
 62
     7
370
    25
100
AcDbSpline
210
0.0
220
0.0
230
1.0
 70
     8
 71
     3
 72
    10
 73
     6
 74
     0
 42
0.00000001
 43
0.00000001
 40
0.0
 40
0.0
 40
0.0
 40
0.0
 40
0.0490769085761672
 40
0.5995805843665434
 40
1.0
 40
1.0
 40
1.0
 40
1.0
 10
669.6503198962527
 20
530.6978018024521
 30
0.0
 10
669.6692674346217
 20
530.6831790668507
 30
0.0
 10
669.9007525965285
 20
530.5045307246615
 30
0.0
 10
670.3466263713456
 20
530.2704787312405
 30
0.0
 10
670.8086329482301
 20
530.2114643582228
 30
0.0
 10
671.0031769709836
 20
530.1866142930904
 30
0.0
  0
ARC
  5
1D0
330
1F
100
AcDbEntity
  8
0
  6
Continuous
 62
     7
370
    25
100
AcDbCircle
 10
687.6050183578
 20
527.1757371205
 30
0.0
 40
0.5000763405125184
100
AcDbArc
 50
258.3065203379
 51
266.8373700345
  0
SPLINE
  5
1D1
330
1F
100
AcDbEntity
  8
0
  6
Continuous
 62
     7
370
    25
100
AcDbSpline
210
0.0
220
0.0
230
1.0
 70
     8
 71
     3
 72
     9
 73
     5
 74
     0
 42
0.00000001
 43
0.00000001
 40
0.0
 40
0.0
 40
0.0
 40
0.0
 40
0.8458911907780635
 40
1.0
 40
1.0
 40
1.0
 40
1.0
 10
687.5212099672904
 20
526.8217906862034
 30
0.0
 10
687.5420505634015
 20
526.817975879211
 30
0.0
 10
687.5666880065364
 20
526.8134660710538
 30
0.0
 10
687.5912605337127
 20
526.8117386073027
 30
0.0
 10
687.5950473766153
 20
526.8114723899209
 30
0.0
  0
LINE
  5
1D2
330
1F
100
AcDbEntity
  8
0
  6
Continuous
 62
     7
370
    25
100
AcDbLine
 10
675.7283655732
 20
511.3225985462
 30
0.0
 11
673.8896247239
 21
510.3256323105
 31
0.0
  0
LINE
  5
1D3
330
1F
100
AcDbEntity
  8
0
  6
Continuous
 62
     7
370
    25
100
AcDbLine
 10
673.1496003088
 20
512.1833582104
 30
0.0
 11
673.8896247239
 21
510.3256323105
 31
0.0
  0
LINE
  5
1D4
330
1F
100
AcDbEntity
  8
0
  6
Continuous
 62
     7
370
    25
100
AcDbLine
 10
670.162829982
 20
511.7042367234
 30
0.0
 11
670.0409962353
 21
509.7082562144
 31
0.0
  0
LINE
  5
1D5
330
1F
100
AcDbEntity
  8
0
  6
Continuous
 62
     7
370
    25
100
AcDbLine
 10
670.0409962353
 20
509.7082562144
 30
0.0
 11
668.5980889956
 21
509.9165432797
 31
0.0
  0
ARC
  5
1D6
330
1F
100
AcDbEntity
  8
0
  6
Continuous
 62
     7
370
    25
100
AcDbCircle
 10
693.9186440821
 20
557.6770117833
 30
0.0
 40
33.57753037464038
100
AcDbArc
 50
234.8280705831
 51
235.6099480104
  0
LINE
  5
1D7
330
1F
100
AcDbEntity
  8
0
  6
Continuous
 62
     7
370
    25
100
AcDbLine
 10
674.5769151934
 20
530.2298248663
 30
0.0
 11
675.7288035446
 21
531.8644302867
 31
0.0
  0
ARC
  5
1D8
330
1F
100
AcDbEntity
  8
0
  6
Continuous
 62
     7
370
    25
100
AcDbCircle
 10
679.3040091551
 20
486.3677027623
 30
0.0
 40
46.10980537323368
100
AcDbArc
 50
102.8580809319
 51
103.1066633214
  0
LINE
  5
1D9
330
1F
100
AcDbEntity
  8
0
  6
Continuous
 62
     7
370
    25
100
AcDbLine
 10
669.0428761956
 20
531.3212710516
 30
0.0
 11
668.5978701906
 21
533.2708226179
 31
0.0
  0
ARC
  5
1DA
330
1F
100
AcDbEntity
  8
0
  6
Continuous
 62
     7
370
    25
100
AcDbCircle
 10
670.5850449535
 20
524.5650981371
 30
0.0
 40
6.92994638714442
100
AcDbArc
 50
54.8280705831
 51
102.8580809319
  0
ARC
  5
1DB
330
1F
100
AcDbEntity
  8
0
  6
Continuous
 62
     7
370
    25
100
AcDbCircle
 10
670.5850449535
 20
524.5650981371
 30
0.0
 40
8.92964177745718
100
AcDbArc
 50
54.8280705831
 51
102.8580809319
  0
ARC
  5
1DC
330
1F
100
AcDbEntity
  8
0
  6
Continuous
 62
     7
370
    25
100
AcDbCircle
 10
670.5850449535
 20
518.6213091855
 30
0.0
 40
6.929946387144405
100
AcDbArc
 50
266.5070253286
 51
291.7198462835
  0
ARC
  5
1DD
330
1F
100
AcDbEntity
  8
0
  6
Continuous
 62
     7
370
    25
100
AcDbCircle
 10
670.5850449535
 20
518.6213091855
 30
0.0
 40
8.929641777457228
100
AcDbArc
 50
266.5070253286
 51
291.7198462835
  0
ARC
  5
1DE
330
1F
100
AcDbEntity
  8
0
  6
Continuous
 62
     7
370
    25
100
AcDbCircle
 10
670.5850449535
 20
518.6213091855
 30
0.0
 40
8.999918986501317
100
AcDbArc
 50
257.1419190681
 51
305.1719294169
  0
ARC
  5
1DF
330
1F
100
AcDbEntity
  8
0
  6
Continuous
 62
     7
370
    25
100
AcDbCircle
 10
670.5850449535
 20
524.5650981371
 30
0.0
 40
8.999918986501244
100
AcDbArc
 50
54.8280705831
 51
102.8580809319
  0
CIRCLE
  5
1E0
330
1F
100
AcDbEntity
  8
0
  6
Continuous
 62
     7
370
    25
100
AcDbCircle
 10
662.4760297483
 20
521.5932036613
 30
0.0
 40
5.32891433662769
  0
CIRCLE
  5
1E1
330
1F
100
AcDbEntity
  8
0
  6
Continuous
 62
     7
370
    25
100
AcDbCircle
 10
662.4760297483
 20
521.5932036613
 30
0.0
 40
5.925127771161328
  0
CIRCLE
  5
1E2
330
1F
100
AcDbEntity
  8
0
  6
Continuous
 62
     7
370
    25
100
AcDbCircle
 10
662.4760297483
 20
521.5932036613
 30
0.0
 40
4.452105871057256
  0
CIRCLE
  5
1E3
330
1F
100
AcDbEntity
  8
0
  6
Continuous
 62
     7
370
    25
100
AcDbCircle
 10
662.4760297483
 20
521.5932036613
 30
0.0
 40
5.074569253689219
  0
CIRCLE
  5
1E4
330
1F
100
AcDbEntity
  8
0
  6
Continuous
 62
     7
370
    25
100
AcDbCircle
 10
662.4760297483
 20
521.5932036613
 30
0.0
 40
7.149999999999977
  0
CIRCLE
  5
1E5
330
1F
100
AcDbEntity
  8
0
  6
Continuous
 62
     7
370
    25
100
AcDbCircle
 10
560.8760297483
 20
521.5932036613
 30
0.0
 40
5.328914336627577
  0
CIRCLE
  5
1E6
330
1F
100
AcDbEntity
  8
0
  6
Continuous
 62
     7
370
    25
100
AcDbCircle
 10
560.8760297483
 20
521.5932036613
 30
0.0
 40
5.925127771161442
  0
CIRCLE
  5
1E7
330
1F
100
AcDbEntity
  8
0
  6
Continuous
 62
     7
370
    25
100
AcDbCircle
 10
560.8760297483
 20
521.5932036613
 30
0.0
 40
4.452105871057256
  0
CIRCLE
  5
1E8
330
1F
100
AcDbEntity
  8
0
  6
Continuous
 62
     7
370
    25
100
AcDbCircle
 10
560.8760297483
 20
521.5932036613
 30
0.0
 40
5.074569253689219
  0
CIRCLE
  5
1E9
330
1F
100
AcDbEntity
  8
0
  6
Continuous
 62
     7
370
    25
100
AcDbCircle
 10
560.8760297483
 20
521.5932036613
 30
0.0
 40
7.150000000000091
  0
ARC
  5
1EA
330
1F
100
AcDbEntity
  8
0
  6
Continuous
 62
     7
370
    25
100
AcDbCircle
 10
662.4760297483
 20
521.5932036613
 30
0.0
 40
10.29999999999995
100
AcDbArc
 50
112.7308609266
 51
127.2691390734
  0
SPLINE
  5
1EB
330
1F
100
AcDbEntity
  8
0
  6
Continuous
 62
     7
370
    25
100
AcDbSpline
210
0.0
220
0.0
230
1.0
 70
    24
 71
     3
 72
    10
 73
     6
 74
     0
 42
0.00000001
 43
0.00000001
 40
0.0
 40
0.0
 40
0.0
 40
0.0
 40
0.0771880427723872
 40
0.6809584064629465
 40
0.9999999999999999
 40
0.9999999999999999
 40
0.9999999999999999
 40
0.9999999999999999
 10
658.4960799998573
 20
531.0932036613272
 30
0.0
 10
658.5712924813108
 20
531.0932036613272
 30
0.0
 10
659.2348223452268
 20
531.0932036613274
 30
0.0
 10
660.2364079421478
 20
531.0932036613272
 30
0.0
 10
661.1942536758468
 20
531.0932036613272
 30
0.0
 10
661.525407413993
 20
531.0932036613272
 30
0.0
  0
SPLINE
  5
1EC
330
1F
100
AcDbEntity
  8
0
  6
Continuous
 62
     7
370
    25
100
AcDbSpline
210
0.0
220
0.0
230
1.0
 70
    24
 71
     3
 72
    10
 73
     6
 74
     0
 42
0.00000001
 43
0.00000001
 40
0.0
 40
0.0
 40
0.0
 40
0.0
 40
0.3416077371342038
 40
0.9253698762438661
 40
1.0
 40
1.0
 40
1.0
 40
1.0
 10
661.6317038157694
 20
512.0932036613273
 30
0.0
 10
661.264883417163
 20
512.0932036613273
 30
0.0
 10
660.271215797952
 20
512.0932036613273
 30
0.0
 10
659.2348081522227
 20
512.0932036613272
 30
0.0
 10
658.5712910362995
 20
512.0932036613272
 30
0.0
 10
658.4960799998573
 20
512.0932036613272
 30
0.0
  0
ARC
  5
1ED
330
1F
100
AcDbEntity
  8
0
  6
Continuous
 62
     7
370
    25
100
AcDbCircle
 10
662.4760297483
 20
521.5932036613
 30
0.0
 40
10.30000000000008
100
AcDbArc
 50
232.7308609266
 51
247.2691390734
  0
SPLINE
  5
1EE
330
1F
100
AcDbEntity
  8
0
  6
Continuous
 62
     7
370
    25
100
AcDbSpline
210
0.0
220
0.0
230
1.0
 70
    24
 71
     3
 72
    11
 73
     7
 74
     0
 42
0.00000001
 43
0.00000001
 40
0.0
 40
0.0
 40
0.0
 40
0.0
 40
0.2431641197380921
 40
0.4936284730588964
 40
0.7421706076863298
 40
1.0
 40
1.0
 40
1.0
 40
1.0
 10
656.2387632865449
 20
513.3964660734044
 30
0.0
 10
655.9250042848481
 20
513.9399126056753
 30
0.0
 10
655.2880666598282
 20
515.0431209334621
 30
0.0
 10
654.2776776908216
 20
516.7931659631887
 30
0.0
 10
653.2459705629856
 20
518.5801351271315
 30
0.0
 10
652.5918648200874
 20
519.7130795073538
 30
0.0
 10
652.2588135381184
 20
520.2899412492501
 30
0.0
  0
ARC
  5
1EF
330
1F
100
AcDbEntity
  8
0
  6
Continuous
 62
     7
370
    25
100
AcDbCircle
 10
662.4760297483
 20
521.5932036613
 30
0.0
 40
10.29999999999995
100
AcDbArc
 50
172.7308609266
 51
187.2691390734
  0
SPLINE
  5
1F0
330
1F
100
AcDbEntity
  8
0
  6
Continuous
 62
     7
370
    25
100
AcDbSpline
210
0.0
220
0.0
230
1.0
 70
    24
 71
     3
 72
    11
 73
     7
 74
     0
 42
0.00000001
 43
0.00000001
 40
0.0
 40
0.0
 40
0.0
 40
0.0
 40
0.2431641197380916
 40
0.4936284730588938
 40
0.7421706076863296
 40
1.0
 40
1.0
 40
1.0
 40
1.0
 10
652.2588135381184
 20
522.8964660734043
 30
0.0
 10
652.5725725398152
 20
523.4399126056752
 30
0.0
 10
653.2095101648351
 20
524.5431209334621
 30
0.0
 10
654.2198991338417
 20
526.2931659631887
 30
0.0
 10
655.2516062616777
 20
528.0801351271315
 30
0.0
 10
655.9057120045759
 20
529.2130795073539
 30
0.0
 10
656.2387632865449
 20
529.7899412492501
 30
0.0
  0
ARC
  5
1F1
330
1F
100
AcDbEntity
  8
0
  6
Continuous
 62
     7
370
    25
100
AcDbCircle
 10
560.8760297483
 20
521.5932036613
 30
0.0
 40
10.30000000000002
100
AcDbArc
 50
292.7308609266
 51
307.2691390734
  0
SPLINE
  5
1F2
330
1F
100
AcDbEntity
  8
0
  6
Continuous
 62
     7
370
    25
100
AcDbSpline
210
0.0
220
0.0
230
1.0
 70
    24
 71
     3
 72
    10
 73
     6
 74
     0
 42
0.00000001
 43
0.00000001
 40
0.0
 40
0.0
 40
0.0
 40
0.0
 40
0.0771880427723874
 40
0.680958406462948
 40
1.0
 40
1.0
 40
1.0
 40
1.0
 10
564.8559794967103
 20
512.0932036613273
 30
0.0
 10
564.7807670152569
 20
512.0932036613273
 30
0.0
 10
564.1172371513408
 20
512.093203661327
 30
0.0
 10
563.1156515544199
 20
512.0932036613273
 30
0.0
 10
562.1578058207209
 20
512.0932036613273
 30
0.0
 10
561.8266520825747
 20
512.0932036613273
 30
0.0
  0
SPLINE
  5
1F3
330
1F
100
AcDbEntity
  8
0
  6
Continuous
 62
     7
370
    25
100
AcDbSpline
210
0.0
220
0.0
230
1.0
 70
    24
 71
     3
 72
    10
 73
     6
 74
     0
 42
0.00000001
 43
0.00000001
 40
0.0
 40
0.0
 40
0.0
 40
0.0
 40
0.3416077371342031
 40
0.9253698762438662
 40
1.0
 40
1.0
 40
1.0
 40
1.0
 10
561.7203556807983
 20
531.0932036613272
 30
0.0
 10
562.0871760794047
 20
531.0932036613272
 30
0.0
 10
563.0808436986157
 20
531.0932036613273
 30
0.0
 10
564.1172513443449
 20
531.0932036613273
 30
0.0
 10
564.7807684602682
 20
531.0932036613273
 30
0.0
 10
564.8559794967103
 20
531.0932036613273
 30
0.0
  0
ARC
  5
1F4
330
1F
100
AcDbEntity
  8
0
  6
Continuous
 62
     7
370
    25
100
AcDbCircle
 10
560.8760297483
 20
521.5932036613
 30
0.0
 40
10.30000000000002
100
AcDbArc
 50
52.7308609266
 51
67.2691390734
  0
SPLINE
  5
1F5
330
1F
100
AcDbEntity
  8
0
  6
Continuous
 62
     7
370
    25
100
AcDbSpline
210
0.0
220
0.0
230
1.0
 70
    24
 71
     3
 72
    11
 73
     7
 74
     0
 42
0.00000001
 43
0.00000001
 40
0.0
 40
0.0
 40
0.0
 40
0.0
 40
0.2431641197380921
 40
0.4936284730588964
 40
0.7421706076863298
 40
1.0
 40
1.0
 40
1.0
 40
1.0
 10
567.1132962100228
 20
529.7899412492501
 30
0.0
 10
567.4270552117196
 20
529.2464947169791
 30
0.0
 10
568.0639928367394
 20
528.1432863891924
 30
0.0
 10
569.074381805746
 20
526.3932413594658
 30
0.0
 10
570.1060889335821
 20
524.6062721955229
 30
0.0
 10
570.7601946764803
 20
523.4733278153006
 30
0.0
 10
571.0932459584492
 20
522.8964660734043
 30
0.0
  0
ARC
  5
1F6
330
1F
100
AcDbEntity
  8
0
  6
Continuous
 62
     7
370
    25
100
AcDbCircle
 10
560.8760297483
 20
521.5932036613
 30
0.0
 40
10.29999999999995
100
AcDbArc
 50
352.7308609266
 51
7.2691390734
  0
SPLINE
  5
1F7
330
1F
100
AcDbEntity
  8
0
  6
Continuous
 62
     7
370
    25
100
AcDbSpline
210
0.0
220
0.0
230
1.0
 70
    24
 71
     3
 72
    11
 73
     7
 74
     0
 42
0.00000001
 43
0.00000001
 40
0.0
 40
0.0
 40
0.0
 40
0.0
 40
0.243164119738092
 40
0.4936284730588937
 40
0.7421706076863295
 40
1.0
 40
1.0
 40
1.0
 40
1.0
 10
571.0932459584492
 20
520.2899412492501
 30
0.0
 10
570.7794869567525
 20
519.7464947169792
 30
0.0
 10
570.1425493317325
 20
518.6432863891924
 30
0.0
 10
569.1321603627259
 20
516.8932413594658
 30
0.0
 10
568.10045323489
 20
515.1062721955229
 30
0.0
 10
567.4463474919919
 20
513.9733278153005
 30
0.0
 10
567.1132962100228
 20
513.3964660734044
 30
0.0
  0
ARC
  5
1F8
330
1F
100
AcDbEntity
  8
0
  6
Continuous
 62
     7
370
    25
100
AcDbCircle
 10
662.4760297483
 20
521.5932036613
 30
0.0
 40
10.57499999999997
100
AcDbArc
 50
81.6509017607
 51
210.0
  0
ARC
  5
1F9
330
1F
100
AcDbEntity
  8
0
  6
Continuous
 62
     7
370
    25
100
AcDbCircle
 10
662.4760297483
 20
521.5932036613
 30
0.0
 40
10.57500000000013
100
AcDbArc
 50
210.0
 51
278.3490982393
  0
ARC
  5
1FA
330
1F
100
AcDbEntity
  8
0
  6
Continuous
 62
     7
370
    25
100
AcDbCircle
 10
662.4760297483
 20
521.5932036613
 30
0.0
 40
14.87500000000004
100
AcDbArc
 50
53.3837470415
 51
210.0
  0
ARC
  5
1FB
330
1F
100
AcDbEntity
  8
0
  6
Continuous
 62
     7
370
    25
100
AcDbCircle
 10
662.4760297483
 20
521.5932036613
 30
0.0
 40
14.87500000000006
100
AcDbArc
 50
210.0
 51
306.6156955593
  0
SPLINE
  5
1FC
330
1F
100
AcDbEntity
  8
0
  6
Continuous
 62
     7
370
    25
100
AcDbSpline
210
0.0
220
0.0
230
1.0
 70
     8
 71
     3
 72
     9
 73
     5
 74
     0
 42
0.00000001
 43
0.00000001
 40
0.0
 40
0.0
 40
0.0
 40
0.0
 40
0.5850553834533977
 40
0.9999999999999999
 40
0.9999999999999999
 40
0.9999999999999999
 40
0.9999999999999999
 10
673.6024403961986
 20
534.8216951132634
 30
0.0
 10
673.3426654763898
 20
535.2082416388275
 30
0.0
 10
672.8986478207014
 20
535.8689423801528
 30
0.0
 10
672.2267966286686
 20
536.3471012122789
 30
0.0
 10
671.9480155934141
 20
536.5455106455238
 30
0.0
  0
LINE
  5
1FD
330
1F
100
AcDbEntity
  8
0
  6
Continuous
 62
     7
370
    25
100
AcDbLine
 10
675.0710603017
 20
532.27797082
 30
0.0
 11
673.6024403962
 21
534.8216951133
 31
0.0
  0
SPLINE
  5
1FE
330
1F
100
AcDbEntity
  8
0
  6
Continuous
 62
     7
370
    25
100
AcDbSpline
210
0.0
220
0.0
230
1.0
 70
    24
 71
     3
 72
     9
 73
     5
 74
     0
 42
0.00000001
 43
0.00000001
 40
0.0
 40
0.0
 40
0.0
 40
0.0
 40
0.9382200234127784
 40
1.0
 40
1.0
 40
1.0
 40
1.0
 10
673.6024403961977
 20
508.3647122093897
 30
0.0
 10
674.0463380391493
 20
509.1335654803418
 30
0.0
 10
674.5194654846036
 20
509.9530462543242
 30
0.0
 10
675.0137664433203
 20
510.8092006290511
 30
0.0
 10
675.0443043449768
 20
510.8620938262768
 30
0.0
  0
SPLINE
  5
1FF
330
1F
100
AcDbEntity
  8
0
  6
Continuous
 62
     7
370
    25
100
AcDbSpline
210
0.0
220
0.0
230
1.0
 70
     8
 71
     3
 72
     9
 73
     5
 74
     0
 42
0.00000001
 43
0.00000001
 40
0.0
 40
0.0
 40
0.0
 40
0.0
 40
0.584191749740925
 40
0.9999999999999999
 40
0.9999999999999999
 40
0.9999999999999999
 40
0.9999999999999999
 10
671.9480155934141
 20
506.6408966771307
 30
0.0
 10
672.3356718588647
 20
506.9301725806305
 30
0.0
 10
672.9992489559778
 20
507.4253454474641
 30
0.0
 10
673.4252893043863
 20
508.0888299000753
 30
0.0
 10
673.6024403961977
 20
508.3647122093897
 30
0.0
  0
ARC
  5
200
330
1F
100
AcDbEntity
  8
0
  6
Continuous
 62
     7
370
    25
100
AcDbCircle
 10
662.4760297483
 20
521.5932036613
 30
0.0
 40
17.70000000000005
100
AcDbArc
 50
297.6465635726
 51
302.3534364274
  0
SPLINE
  5
201
330
1F
100
AcDbEntity
  8
0
  6
Continuous
 62
     7
370
    25
100
AcDbSpline
210
0.0
220
0.0
230
1.0
 70
     8
 71
     3
 72
     9
 73
     5
 74
     0
 42
0.00000001
 43
0.00000001
 40
0.0
 40
0.0
 40
0.0
 40
0.0
 40
0.5850553834536333
 40
1.0
 40
1.0
 40
1.0
 40
1.0
 10
668.36903407545
 20
505.3432036613273
 30
0.0
 10
668.8336806462373
 20
505.374902078366
 30
0.0
 10
669.6278731003679
 20
505.4290822772585
 30
0.0
 10
670.3778963920488
 20
505.7718430610585
 30
0.0
 10
670.6891145192162
 20
505.9140698030595
 30
0.0
  0
SPLINE
  5
202
330
1F
100
AcDbEntity
  8
0
  6
Continuous
 62
     7
370
    25
100
AcDbSpline
210
0.0
220
0.0
230
1.0
 70
    24
 71
     3
 72
    11
 73
     7
 74
     0
 42
0.00000001
 43
0.00000001
 40
0.0
 40
0.0
 40
0.0
 40
0.0
 40
0.2328716322111476
 40
0.471026502431324
 40
0.7311421212560291
 40
0.9999999999999999
 40
0.9999999999999999
 40
0.9999999999999999
 40
0.9999999999999999
 10
656.5830254211176
 20
505.3432036613272
 30
0.0
 10
657.4768818514381
 20
505.3432036613272
 30
0.0
 10
659.2848739372573
 20
505.3432036613273
 30
0.0
 10
662.2125466778202
 20
505.3432036613272
 30
0.0
 10
665.2996455882983
 20
505.3432036613272
 30
0.0
 10
667.3346936092844
 20
505.3432036613272
 30
0.0
 10
668.36903407545
 20
505.3432036613273
 30
0.0
  0
SPLINE
  5
203
330
1F
100
AcDbEntity
  8
0
  6
Continuous
 62
     7
370
    25
100
AcDbSpline
210
0.0
220
0.0
230
1.0
 70
     8
 71
     3
 72
     9
 73
     5
 74
     0
 42
0.00000001
 43
0.00000001
 40
0.0
 40
0.0
 40
0.0
 40
0.0
 40
0.5841917497409249
 40
1.0
 40
1.0
 40
1.0
 40
1.0
 10
654.2629449773513
 20
505.9140698030595
 30
0.0
 10
654.70729339121
 20
505.722987580993
 30
0.0
 10
655.4679142217093
 20
505.3958993909402
 30
0.0
 10
656.2555287868909
 20
505.3586798524869
 30
0.0
 10
656.5830254211176
 20
505.3432036613272
 30
0.0
  0
ARC
  5
204
330
1F
100
AcDbEntity
  8
0
  6
Continuous
 62
     7
370
    25
100
AcDbCircle
 10
662.4760297483
 20
521.5932036613
 30
0.0
 40
17.70000000000002
100
AcDbArc
 50
237.6465635726
 51
242.3534364274
  0
SPLINE
  5
205
330
1F
100
AcDbEntity
  8
0
  6
Continuous
 62
     7
370
    25
100
AcDbSpline
210
0.0
220
0.0
230
1.0
 70
     8
 71
     3
 72
     9
 73
     5
 74
     0
 42
0.00000001
 43
0.00000001
 40
0.0
 40
0.0
 40
0.0
 40
0.0
 40
0.5850553834535965
 40
1.0
 40
1.0
 40
1.0
 40
1.0
 10
651.3496191003699
 20
508.3647122093897
 30
0.0
 10
651.6093940201787
 20
507.9781656838259
 30
0.0
 10
652.053411675867
 20
507.3174649425012
 30
0.0
 10
652.7252628678993
 20
506.8393061103754
 30
0.0
 10
653.0040439031535
 20
506.6408966771307
 30
0.0
  0
SPLINE
  5
206
330
1F
100
AcDbEntity
  8
0
  6
Continuous
 62
     7
370
    25
100
AcDbSpline
210
0.0
220
0.0
230
1.0
 70
    24
 71
     3
 72
    11
 73
     7
 74
     0
 42
0.00000001
 43
0.00000001
 40
0.0
 40
0.0
 40
0.0
 40
0.0
 40
0.2556279644380986
 40
0.5185037642963877
 40
0.7560467972580108
 40
1.0
 40
1.0
 40
1.0
 40
1.0
 10
645.4566147732035
 20
518.5716951132648
 30
0.0
 10
645.9479078514718
 20
517.7207505402974
 30
0.0
 10
646.9444236709157
 20
515.9947345104742
 30
0.0
 10
648.4646345773689
 20
513.3616519822771
 30
0.0
 10
649.9563502989171
 20
510.7779245621064
 30
0.0
 10
650.8810924624236
 20
509.1762241510119
 30
0.0
 10
651.3496191003699
 20
508.3647122093897
 30
0.0
  0
SPLINE
  5
207
330
1F
100
AcDbEntity
  8
0
  6
Continuous
 62
     7
370
    25
100
AcDbSpline
210
0.0
220
0.0
230
1.0
 70
     8
 71
     3
 72
     9
 73
     5
 74
     0
 42
0.00000001
 43
0.00000001
 40
0.0
 40
0.0
 40
0.0
 40
0.0
 40
0.5841917497409207
 40
0.9999999999999999
 40
0.9999999999999999
 40
0.9999999999999999
 40
0.9999999999999999
 10
644.7909591322209
 20
520.8663767872561
 30
0.0
 10
644.8476512806291
 20
520.3860186616897
 30
0.0
 10
644.9446950140151
 20
519.5637576048034
 30
0.0
 10
645.3062692307883
 20
518.863053613739
 30
0.0
 10
645.4566147732035
 20
518.5716951132648
 30
0.0
  0
ARC
  5
208
330
1F
100
AcDbEntity
  8
0
  6
Continuous
 62
     7
370
    25
100
AcDbCircle
 10
662.4760297483
 20
521.5932036613
 30
0.0
 40
17.70000000000003
100
AcDbArc
 50
177.6465635726
 51
182.3534364274
  0
SPLINE
  5
209
330
1F
100
AcDbEntity
  8
0
  6
Continuous
 62
     7
370
    25
100
AcDbSpline
210
0.0
220
0.0
230
1.0
 70
     8
 71
     3
 72
     9
 73
     5
 74
     0
 42
0.00000001
 43
0.00000001
 40
0.0
 40
0.0
 40
0.0
 40
0.0
 40
0.5850553834536211
 40
1.0
 40
1.0
 40
1.0
 40
1.0
 10
645.4566147732035
 20
524.6147122093897
 30
0.0
 10
645.2517431222251
 20
524.1964672667873
 30
0.0
 10
644.9015683237828
 20
523.4815863265701
 30
0.0
 10
644.8233962241343
 20
522.6606667106443
 30
0.0
 10
644.7909591322209
 20
522.3200305353986
 30
0.0
  0
SPLINE
  5
20A
330
1F
100
AcDbEntity
  8
0
  6
Continuous
 62
     7
370
    25
100
AcDbSpline
210
0.0
220
0.0
230
1.0
 70
    24
 71
     3
 72
    11
 73
     7
 74
     0
 42
0.00000001
 43
0.00000001
 40
0.0
 40
0.0
 40
0.0
 40
0.0
 40
0.2328716322111476
 40
0.4710265024313204
 40
0.7311421212560303
 40
1.0
 40
1.0
 40
1.0
 40
1.0
 10
651.3496191003699
 20
534.8216951132649
 30
0.0
 10
650.9026908852096
 20
534.0475927372713
 30
0.0
 10
649.9986948422998
 20
532.4818256611105
 30
0.0
 10
648.5348584720184
 20
529.9463866938158
 30
0.0
 10
646.9913090167794
 20
527.2728806133467
 30
0.0
 10
645.9737850062863
 20
525.5104773292513
 30
0.0
 10
645.4566147732035
 20
524.6147122093897
 30
0.0
  0
SPLINE
  5
20B
330
1F
100
AcDbEntity
  8
0
  6
Continuous
 62
     7
370
    25
100
AcDbSpline
210
0.0
220
0.0
230
1.0
 70
     8
 71
     3
 72
     9
 73
     5
 74
     0
 42
0.00000001
 43
0.00000001
 40
0.0
 40
0.0
 40
0.0
 40
0.0
 40
0.584191749740919
 40
1.0
 40
1.0
 40
1.0
 40
1.0
 10
653.0040439031535
 20
536.5455106455238
 30
0.0
 10
652.6163876377029
 20
536.2562347420242
 30
0.0
 10
651.9528105405897
 20
535.7610618751905
 30
0.0
 10
651.5267701921812
 20
535.0975774225793
 30
0.0
 10
651.3496191003699
 20
534.8216951132649
 30
0.0
  0
ARC
  5
20C
330
1F
100
AcDbEntity
  8
0
  6
Continuous
 62
     7
370
    25
100
AcDbCircle
 10
662.4760297483
 20
521.5932036613
 30
0.0
 40
17.70000000000012
100
AcDbArc
 50
117.6465635726
 51
122.3534364274
  0
SPLINE
  5
20D
330
1F
100
AcDbEntity
  8
0
  6
Continuous
 62
     7
370
    25
100
AcDbSpline
210
0.0
220
0.0
230
1.0
 70
     8
 71
     3
 72
     9
 73
     5
 74
     0
 42
0.00000001
 43
0.00000001
 40
0.0
 40
0.0
 40
0.0
 40
0.0
 40
0.5850553834536077
 40
1.0
 40
1.0
 40
1.0
 40
1.0
 10
656.5830254211176
 20
537.8432036613273
 30
0.0
 10
656.1183788503301
 20
537.8115052442887
 30
0.0
 10
655.3241863961997
 20
537.7573250453962
 30
0.0
 10
654.5741631045188
 20
537.4145642615962
 30
0.0
 10
654.2629449773513
 20
537.2723375195951
 30
0.0
  0
SPLINE
  5
20E
330
1F
100
AcDbEntity
  8
0
  6
Continuous
 62
     7
370
    25
100
AcDbSpline
210
0.0
220
0.0
230
1.0
 70
    24
 71
     3
 72
    11
 73
     7
 74
     0
 42
0.00000001
 43
0.00000001
 40
0.0
 40
0.0
 40
0.0
 40
0.0
 40
0.2328716322111489
 40
0.4710265024313232
 40
0.7311421212560311
 40
1.0
 40
1.0
 40
1.0
 40
1.0
 10
668.36903407545
 20
537.8432036613273
 30
0.0
 10
667.4751776451295
 20
537.8432036613273
 30
0.0
 10
665.6671855593103
 20
537.8432036613273
 30
0.0
 10
662.7395128187474
 20
537.8432036613273
 30
0.0
 10
659.6524139082693
 20
537.8432036613273
 30
0.0
 10
657.6173658872833
 20
537.8432036613273
 30
0.0
 10
656.5830254211176
 20
537.8432036613273
 30
0.0
  0
SPLINE
  5
20F
330
1F
100
AcDbEntity
  8
0
  6
Continuous
 62
     7
370
    25
100
AcDbSpline
210
0.0
220
0.0
230
1.0
 70
     8
 71
     3
 72
     9
 73
     5
 74
     0
 42
0.00000001
 43
0.00000001
 40
0.0
 40
0.0
 40
0.0
 40
0.0
 40
0.5841917497409237
 40
1.0
 40
1.0
 40
1.0
 40
1.0
 10
670.6891145192162
 20
537.272337519595
 30
0.0
 10
670.2447661053576
 20
537.4634197416616
 30
0.0
 10
669.4841452748583
 20
537.7905079317144
 30
0.0
 10
668.6965307096767
 20
537.8277274701676
 30
0.0
 10
668.36903407545
 20
537.8432036613273
 30
0.0
  0
ARC
  5
210
330
1F
100
AcDbEntity
  8
0
  6
Continuous
 62
     7
370
    25
100
AcDbCircle
 10
662.4760297483
 20
521.5932036613
 30
0.0
 40
17.70000000000005
100
AcDbArc
 50
57.6465635726
 51
62.3534364274
  0
ARC
  5
211
330
1F
100
AcDbEntity
  8
0
  6
Continuous
 62
     7
370
    25
100
AcDbCircle
 10
662.4760297483
 20
521.5932036613
 30
0.0
 40
16.20000000000008
100
AcDbArc
 50
43.9250761661
 51
316.0742282651
  0
ARC
  5
212
330
1F
100
AcDbEntity
  8
0
  6
Continuous
 62
     7
370
    25
100
AcDbCircle
 10
560.8760297483
 20
521.5932036613
 30
0.0
 40
10.57500000000013
100
AcDbArc
 50
261.6509017607
 51
30.0
  0
ARC
  5
213
330
1F
100
AcDbEntity
  8
0
  6
Continuous
 62
     7
370
    25
100
AcDbCircle
 10
560.8760297483
 20
521.5932036613
 30
0.0
 40
10.575
100
AcDbArc
 50
30.0
 51
98.3490982393
  0
ARC
  5
214
330
1F
100
AcDbEntity
  8
0
  6
Continuous
 62
     7
370
    25
100
AcDbCircle
 10
560.8760297483
 20
521.5932036613
 30
0.0
 40
14.87500000000007
100
AcDbArc
 50
233.3837470415
 51
30.0
  0
ARC
  5
215
330
1F
100
AcDbEntity
  8
0
  6
Continuous
 62
     7
370
    25
100
AcDbCircle
 10
560.8760297483
 20
521.5932036613
 30
0.0
 40
14.87499999999998
100
AcDbArc
 50
30.0
 51
126.6162529585
  0
SPLINE
  5
216
330
1F
100
AcDbEntity
  8
0
  6
Continuous
 62
     7
370
    25
100
AcDbSpline
210
0.0
220
0.0
230
1.0
 70
     8
 71
     3
 72
     9
 73
     5
 74
     0
 42
0.00000001
 43
0.00000001
 40
0.0
 40
0.0
 40
0.0
 40
0.0
 40
0.5850553834533978
 40
0.9999999999999999
 40
0.9999999999999999
 40
0.9999999999999999
 40
0.9999999999999999
 10
549.749619100369
 20
508.364712209391
 30
0.0
 10
550.0093940201779
 20
507.9781656838269
 30
0.0
 10
550.4534116758663
 20
507.3174649425016
 30
0.0
 10
551.1252628678991
 20
506.8393061103756
 30
0.0
 10
551.4040439031536
 20
506.6408966771306
 30
0.0
  0
LINE
  5
217
330
1F
100
AcDbEntity
  8
0
  6
Continuous
 62
     7
370
    25
100
AcDbLine
 10
548.2809991949
 20
510.9084365027
 30
0.0
 11
549.7496191004
 21
508.3647122094
 31
0.0
  0
SPLINE
  5
218
330
1F
100
AcDbEntity
  8
0
  6
Continuous
 62
     7
370
    25
100
AcDbSpline
210
0.0
220
0.0
230
1.0
 70
    24
 71
     3
 72
     9
 73
     5
 74
     0
 42
0.00000001
 43
0.00000001
 40
0.0
 40
0.0
 40
0.0
 40
0.0
 40
0.9249785540008761
 40
1.0
 40
1.0
 40
1.0
 40
1.0
 10
549.74961910037
 20
534.8216951132647
 30
0.0
 10
549.305633774994
 20
534.0526899718985
 30
0.0
 10
548.8256385108274
 20
533.2213137869699
 30
0.0
 10
548.3241666253681
 20
532.3527390027868
 30
0.0
 10
548.286545479393
 20
532.2875772665191
 30
0.0
  0
SPLINE
  5
219
330
1F
100
AcDbEntity
  8
0
  6
Continuous
 62
     7
370
    25
100
AcDbSpline
210
0.0
220
0.0
230
1.0
 70
     8
 71
     3
 72
     9
 73
     5
 74
     0
 42
0.00000001
 43
0.00000001
 40
0.0
 40
0.0
 40
0.0
 40
0.0
 40
0.5841917497409256
 40
1.0
 40
1.0
 40
1.0
 40
1.0
 10
551.4040439031536
 20
536.5455106455237
 30
0.0
 10
551.016387637703
 20
536.256234742024
 30
0.0
 10
550.3528105405899
 20
535.7610618751903
 30
0.0
 10
549.9267701921814
 20
535.0975774225791
 30
0.0
 10
549.74961910037
 20
534.8216951132647
 30
0.0
  0
ARC
  5
21A
330
1F
100
AcDbEntity
  8
0
  6
Continuous
 62
     7
370
    25
100
AcDbCircle
 10
560.8760297483
 20
521.5932036613
 30
0.0
 40
17.6999999999999
100
AcDbArc
 50
117.6465635726
 51
122.3534364274
  0
SPLINE
  5
21B
330
1F
100
AcDbEntity
  8
0
  6
Continuous
 62
     7
370
    25
100
AcDbSpline
210
0.0
220
0.0
230
1.0
 70
     8
 71
     3
 72
     9
 73
     5
 74
     0
 42
0.00000001
 43
0.00000001
 40
0.0
 40
0.0
 40
0.0
 40
0.0
 40
0.5850553834536333
 40
1.0
 40
1.0
 40
1.0
 40
1.0
 10
554.9830254211176
 20
537.8432036613272
 30
0.0
 10
554.5183788503302
 20
537.8115052442885
 30
0.0
 10
553.7241863961998
 20
537.757325045396
 30
0.0
 10
552.9741631045189
 20
537.414564261596
 30
0.0
 10
552.6629449773515
 20
537.2723375195949
 30
0.0
  0
SPLINE
  5
21C
330
1F
100
AcDbEntity
  8
0
  6
Continuous
 62
     7
370
    25
100
AcDbSpline
210
0.0
220
0.0
230
1.0
 70
    24
 71
     3
 72
    11
 73
     7
 74
     0
 42
0.00000001
 43
0.00000001
 40
0.0
 40
0.0
 40
0.0
 40
0.0
 40
0.2328716322111475
 40
0.4710265024313245
 40
0.7311421212560294
 40
1.0
 40
1.0
 40
1.0
 40
1.0
 10
566.7690340754501
 20
537.8432036613272
 30
0.0
 10
565.8751776451296
 20
537.8432036613272
 30
0.0
 10
564.0671855593104
 20
537.8432036613272
 30
0.0
 10
561.1395128187474
 20
537.8432036613272
 30
0.0
 10
558.0524139082694
 20
537.8432036613272
 30
0.0
 10
556.0173658872833
 20
537.8432036613272
 30
0.0
 10
554.9830254211176
 20
537.8432036613272
 30
0.0
  0
SPLINE
  5
21D
330
1F
100
AcDbEntity
  8
0
  6
Continuous
 62
     7
370
    25
100
AcDbSpline
210
0.0
220
0.0
230
1.0
 70
     8
 71
     3
 72
     9
 73
     5
 74
     0
 42
0.00000001
 43
0.00000001
 40
0.0
 40
0.0
 40
0.0
 40
0.0
 40
0.584191749740925
 40
0.9999999999999999
 40
0.9999999999999999
 40
0.9999999999999999
 40
0.9999999999999999
 10
569.0891145192164
 20
537.2723375195949
 30
0.0
 10
568.6447661053577
 20
537.4634197416615
 30
0.0
 10
567.8841452748584
 20
537.7905079317143
 30
0.0
 10
567.0965307096768
 20
537.8277274701675
 30
0.0
 10
566.7690340754501
 20
537.8432036613272
 30
0.0
  0
ARC
  5
21E
330
1F
100
AcDbEntity
  8
0
  6
Continuous
 62
     7
370
    25
100
AcDbCircle
 10
560.8760297483
 20
521.5932036613
 30
0.0
 40
17.69999999999997
100
AcDbArc
 50
57.6465635726
 51
62.3534364274
  0
SPLINE
  5
21F
330
1F
100
AcDbEntity
  8
0
  6
Continuous
 62
     7
370
    25
100
AcDbSpline
210
0.0
220
0.0
230
1.0
 70
     8
 71
     3
 72
     9
 73
     5
 74
     0
 42
0.00000001
 43
0.00000001
 40
0.0
 40
0.0
 40
0.0
 40
0.0
 40
0.5850553834535984
 40
1.0
 40
1.0
 40
1.0
 40
1.0
 10
572.0024403961978
 20
534.8216951132647
 30
0.0
 10
571.742665476389
 20
535.2082416388286
 30
0.0
 10
571.2986478207007
 20
535.8689423801533
 30
0.0
 10
570.6267966286683
 20
536.347101212279
 30
0.0
 10
570.3480155934142
 20
536.5455106455237
 30
0.0
  0
SPLINE
  5
220
330
1F
100
AcDbEntity
  8
0
  6
Continuous
 62
     7
370
    25
100
AcDbSpline
210
0.0
220
0.0
230
1.0
 70
    24
 71
     3
 72
    11
 73
     7
 74
     0
 42
0.00000001
 43
0.00000001
 40
0.0
 40
0.0
 40
0.0
 40
0.0
 40
0.2556279644380982
 40
0.5185037642963877
 40
0.756046797258011
 40
1.0
 40
1.0
 40
1.0
 40
1.0
 10
577.8954447233642
 20
524.6147122093896
 30
0.0
 10
577.4041516450959
 20
525.465656782357
 30
0.0
 10
576.407635825652
 20
527.1916728121802
 30
0.0
 10
574.8874249191988
 20
529.8247553403775
 30
0.0
 10
573.3957091976506
 20
532.408482760548
 30
0.0
 10
572.4709670341441
 20
534.0101831716426
 30
0.0
 10
572.0024403961978
 20
534.8216951132647
 30
0.0
  0
SPLINE
  5
221
330
1F
100
AcDbEntity
  8
0
  6
Continuous
 62
     7
370
    25
100
AcDbSpline
210
0.0
220
0.0
230
1.0
 70
     8
 71
     3
 72
     9
 73
     5
 74
     0
 42
0.00000001
 43
0.00000001
 40
0.0
 40
0.0
 40
0.0
 40
0.0
 40
0.5841917497409217
 40
1.0
 40
1.0
 40
1.0
 40
1.0
 10
578.5611003643467
 20
522.3200305353985
 30
0.0
 10
578.5044082159385
 20
522.8003886609647
 30
0.0
 10
578.4073644825526
 20
523.622649717851
 30
0.0
 10
578.0457902657794
 20
524.3233537089154
 30
0.0
 10
577.8954447233642
 20
524.6147122093896
 30
0.0
  0
ARC
  5
222
330
1F
100
AcDbEntity
  8
0
  6
Continuous
 62
     7
370
    25
100
AcDbCircle
 10
560.8760297483
 20
521.5932036613
 30
0.0
 40
17.70000000000003
100
AcDbArc
 50
357.6465635726
 51
2.3534364274
  0
SPLINE
  5
223
330
1F
100
AcDbEntity
  8
0
  6
Continuous
 62
     7
370
    25
100
AcDbSpline
210
0.0
220
0.0
230
1.0
 70
     8
 71
     3
 72
     9
 73
     5
 74
     0
 42
0.00000001
 43
0.00000001
 40
0.0
 40
0.0
 40
0.0
 40
0.0
 40
0.5850553834536212
 40
1.0
 40
1.0
 40
1.0
 40
1.0
 10
577.8954447233642
 20
518.5716951132647
 30
0.0
 10
578.1003163743426
 20
518.9899400558672
 30
0.0
 10
578.4504911727848
 20
519.7048209960844
 30
0.0
 10
578.5286632724335
 20
520.5257406120102
 30
0.0
 10
578.5611003643467
 20
520.866376787256
 30
0.0
  0
SPLINE
  5
224
330
1F
100
AcDbEntity
  8
0
  6
Continuous
 62
     7
370
    25
100
AcDbSpline
210
0.0
220
0.0
230
1.0
 70
    24
 71
     3
 72
    11
 73
     7
 74
     0
 42
0.00000001
 43
0.00000001
 40
0.0
 40
0.0
 40
0.0
 40
0.0
 40
0.2328716322111476
 40
0.4710265024313206
 40
0.7311421212560303
 40
1.0
 40
1.0
 40
1.0
 40
1.0
 10
572.0024403961979
 20
508.3647122093895
 30
0.0
 10
572.4493686113582
 20
509.1388145853831
 30
0.0
 10
573.3533646542679
 20
510.7045816615438
 30
0.0
 10
574.8172010245493
 20
513.2400206288386
 30
0.0
 10
576.3607504797883
 20
515.9135267093077
 30
0.0
 10
577.3782744902813
 20
517.6759299934031
 30
0.0
 10
577.8954447233642
 20
518.5716951132647
 30
0.0
  0
SPLINE
  5
225
330
1F
100
AcDbEntity
  8
0
  6
Continuous
 62
     7
370
    25
100
AcDbSpline
210
0.0
220
0.0
230
1.0
 70
     8
 71
     3
 72
     9
 73
     5
 74
     0
 42
0.00000001
 43
0.00000001
 40
0.0
 40
0.0
 40
0.0
 40
0.0
 40
0.5841917497409205
 40
1.0
 40
1.0
 40
1.0
 40
1.0
 10
570.3480155934142
 20
506.6408966771306
 30
0.0
 10
570.7356718588647
 20
506.9301725806303
 30
0.0
 10
571.399248955978
 20
507.4253454474639
 30
0.0
 10
571.8252893043865
 20
508.0888299000752
 30
0.0
 10
572.0024403961978
 20
508.3647122093895
 30
0.0
  0
ARC
  5
226
330
1F
100
AcDbEntity
  8
0
  6
Continuous
 62
     7
370
    25
100
AcDbCircle
 10
560.8760297483
 20
521.5932036613
 30
0.0
 40
17.70000000000017
100
AcDbArc
 50
297.6465635726
 51
302.3534364274
  0
SPLINE
  5
227
330
1F
100
AcDbEntity
  8
0
  6
Continuous
 62
     7
370
    25
100
AcDbSpline
210
0.0
220
0.0
230
1.0
 70
     8
 71
     3
 72
     9
 73
     5
 74
     0
 42
0.00000001
 43
0.00000001
 40
0.0
 40
0.0
 40
0.0
 40
0.0
 40
0.5850553834536051
 40
1.0
 40
1.0
 40
1.0
 40
1.0
 10
566.7690340754501
 20
505.3432036613271
 30
0.0
 10
567.2336806462374
 20
505.3749020783658
 30
0.0
 10
568.027873100368
 20
505.4290822772584
 30
0.0
 10
568.777896392049
 20
505.7718430610584
 30
0.0
 10
569.0891145192164
 20
505.9140698030594
 30
0.0
  0
SPLINE
  5
228
330
1F
100
AcDbEntity
  8
0
  6
Continuous
 62
     7
370
    25
100
AcDbSpline
210
0.0
220
0.0
230
1.0
 70
    24
 71
     3
 72
    11
 73
     7
 74
     0
 42
0.00000001
 43
0.00000001
 40
0.0
 40
0.0
 40
0.0
 40
0.0
 40
0.2328716322111487
 40
0.4710265024313228
 40
0.7311421212560312
 40
0.9999999999999999
 40
0.9999999999999999
 40
0.9999999999999999
 40
0.9999999999999999
 10
554.9830254211176
 20
505.3432036613271
 30
0.0
 10
555.8768818514382
 20
505.3432036613271
 30
0.0
 10
557.6848739372574
 20
505.3432036613271
 30
0.0
 10
560.6125466778203
 20
505.3432036613271
 30
0.0
 10
563.6996455882984
 20
505.3432036613271
 30
0.0
 10
565.7346936092845
 20
505.3432036613271
 30
0.0
 10
566.7690340754501
 20
505.3432036613271
 30
0.0
  0
SPLINE
  5
229
330
1F
100
AcDbEntity
  8
0
  6
Continuous
 62
     7
370
    25
100
AcDbSpline
210
0.0
220
0.0
230
1.0
 70
     8
 71
     3
 72
     9
 73
     5
 74
     0
 42
0.00000001
 43
0.00000001
 40
0.0
 40
0.0
 40
0.0
 40
0.0
 40
0.5841917497409227
 40
1.0
 40
1.0
 40
1.0
 40
1.0
 10
552.6629449773515
 20
505.9140698030594
 30
0.0
 10
553.1072933912102
 20
505.7229875809929
 30
0.0
 10
553.8679142217095
 20
505.3958993909401
 30
0.0
 10
554.655528786891
 20
505.3586798524868
 30
0.0
 10
554.9830254211176
 20
505.3432036613271
 30
0.0
  0
ARC
  5
22A
330
1F
100
AcDbEntity
  8
0
  6
Continuous
 62
     7
370
    25
100
AcDbCircle
 10
560.8760297483
 20
521.5932036613
 30
0.0
 40
17.70000000000009
100
AcDbArc
 50
237.6465635726
 51
242.3534364274
  0
ARC
  5
22B
330
1F
100
AcDbEntity
  8
0
  6
Continuous
 62
     7
370
    25
100
AcDbCircle
 10
560.8760297483
 20
521.5932036613
 30
0.0
 40
16.19999999999999
100
AcDbArc
 50
223.9250761661
 51
136.0749238339
  0
SPLINE
  5
22C
330
1F
100
AcDbEntity
  8
0
  6
Continuous
 62
     8
370
    25
100
AcDbSpline
210
0.0
220
0.0
230
1.0
 70
     8
 71
     3
 72
    15
 73
    11
 74
     0
 42
0.00000001
 43
0.00000001
 40
0.0
 40
0.0
 40
0.0
 40
0.0
 40
0.1313256541023717
 40
0.2626566675072285
 40
0.3939916127597172
 40
0.525335279186304
 40
0.65668760481774
 40
0.7880439126109139
 40
0.9194609254193117
 40
1.0
 40
1.0
 40
1.0
 40
1.0
 10
669.1760297460256
 20
502.6840485371001
 30
0.0
 10
670.2380977073383
 20
502.739345005982
 30
0.0
 10
672.3622769721691
 20
502.8499402003538
 30
0.0
 10
675.4587634855262
 20
503.6818676100215
 30
0.0
 10
678.372880912583
 20
504.9932482935615
 30
0.0
 10
681.0286772827158
 20
506.7769982940445
 30
0.0
 10
683.3470831312352
 20
508.9841701409302
 30
0.0
 10
685.248631090511
 20
511.5497985645623
 30
0.0
 10
686.57143946834
 20
514.0157181206973
 30
0.0
 10
687.0416077442911
 20
515.665457612957
 30
0.0
 10
687.220262286884
 20
516.2923256290753
 30
0.0
  0
SPLINE
  5
22D
330
1F
100
AcDbEntity
  8
0
  6
Continuous
 62
     8
370
    25
100
AcDbSpline
210
0.0
220
0.0
230
1.0
 70
     8
 71
     3
 72
    16
 73
    12
 74
     0
 42
0.00000001
 43
0.00000001
 40
0.0
 40
0.0
 40
0.0
 40
0.0
 40
0.0018712454195562
 40
0.1329992874500938
 40
0.2641562375021518
 40
0.3953070417241681
 40
0.5266506934108204
 40
0.6579938893720272
 40
0.7894039606714836
 40
0.9208218263774758
 40
1.0
 40
1.0
 40
1.0
 40
1.0
 10
687.2866024569
 20
526.8781460408654
 30
0.0
 10
687.283579494792
 20
526.8929844737798
 30
0.0
 10
687.0687216241192
 20
527.9476302107176
 30
0.0
 10
686.1709442795543
 20
529.9225525482615
 30
0.0
 10
684.5744404526911
 20
532.6767719004495
 30
0.0
 10
682.4862213582843
 20
535.110790704421
 30
0.0
 10
680.0261496536236
 20
537.1567271894684
 30
0.0
 10
677.2574607519016
 20
538.7728615980393
 30
0.0
 10
674.2530687769818
 20
539.8816918709014
 30
0.0
 10
671.5215215380184
 20
540.4259584730156
 30
0.0
 10
669.8169140910832
 20
540.4814830935798
 30
0.0
 10
669.1760297476641
 20
540.5023587855509
 30
0.0
  0
SPLINE
  5
22E
330
1F
100
AcDbEntity
  8
0
  6
Continuous
 62
     8
370
    25
100
AcDbSpline
210
0.0
220
0.0
230
1.0
 70
     8
 71
     3
 72
    16
 73
    12
 74
     0
 42
0.00000001
 43
0.00000001
 40
0.0
 40
0.0
 40
0.0
 40
0.0
 40
0.0762380820001643
 40
0.202718638609198
 40
0.3291925764282361
 40
0.4555942809857483
 40
0.5819964848767953
 40
0.7082291883121198
 40
0.8344671537245061
 40
0.960706226061321
 40
1.0
 40
1.0
 40
1.0
 40
1.0
 10
669.1821538104887
 20
543.470395757939
 30
0.0
 10
669.9240132627954
 20
543.4464724288459
 30
0.0
 10
671.8966329072751
 20
543.3828598014359
 30
0.0
 10
675.0575495027425
 20
542.7538106727345
 30
0.0
 10
678.534021995304
 20
541.471721088329
 30
0.0
 10
681.7373935449436
 20
539.6026341342238
 30
0.0
 10
684.5858055512684
 20
537.2364471396962
 30
0.0
 10
686.9964678806932
 20
534.419129705004
 30
0.0
 10
688.8672740848692
 20
531.2380796082123
 30
0.0
 10
689.9940328049623
 20
528.5990980654009
 30
0.0
 10
690.290181867948
 20
527.0146280129433
 30
0.0
 10
690.3604809934385
 20
526.6385104661559
 30
0.0
  0
SPLINE
  5
22F
330
1F
100
AcDbEntity
  8
0
  6
Continuous
 62
     8
370
    25
100
AcDbSpline
210
0.0
220
0.0
230
1.0
 70
     8
 71
     3
 72
    15
 73
    11
 74
     0
 42
0.00000001
 43
0.00000001
 40
0.0
 40
0.0
 40
0.0
 40
0.0
 40
0.1165734863202602
 40
0.2428681284270773
 40
0.3690852853730378
 40
0.4952990708879419
 40
0.6215021798768953
 40
0.7476979581701764
 40
0.87385120322307
 40
1.0
 40
1.0
 40
1.0
 40
1.0
 10
690.4077271410462
 20
516.5495335022897
 30
0.0
 10
690.1033595033387
 20
515.4541893988184
 30
0.0
 10
689.4692427684176
 20
513.1721595754768
 30
0.0
 10
687.7892389045368
 20
509.9674165310285
 30
0.0
 10
685.5789827572861
 20
507.0019999511137
 30
0.0
 10
682.8979844524501
 20
504.4474706208409
 30
0.0
 10
679.8233861027186
 20
502.384431477699
 30
0.0
 10
676.4511705963076
 20
500.8680691376326
 30
0.0
 10
672.8682550843859
 20
499.9067093644269
 30
0.0
 10
670.4108397918252
 20
499.7795767508023
 30
0.0
 10
669.1821538085908
 20
499.7160115647121
 30
0.0
  0
SPLINE
  5
230
330
1F
100
AcDbEntity
  8
0
  6
Continuous
 62
     8
370
    25
100
AcDbSpline
210
0.0
220
0.0
230
1.0
 70
     8
 71
     3
 72
    15
 73
    11
 74
     0
 42
0.00000001
 43
0.00000001
 40
0.0
 40
0.0
 40
0.0
 40
0.0
 40
0.1313256541115403
 40
0.2626566675255552
 40
0.3939916127872246
 40
0.5253352792229959
 40
0.6566876048635626
 40
0.7880439126658755
 40
0.9194609254832506
 40
1.0
 40
1.0
 40
1.0
 40
1.0
 10
554.1760297489036
 20
540.5023587855509
 30
0.0
 10
553.113961787594
 20
540.4470623165765
 30
0.0
 10
550.9897825227694
 20
540.3364671220199
 30
0.0
 10
547.8932960094791
 20
539.5045397120829
 30
0.0
 10
544.9791785825321
 20
538.193159028285
 30
0.0
 10
542.323382212552
 20
536.4094090275667
 30
0.0
 10
540.0049763642189
 20
534.202237180475
 30
0.0
 10
538.1034284051832
 20
531.636608756667
 30
0.0
 10
536.7806200277864
 20
529.1706892009315
 30
0.0
 10
536.3104517521128
 20
527.5209497091787
 30
0.0
 10
536.131797209721
 20
526.8940816935881
 30
0.0
  0
SPLINE
  5
231
330
1F
100
AcDbEntity
  8
0
  6
Continuous
 62
     8
370
    25
100
AcDbSpline
210
0.0
220
0.0
230
1.0
 70
     8
 71
     3
 72
    16
 73
    12
 74
     0
 42
0.00000001
 43
0.00000001
 40
0.0
 40
0.0
 40
0.0
 40
0.0
 40
0.0018712454850521
 40
0.1329992874917028
 40
0.2641562375197707
 40
0.3953070417177898
 40
0.5266506933803548
 40
0.6579938893174597
 40
0.7894039605930409
 40
0.9208218262751503
 40
1.0
 40
1.0
 40
1.0
 40
1.0
 10
536.0654570398135
 20
516.308261281754
 30
0.0
 10
536.0684800020287
 20
516.2934228483176
 30
0.0
 10
536.2833378728628
 20
515.2387771108673
 30
0.0
 10
537.1811152177131
 20
513.2638547728834
 30
0.0
 10
538.7776190448615
 20
510.5096354208488
 30
0.0
 10
540.8658381394682
 20
508.0756166170611
 30
0.0
 10
543.3259098443077
 20
506.0296801322332
 30
0.0
 10
546.0945987461673
 20
504.4135457239036
 30
0.0
 10
549.098990721183
 20
503.3047154513108
 30
0.0
 10
551.8305379611273
 20
502.7604488492304
 30
0.0
 10
553.5351454090232
 20
502.7049242289703
 30
0.0
 10
554.176029753393
 20
502.6840485370943
 30
0.0
  0
SPLINE
  5
232
330
1F
100
AcDbEntity
  8
0
  6
Continuous
 62
     8
370
    25
100
AcDbSpline
210
0.0
220
0.0
230
1.0
 70
     8
 71
     3
 72
    16
 73
    12
 74
     0
 42
0.00000001
 43
0.00000001
 40
0.0
 40
0.0
 40
0.0
 40
0.0
 40
0.0762380820991957
 40
0.2027186386858066
 40
0.3291925764824274
 40
0.4555942810173324
 40
0.5819964848857836
 40
0.7082291882986258
 40
0.8344671536885356
 40
0.9607062260029609
 40
1.0
 40
1.0
 40
1.0
 40
1.0
 10
554.169905691279
 20
499.7160115647063
 30
0.0
 10
553.4280462378704
 20
499.7399348936888
 30
0.0
 10
551.4554265922775
 20
499.8035475207467
 30
0.0
 10
548.2945099956736
 20
500.4325966494084
 30
0.0
 10
544.8180375030021
 20
501.7146862335021
 30
0.0
 10
541.614665953203
 20
503.5837731873275
 30
0.0
 10
538.7662539466727
 20
505.9499601816011
 30
0.0
 10
536.3555916170101
 20
508.7672776160799
 30
0.0
 10
534.4847854125264
 20
511.9483277126978
 30
0.0
 10
533.3580266920337
 20
514.5873092560211
 30
0.0
 10
533.0618776288247
 20
516.1717793090861
 30
0.0
 10
532.9915785031922
 20
516.5478968564946
 30
0.0
  0
SPLINE
  5
233
330
1F
100
AcDbEntity
  8
0
  6
Continuous
 62
     8
370
    25
100
AcDbSpline
210
0.0
220
0.0
230
1.0
 70
     8
 71
     3
 72
    15
 73
    11
 74
     0
 42
0.00000001
 43
0.00000001
 40
0.0
 40
0.0
 40
0.0
 40
0.0
 40
0.1165734862602963
 40
0.2428681283755492
 40
0.3690852853300934
 40
0.4952990708535742
 40
0.6215021798511363
 40
0.7476979581530228
 40
0.8738512032144887
 40
1.0
 40
1.0
 40
1.0
 40
1.0
 10
532.9443323556703
 20
526.6368738203739
 30
0.0
 10
533.2486999931143
 20
527.7322179232322
 30
0.0
 10
533.8828167276781
 20
530.0142477459858
 30
0.0
 10
535.5628205910157
 20
533.2189907899789
 30
0.0
 10
537.7730767379946
 20
536.184407370096
 30
0.0
 10
540.4540750426135
 20
538.738936700607
 30
0.0
 10
543.5286733921683
 20
540.8019758440213
 30
0.0
 10
546.9008888984516
 20
542.3183381843857
 30
0.0
 10
550.4838044102955
 20
543.2796979579033
 30
0.0
 10
552.9412197028483
 20
543.4068305717418
 30
0.0
 10
554.169905686079
 20
543.4703957579388
 30
0.0
  0
ENDSEC
  0
SECTION
  2
OBJECTS
  0
DICTIONARY
  5
C
330
0
100
AcDbDictionary
281
     1
  3
ACAD_GROUP
350
D
  3
ACAD_LAYOUT
350
1A
  3
ACAD_MLINESTYLE
350
17
  3
ACAD_PLOTSETTINGS
350
19
  3
ACAD_PLOTSTYLENAME
350
E
  3
ACAD_SCALELIST
350
47
  3
DWGPROPS
350
234
  0
DICTIONARY
  5
D
102
{ACAD_REACTORS
330
C
102
}
330
C
100
AcDbDictionary
281
     1
  0
DICTIONARY
  5
1A
102
{ACAD_REACTORS
330
C
102
}
330
C
100
AcDbDictionary
281
     1
  3
Layout1
350
1E
  3
Layout2
350
26
  3
Model
350
22
  0
DICTIONARY
  5
17
102
{ACAD_REACTORS
330
C
102
}
330
C
100
AcDbDictionary
281
     1
  3
Standard
350
18
  0
DICTIONARY
  5
19
102
{ACAD_REACTORS
330
C
102
}
330
C
100
AcDbDictionary
281
     1
  0
ACDBDICTIONARYWDFLT
  5
E
102
{ACAD_REACTORS
330
C
102
}
330
C
100
AcDbDictionary
281
     1
  3
Normal
350
F
100
AcDbDictionaryWithDefault
340
F
  0
DICTIONARY
  5
47
102
{ACAD_REACTORS
330
C
102
}
330
C
100
AcDbDictionary
281
     1
  3
A0
350
48
  3
A1
350
49
  3
A2
350
4A
  3
A3
350
4B
  3
A4
350
4C
  3
A5
350
4D
  3
A6
350
4E
  3
A7
350
4F
  3
A8
350
50
  3
A9
350
51
  3
B0
350
52
  3
B1
350
53
  3
B2
350
54
  3
B3
350
55
  3
B4
350
56
  3
B5
350
57
  3
B6
350
58
  3
B7
350
59
  3
B8
350
5A
  3
B9
350
5B
  3
C0
350
5C
  3
C1
350
5D
  3
C2
350
5E
  3
C3
350
5F
  3
C4
350
60
  3
C5
350
61
  3
C6
350
62
  3
C7
350
63
  3
C8
350
64
  3
C9
350
65
  3
D0
350
66
  3
D1
350
67
  3
D2
350
68
  0
XRECORD
  5
234
102
{ACAD_REACTORS
330
C
102
}
330
C
100
AcDbXrecord
280
     1
  1
DWGPROPS COOKIE
  2

  3

  4

  6

  7

  8
designer5
  9

300
=
301
=
302
=
303
=
304
=
305
=
306
=
307
=
308
=
309
=
 40
0.0
 41
2460383.303492662
 42
2460383.303493241
  1

 90
        0
  0
LAYOUT
  5
1E
102
{ACAD_REACTORS
330
1A
102
}
330
1A
100
AcDbPlotSettings
  1

  2
none_device
  4

  6

 40
0.0
 41
0.0
 42
0.0
 43
0.0
 44
0.0
 45
0.0
 46
0.0
 47
0.0
 48
0.0
 49
0.0
140
0.0
141
0.0
142
1.0
143
1.0
 70
   688
 72
     1
 73
     0
 74
     5
  7

 75
    16
147
1.0
148
0.0
149
0.0
100
AcDbLayout
  1
Layout1
 70
     1
 71
     1
 10
0.0
 20
0.0
 11
420.0
 21
297.0
 12
0.0
 22
0.0
 32
0.0
 14
1.0000000000E+20
 24
1.0000000000E+20
 34
1.0000000000E+20
 15
-1.0000000000E+20
 25
-1.0000000000E+20
 35
-1.0000000000E+20
146
0.0
 13
0.0
 23
0.0
 33
0.0
 16
1.0
 26
0.0
 36
0.0
 17
0.0
 27
1.0
 37
0.0
 76
     0
330
1B
  0
LAYOUT
  5
26
102
{ACAD_REACTORS
330
1A
102
}
330
1A
100
AcDbPlotSettings
  1

  2
none_device
  4

  6

 40
0.0
 41
0.0
 42
0.0
 43
0.0
 44
0.0
 45
0.0
 46
0.0
 47
0.0
 48
0.0
 49
0.0
140
0.0
141
0.0
142
1.0
143
1.0
 70
   688
 72
     1
 73
     0
 74
     5
  7

 75
    16
147
1.0
148
0.0
149
0.0
100
AcDbLayout
  1
Layout2
 70
     1
 71
     2
 10
0.0
 20
0.0
 11
0.0
 21
0.0
 12
0.0
 22
0.0
 32
0.0
 14
0.0
 24
0.0
 34
0.0
 15
0.0
 25
0.0
 35
0.0
146
0.0
 13
0.0
 23
0.0
 33
0.0
 16
1.0
 26
0.0
 36
0.0
 17
0.0
 27
1.0
 37
0.0
 76
     0
330
23
  0
LAYOUT
  5
22
102
{ACAD_REACTORS
330
1A
102
}
330
1A
100
AcDbPlotSettings
  1

  2
none_device
  4
Letter_(8.50_x_11.00_Inches)
  6

 40
6.35
 41
6.35
 42
6.35000508
 43
6.35000508
 44
215.9
 45
279.4
 46
0.0
 47
0.0
 48
0.0
 49
0.0
140
0.0
141
0.0
142
1.0
143
1.0
 70
  1712
 72
     1
 73
     0
 74
     0
  7

 75
     0
147
1.0
148
0.0
149
0.0
100
AcDbLayout
  1
Model
 70
     1
 71
     0
 10
0.0
 20
0.0
 11
1189.0
 21
841.0
 12
0.0
 22
0.0
 32
0.0
 14
0.0
 24
0.0
 34
0.0
 15
1189.0
 25
841.0
 35
0.0
146
0.0
 13
0.0
 23
0.0
 33
0.0
 16
1.0
 26
0.0
 36
0.0
 17
0.0
 27
1.0
 37
0.0
 76
     0
330
1F
331
29
  0
MLINESTYLE
  5
18
102
{ACAD_REACTORS
330
17
102
}
330
17
100
AcDbMlineStyle
  2
Standard
 70
     0
  3

 62
   256
 51
90.0
 52
90.0
 71
     2
 49
0.5
 62
   256
  6
BYLAYER
 49
-0.5
 62
   256
  6
BYLAYER
  0
ACDBPLACEHOLDER
  5
F
102
{ACAD_REACTORS
330
E
102
}
330
E
  0
SCALE
  5
48
102
{ACAD_REACTORS
330
47
102
}
330
47
100
AcDbScale
 70
     0
300
1:1
140
1.0
141
1.0
290
     1
  0
SCALE
  5
49
102
{ACAD_REACTORS
330
47
102
}
330
47
100
AcDbScale
 70
     0
300
1:2
140
1.0
141
2.0
290
     0
  0
SCALE
  5
4A
102
{ACAD_REACTORS
330
47
102
}
330
47
100
AcDbScale
 70
     0
300
1:4
140
1.0
141
4.0
290
     0
  0
SCALE
  5
4B
102
{ACAD_REACTORS
330
47
102
}
330
47
100
AcDbScale
 70
     0
300
1:5
140
1.0
141
5.0
290
     0
  0
SCALE
  5
4C
102
{ACAD_REACTORS
330
47
102
}
330
47
100
AcDbScale
 70
     0
300
1:8
140
1.0
141
8.0
290
     0
  0
SCALE
  5
4D
102
{ACAD_REACTORS
330
47
102
}
330
47
100
AcDbScale
 70
     0
300
1:10
140
1.0
141
10.0
290
     0
  0
SCALE
  5
4E
102
{ACAD_REACTORS
330
47
102
}
330
47
100
AcDbScale
 70
     0
300
1:16
140
1.0
141
16.0
290
     0
  0
SCALE
  5
4F
102
{ACAD_REACTORS
330
47
102
}
330
47
100
AcDbScale
 70
     0
300
1:20
140
1.0
141
20.0
290
     0
  0
SCALE
  5
50
102
{ACAD_REACTORS
330
47
102
}
330
47
100
AcDbScale
 70
     0
300
1:30
140
1.0
141
30.0
290
     0
  0
SCALE
  5
51
102
{ACAD_REACTORS
330
47
102
}
330
47
100
AcDbScale
 70
     0
300
1:40
140
1.0
141
40.0
290
     0
  0
SCALE
  5
52
102
{ACAD_REACTORS
330
47
102
}
330
47
100
AcDbScale
 70
     0
300
1:50
140
1.0
141
50.0
290
     0
  0
SCALE
  5
53
102
{ACAD_REACTORS
330
47
102
}
330
47
100
AcDbScale
 70
     0
300
1:100
140
1.0
141
100.0
290
     0
  0
SCALE
  5
54
102
{ACAD_REACTORS
330
47
102
}
330
47
100
AcDbScale
 70
     0
300
2:1
140
2.0
141
1.0
290
     0
  0
SCALE
  5
55
102
{ACAD_REACTORS
330
47
102
}
330
47
100
AcDbScale
 70
     0
300
4:1
140
4.0
141
1.0
290
     0
  0
SCALE
  5
56
102
{ACAD_REACTORS
330
47
102
}
330
47
100
AcDbScale
 70
     0
300
8:1
140
8.0
141
1.0
290
     0
  0
SCALE
  5
57
102
{ACAD_REACTORS
330
47
102
}
330
47
100
AcDbScale
 70
     0
300
10:1
140
10.0
141
1.0
290
     0
  0
SCALE
  5
58
102
{ACAD_REACTORS
330
47
102
}
330
47
100
AcDbScale
 70
     0
300
100:1
140
100.0
141
1.0
290
     0
  0
SCALE
  5
59
102
{ACAD_REACTORS
330
47
102
}
330
47
100
AcDbScale
 70
     0
300
1/128" = 1'-0"
140
0.0078125
141
12.0
290
     0
  0
SCALE
  5
5A
102
{ACAD_REACTORS
330
47
102
}
330
47
100
AcDbScale
 70
     0
300
1/64" = 1'-0"
140
0.015625
141
12.0
290
     0
  0
SCALE
  5
5B
102
{ACAD_REACTORS
330
47
102
}
330
47
100
AcDbScale
 70
     0
300
1/32" = 1'-0"
140
0.03125
141
12.0
290
     0
  0
SCALE
  5
5C
102
{ACAD_REACTORS
330
47
102
}
330
47
100
AcDbScale
 70
     0
300
1/16" = 1'-0"
140
0.0625
141
12.0
290
     0
  0
SCALE
  5
5D
102
{ACAD_REACTORS
330
47
102
}
330
47
100
AcDbScale
 70
     0
300
3/32" = 1'-0"
140
0.09375
141
12.0
290
     0
  0
SCALE
  5
5E
102
{ACAD_REACTORS
330
47
102
}
330
47
100
AcDbScale
 70
     0
300
1/8" = 1'-0"
140
0.125
141
12.0
290
     0
  0
SCALE
  5
5F
102
{ACAD_REACTORS
330
47
102
}
330
47
100
AcDbScale
 70
     0
300
3/16" = 1'-0"
140
0.1875
141
12.0
290
     0
  0
SCALE
  5
60
102
{ACAD_REACTORS
330
47
102
}
330
47
100
AcDbScale
 70
     0
300
1/4" = 1'-0"
140
0.25
141
12.0
290
     0
  0
SCALE
  5
61
102
{ACAD_REACTORS
330
47
102
}
330
47
100
AcDbScale
 70
     0
300
3/8" = 1'-0"
140
0.375
141
12.0
290
     0
  0
SCALE
  5
62
102
{ACAD_REACTORS
330
47
102
}
330
47
100
AcDbScale
 70
     0
300
1/2" = 1'-0"
140
0.5
141
12.0
290
     0
  0
SCALE
  5
63
102
{ACAD_REACTORS
330
47
102
}
330
47
100
AcDbScale
 70
     0
300
3/4" = 1'-0"
140
0.75
141
12.0
290
     0
  0
SCALE
  5
64
102
{ACAD_REACTORS
330
47
102
}
330
47
100
AcDbScale
 70
     0
300
1" = 1'-0"
140
1.0
141
12.0
290
     0
  0
SCALE
  5
65
102
{ACAD_REACTORS
330
47
102
}
330
47
100
AcDbScale
 70
     0
300
1-1/2" = 1'-0"
140
1.5
141
12.0
290
     0
  0
SCALE
  5
66
102
{ACAD_REACTORS
330
47
102
}
330
47
100
AcDbScale
 70
     0
300
3" = 1'-0"
140
3.0
141
12.0
290
     0
  0
SCALE
  5
67
102
{ACAD_REACTORS
330
47
102
}
330
47
100
AcDbScale
 70
     0
300
6" = 1'-0"
140
6.0
141
12.0
290
     0
  0
SCALE
  5
68
102
{ACAD_REACTORS
330
47
102
}
330
47
100
AcDbScale
 70
     0
300
1'-0" = 1'-0"
140
12.0
141
12.0
290
     0
  0
ENDSEC
  0
EOF
