  0
SECTION
  2
HEADER
  9
$ACADVER
  1
AC1015
  9
$ACADMAINTVER
 70
     6
  9
$DWGCODEPAGE
  3
ANSI_1252
  9
$INSBASE
 10
0.0
 20
0.0
 30
0.0
  9
$EXTMIN
 10
0.0
 20
0.0
 30
0.0
  9
$EXTMAX
 10
1189.0
 20
841.0
 30
0.0
  9
$LIMMIN
 10
0.0
 20
0.0
  9
$LIMMAX
 10
1189.0
 20
841.0
  9
$ORTHOMODE
 70
     0
  9
$REGENMODE
 70
     1
  9
$FILLMODE
 70
     1
  9
$QTEXTMODE
 70
     0
  9
$MIRRTEXT
 70
     1
  9
$LTSCALE
 40
1.0
  9
$ATTMODE
 70
     1
  9
$TEXTSIZE
 40
3.5
  9
$TRACEWID
 40
1.0
  9
$TEXTSTYLE
  7
Standard
  9
$CLAYER
  8
0
  9
$CELTYPE
  6
ByLayer
  9
$CECOLOR
 62
   256
  9
$CELTSCALE
 40
1.0
  9
$DISPSILH
 70
     0
  9
$DIMSCALE
 40
1.0
  9
$DIMASZ
 40
3.302
  9
$DIMEXO
 40
1.0
  9
$DIMDLI
 40
3.75
  9
$DIMRND
 40
0.0
  9
$DIMDLE
 40
0.0
  9
$DIMEXE
 40
1.0
  9
$DIMTP
 40
0.0
  9
$DIMTM
 40
0.0
  9
$DIMTXT
 40
3.5
  9
$DIMCEN
 40
2.5
  9
$DIMTSZ
 40
0.0
  9
$DIMTOL
 70
     0
  9
$DIMLIM
 70
     0
  9
$DIMTIH
 70
     1
  9
$DIMTOH
 70
     1
  9
$DIMSE1
 70
     0
  9
$DIMSE2
 70
     0
  9
$DIMTAD
 70
     1
  9
$DIMZIN
 70
     1
  9
$DIMBLK
  1

  9
$DIMASO
 70
     1
  9
$DIMSHO
 70
     1
  9
$DIMPOST
  1

  9
$DIMAPOST
  1

  9
$DIMALT
 70
     0
  9
$DIMALTD
 70
     3
  9
$DIMALTF
 40
0.0393700787
  9
$DIMLFAC
 40
1.0
  9
$DIMTOFL
 70
     1
  9
$DIMTVP
 40
0.0
  9
$DIMTIX
 70
     0
  9
$DIMSOXD
 70
     0
  9
$DIMSAH
 70
     0
  9
$DIMBLK1
  1

  9
$DIMBLK2
  1

  9
$DIMSTYLE
  2
ISO-25
  9
$DIMCLRD
 70
     0
  9
$DIMCLRE
 70
     0
  9
$DIMCLRT
 70
     0
  9
$DIMTFAC
 40
1.0
  9
$DIMGAP
 40
1.524
  9
$DIMJUST
 70
     0
  9
$DIMSD1
 70
     0
  9
$DIMSD2
 70
     0
  9
$DIMTOLJ
 70
     0
  9
$DIMTZIN
 70
     1
  9
$DIMALTZ
 70
     0
  9
$DIMALTTZ
 70
     0
  9
$DIMUPT
 70
     0
  9
$DIMDEC
 70
     2
  9
$DIMTDEC
 70
     2
  9
$DIMALTU
 70
     2
  9
$DIMALTTD
 70
     3
  9
$DIMTXSTY
  7
Standard
  9
$DIMAUNIT
 70
     0
  9
$DIMADEC
 70
     2
  9
$DIMALTRND
 40
0.0
  9
$DIMAZIN
 70
     0
  9
$DIMDSEP
 70
    44
  9
$DIMATFIT
 70
     3
  9
$DIMFRAC
 70
     0
  9
$DIMLDRBLK
  1

  9
$DIMLUNIT
 70
     2
  9
$DIMLWD
 70
    -2
  9
$DIMLWE
 70
    -2
  9
$DIMTMOVE
 70
     0
  9
$LUNITS
 70
     2
  9
$LUPREC
 70
     2
  9
$SKETCHINC
 40
1.0
  9
$FILLETRAD
 40
10.0
  9
$AUNITS
 70
     0
  9
$AUPREC
 70
     2
  9
$MENU
  1
.
  9
$ELEVATION
 40
0.0
  9
$PELEVATION
 40
0.0
  9
$THICKNESS
 40
0.0
  9
$LIMCHECK
 70
     0
  9
$CHAMFERA
 40
0.0
  9
$CHAMFERB
 40
0.0
  9
$CHAMFERC
 40
0.0
  9
$CHAMFERD
 40
0.0
  9
$SKPOLY
 70
     0
  9
$TDCREATE
 40
2460383.41833816
  9
$TDUCREATE
 40
2460383.189171493
  9
$TDUPDATE
 40
2460383.418338519
  9
$TDUUPDATE
 40
2460383.189171852
  9
$TDINDWG
 40
0.0000000116
  9
$TDUSRTIMER
 40
0.0000000116
  9
$USRTIMER
 70
     1
  9
$ANGBASE
 50
0.0
  9
$ANGDIR
 70
     0
  9
$PDMODE
 70
     0
  9
$PDSIZE
 40
-1.0
  9
$PLINEWID
 40
0.0
  9
$SPLFRAME
 70
     0
  9
$SPLINETYPE
 70
     6
  9
$SPLINESEGS
 70
     8
  9
$HANDSEED
  5
191
  9
$SURFTAB1
 70
     6
  9
$SURFTAB2
 70
     6
  9
$SURFTYPE
 70
     6
  9
$SURFU
 70
     6
  9
$SURFV
 70
     6
  9
$UCSBASE
  2

  9
$UCSNAME
  2

  9
$UCSORG
 10
0.0
 20
0.0
 30
0.0
  9
$UCSXDIR
 10
1.0
 20
0.0
 30
0.0
  9
$UCSYDIR
 10
0.0
 20
1.0
 30
0.0
  9
$UCSORTHOREF
  2

  9
$UCSORTHOVIEW
 70
     0
  9
$UCSORGTOP
 10
0.0
 20
0.0
 30
0.0
  9
$UCSORGBOTTOM
 10
0.0
 20
0.0
 30
0.0
  9
$UCSORGLEFT
 10
0.0
 20
0.0
 30
0.0
  9
$UCSORGRIGHT
 10
0.0
 20
0.0
 30
0.0
  9
$UCSORGFRONT
 10
0.0
 20
0.0
 30
0.0
  9
$UCSORGBACK
 10
0.0
 20
0.0
 30
0.0
  9
$PUCSBASE
  2

  9
$PUCSNAME
  2

  9
$PUCSORG
 10
0.0
 20
0.0
 30
0.0
  9
$PUCSXDIR
 10
1.0
 20
0.0
 30
0.0
  9
$PUCSYDIR
 10
0.0
 20
1.0
 30
0.0
  9
$PUCSORTHOREF
  2

  9
$PUCSORTHOVIEW
 70
     0
  9
$PUCSORGTOP
 10
0.0
 20
0.0
 30
0.0
  9
$PUCSORGBOTTOM
 10
0.0
 20
0.0
 30
0.0
  9
$PUCSORGLEFT
 10
0.0
 20
0.0
 30
0.0
  9
$PUCSORGRIGHT
 10
0.0
 20
0.0
 30
0.0
  9
$PUCSORGFRONT
 10
0.0
 20
0.0
 30
0.0
  9
$PUCSORGBACK
 10
0.0
 20
0.0
 30
0.0
  9
$USERI1
 70
     0
  9
$USERI2
 70
     0
  9
$USERI3
 70
     0
  9
$USERI4
 70
     0
  9
$USERI5
 70
     0
  9
$USERR1
 40
0.0
  9
$USERR2
 40
0.0
  9
$USERR3
 40
0.0
  9
$USERR4
 40
0.0
  9
$USERR5
 40
0.0
  9
$WORLDVIEW
 70
     1
  9
$SHADEDGE
 70
     3
  9
$SHADEDIF
 70
    70
  9
$TILEMODE
 70
     1
  9
$MAXACTVP
 70
    64
  9
$PINSBASE
 10
0.0
 20
0.0
 30
0.0
  9
$PLIMCHECK
 70
     0
  9
$PEXTMIN
 10
1.0000000000E+20
 20
1.0000000000E+20
 30
1.0000000000E+20
  9
$PEXTMAX
 10
-1.0000000000E+20
 20
-1.0000000000E+20
 30
-1.0000000000E+20
  9
$PLIMMIN
 10
0.0
 20
0.0
  9
$PLIMMAX
 10
420.0
 20
297.0
  9
$UNITMODE
 70
     0
  9
$VISRETAIN
 70
     1
  9
$PLINEGEN
 70
     0
  9
$PSLTSCALE
 70
     1
  9
$TREEDEPTH
 70
  3020
  9
$CMLSTYLE
  2
Standard
  9
$CMLJUST
 70
     0
  9
$CMLSCALE
 40
20.0
  9
$PROXYGRAPHICS
 70
     1
  9
$MEASUREMENT
 70
     1
  9
$CELWEIGHT
370
    -1
  9
$ENDCAPS
280
     0
  9
$JOINSTYLE
280
     0
  9
$LWDISPLAY
290
     1
  9
$INSUNITS
 70
     4
  9
$HYPERLINKBASE
  1

  9
$STYLESHEET
  1

  9
$XEDIT
290
     1
  9
$CEPSNTYPE
380
     0
  9
$PSTYLEMODE
290
     1
  9
$FINGERPRINTGUID
  2
{a2fee6ef-6e8d-4fc9-8fc9-2f8bafaae4c9}
  9
$VERSIONGUID
  2
{FAEB1C32-E019-11D5-929B-00C0DF256EC4}
  9
$EXTNAMES
290
     1
  9
$PSVPSCALE
 40
0.0
  9
$OLESTARTUP
290
     0
  0
ENDSEC
  0
SECTION
  2
CLASSES
  0
CLASS
  1
ACDBDICTIONARYWDFLT
  2
AcDbDictionaryWithDefault
  3
ObjectDBX Classes
 90
        0
280
     0
281
     0
  0
CLASS
  1
VISUALSTYLE
  2
AcDbVisualStyle
  3
ObjectDBX Classes
 90
     4095
280
     0
281
     0
  0
CLASS
  1
MATERIAL
  2
AcDbMaterial
  3
ObjectDBX Classes
 90
     1153
280
     0
281
     0
  0
CLASS
  1
SCALE
  2
AcDbScale
  3
ObjectDBX Classes
 90
     1153
280
     0
281
     0
  0
CLASS
  1
TABLESTYLE
  2
AcDbTableStyle
  3
ObjectDBX Classes
 90
     4095
280
     0
281
     0
  0
CLASS
  1
MLEADERSTYLE
  2
AcDbMLeaderStyle
  3
ACDB_MLEADERSTYLE_CLASS
 90
     4095
280
     0
281
     0
  0
CLASS
  1
SUN
  2
AcDbSun
  3
SCENEOE
 90
     1153
280
     0
281
     0
  0
CLASS
  1
ACDBPLACEHOLDER
  2
AcDbPlaceHolder
  3
ObjectDBX Classes
 90
        0
280
     0
281
     0
  0
CLASS
  1
LAYOUT
  2
AcDbLayout
  3
ObjectDBX Classes
 90
        0
280
     0
281
     0
  0
ENDSEC
  0
SECTION
  2
TABLES
  0
TABLE
  2
VPORT
  5
8
330
0
100
AcDbSymbolTable
 70
     1
  0
VPORT
  5
29
330
8
100
AcDbSymbolTableRecord
100
AcDbViewportTableRecord
  2
*Active
 70
     0
 10
0.0
 20
0.0
 11
1.0
 21
1.0
 12
594.5
 22
420.5
 13
0.0
 23
0.0
 14
10.0
 24
10.0
 15
10.0
 25
10.0
 16
0.0
 26
0.0
 36
1.0
 17
0.0
 27
0.0
 37
0.0
 40
841.0
 41
1.4137931034
 42
50.0
 43
0.0
 44
0.0
 50
0.0
 51
0.0
 71
     0
 72
  2000
 73
     1
 74
     3
 75
     0
 76
     0
 77
     0
 78
     0
281
     0
 65
     1
110
0.0
120
0.0
130
0.0
111
1.0
121
0.0
131
0.0
112
0.0
122
1.0
132
0.0
 79
     0
146
0.0
  0
ENDTAB
  0
TABLE
  2
LTYPE
  5
5
330
0
100
AcDbSymbolTable
 70
     6
  0
LTYPE
  5
14
330
5
100
AcDbSymbolTableRecord
100
AcDbLinetypeTableRecord
  2
ByBlock
 70
     0
  3

 72
    65
 73
     0
 40
0.0
  0
LTYPE
  5
15
330
5
100
AcDbSymbolTableRecord
100
AcDbLinetypeTableRecord
  2
ByLayer
 70
     0
  3

 72
    65
 73
     0
 40
0.0
  0
LTYPE
  5
16
330
5
100
AcDbSymbolTableRecord
100
AcDbLinetypeTableRecord
  2
Continuous
 70
     0
  3
Solid line
 72
    65
 73
     0
 40
0.0
  0
LTYPE
  5
6E
330
5
100
AcDbSymbolTableRecord
100
AcDbLinetypeTableRecord
  2
HIDDEN
 70
     0
  3
Hidden __ __ __ __ __ __ __ __ __ __ __ __ __ __
 72
    65
 73
     2
 40
1.905
 49
1.27
 74
     0
 49
-0.635
 74
     0
  0
LTYPE
  5
6F
330
5
100
AcDbSymbolTableRecord
100
AcDbLinetypeTableRecord
  2
PHANTOM
 70
     0
  3
Phantom ______  __  __  ______  __  __  ______
 72
    65
 73
     6
 40
12.7
 49
6.35
 74
     0
 49
-1.27
 74
     0
 49
1.27
 74
     0
 49
-1.27
 74
     0
 49
1.27
 74
     0
 49
-1.27
 74
     0
  0
LTYPE
  5
70
330
5
100
AcDbSymbolTableRecord
100
AcDbLinetypeTableRecord
  2
CENTER
 70
     0
  3
Center ____ _ ____ _ ____ _ ____ _ ____ _ ____
 72
    65
 73
     4
 40
10.16
 49
6.35
 74
     0
 49
-1.27
 74
     0
 49
1.27
 74
     0
 49
-1.27
 74
     0
  0
LTYPE
  5
71
330
5
100
AcDbSymbolTableRecord
100
AcDbLinetypeTableRecord
  2
CENTERX2
 70
     0
  3
Center (2x) ________  __  ________  __  _____
 72
    65
 73
     4
 40
20.32
 49
12.7
 74
     0
 49
-2.54
 74
     0
 49
2.54
 74
     0
 49
-2.54
 74
     0
  0
LTYPE
  5
72
330
5
100
AcDbSymbolTableRecord
100
AcDbLinetypeTableRecord
  2
DOT2
 70
     0
  3
Dot (.5x) ........................................
 72
    65
 73
     2
 40
0.635
 49
0.0
 74
     0
 49
-0.635
 74
     0
  0
ENDTAB
  0
TABLE
  2
LAYER
  5
2
330
0
100
AcDbSymbolTable
 70
     1
  0
LAYER
  5
10
330
2
100
AcDbSymbolTableRecord
100
AcDbLayerTableRecord
  2
0
 70
     0
 62
     7
  6
Continuous
370
    -3
390
F
  0
ENDTAB
  0
TABLE
  2
STYLE
  5
3
330
0
100
AcDbSymbolTable
 70
     1
  0
STYLE
  5
11
330
3
100
AcDbSymbolTableRecord
100
AcDbTextStyleTableRecord
  2
Standard
 70
     0
 40
0.0
 41
1.0
 50
0.0
 71
     0
 42
3.5
  3
txt
  4

  0
ENDTAB
  0
TABLE
  2
VIEW
  5
6
330
0
100
AcDbSymbolTable
 70
     0
  0
ENDTAB
  0
TABLE
  2
UCS
  5
7
330
0
100
AcDbSymbolTable
 70
     0
  0
ENDTAB
  0
TABLE
  2
APPID
  5
9
330
0
100
AcDbSymbolTable
 70
     1
  0
APPID
  5
12
330
9
100
AcDbSymbolTableRecord
100
AcDbRegAppTableRecord
  2
ACAD
 70
     0
  0
ENDTAB
  0
TABLE
  2
DIMSTYLE
  5
A
330
0
100
AcDbSymbolTable
 70
     1
100
AcDbDimStyleTable
  0
DIMSTYLE
105
27
330
A
100
AcDbSymbolTableRecord
100
AcDbDimStyleTableRecord
  2
ISO-25
 70
     0
 41
2.5
 42
0.625
 43
3.75
 44
1.25
 73
     0
 74
     0
 77
     1
 78
     8
140
2.5
141
2.5
143
0.0393700787
147
0.625
171
     3
172
     1
178
     0
271
     2
272
     2
274
     3
278
    44
283
     0
284
     8
340
11
  0
ENDTAB
  0
TABLE
  2
BLOCK_RECORD
  5
1
330
0
100
AcDbSymbolTable
 70
     1
  0
BLOCK_RECORD
  5
1F
330
1
100
AcDbSymbolTableRecord
100
AcDbBlockTableRecord
  2
*Model_Space
340
22
  0
BLOCK_RECORD
  5
1B
330
1
100
AcDbSymbolTableRecord
100
AcDbBlockTableRecord
  2
*Paper_Space
340
1E
  0
BLOCK_RECORD
  5
23
330
1
100
AcDbSymbolTableRecord
100
AcDbBlockTableRecord
  2
*Paper_Space0
340
26
  0
ENDTAB
  0
ENDSEC
  0
SECTION
  2
BLOCKS
  0
BLOCK
  5
20
330
1F
100
AcDbEntity
  8
0
100
AcDbBlockBegin
  2
*Model_Space
 70
     0
 10
0.0
 20
0.0
 30
0.0
  3
*Model_Space
  1

  0
ENDBLK
  5
21
330
1F
100
AcDbEntity
  8
0
100
AcDbBlockEnd
  0
BLOCK
  5
1C
330
1B
100
AcDbEntity
 67
     1
  8
0
100
AcDbBlockBegin
  2
*Paper_Space
 70
     0
 10
0.0
 20
0.0
 30
0.0
  3
*Paper_Space
  1

  0
ENDBLK
  5
1D
330
1B
100
AcDbEntity
 67
     1
  8
0
100
AcDbBlockEnd
  0
BLOCK
  5
24
330
23
100
AcDbEntity
  8
0
100
AcDbBlockBegin
  2
*Paper_Space0
 70
     0
 10
0.0
 20
0.0
 30
0.0
  3
*Paper_Space0
  1

  0
ENDBLK
  5
25
330
23
100
AcDbEntity
  8
0
100
AcDbBlockEnd
  0
ENDSEC
  0
SECTION
  2
ENTITIES
  0
CIRCLE
  5
73
330
1F
100
AcDbEntity
  8
0
  6
Continuous
 62
     7
370
    25
100
AcDbCircle
 10
638.2777558649
 20
464.2679032472
 30
0.0
 40
7.370303565476139
  0
CIRCLE
  5
74
330
1F
100
AcDbEntity
  8
0
  6
Continuous
 62
     7
370
    25
100
AcDbCircle
 10
638.2777558649
 20
464.2679032472
 30
0.0
 40
7.750000000000035
  0
CIRCLE
  5
75
330
1F
100
AcDbEntity
  8
0
  6
Continuous
 62
     7
370
    25
100
AcDbCircle
 10
536.2777558649
 20
464.2679032472
 30
0.0
 40
7.37030356547605
  0
CIRCLE
  5
76
330
1F
100
AcDbEntity
  8
0
  6
Continuous
 62
     7
370
    25
100
AcDbCircle
 10
536.2777558649
 20
464.2679032472
 30
0.0
 40
7.749999999999935
  0
CIRCLE
  5
77
330
1F
100
AcDbEntity
  8
0
  6
Continuous
 62
     7
370
    25
100
AcDbCircle
 10
638.2777558649
 20
464.2679032472
 30
0.0
 40
8.069999999999988
  0
CIRCLE
  5
78
330
1F
100
AcDbEntity
  8
0
  6
Continuous
 62
     7
370
    25
100
AcDbCircle
 10
638.2777558649
 20
464.2679032472
 30
0.0
 40
10.10000000000002
  0
CIRCLE
  5
79
330
1F
100
AcDbEntity
  8
0
  6
Continuous
 62
     7
370
    25
100
AcDbCircle
 10
638.2777558649
 20
464.2679032472
 30
0.0
 40
10.20000000000001
  0
ARC
  5
7A
330
1F
100
AcDbEntity
  8
0
  6
Continuous
 62
     7
370
    25
100
AcDbCircle
 10
638.2777558649
 20
464.2679032472
 30
0.0
 40
12.20000000000016
100
AcDbArc
 50
166.4552418654
 51
195.0037059695
  0
SPLINE
  5
7B
330
1F
100
AcDbEntity
  8
0
  6
Continuous
 62
     7
370
    25
100
AcDbSpline
210
0.0
220
0.0
230
1.0
 70
     8
 71
     3
 72
    12
 73
     8
 74
     0
 42
0.00000001
 43
0.00000001
 40
0.0
 40
0.0
 40
0.0
 40
0.0
 40
0.1878606949370692
 40
0.4340578186228445
 40
0.8188170208319757
 40
0.997481330089005
 40
1.0
 40
1.0
 40
1.0
 40
1.0
 10
626.4170712730804
 20
467.1252028489209
 30
0.0
 10
626.6788345657466
 20
467.1814016308964
 30
0.0
 10
627.2836465720488
 20
467.3112506167191
 30
0.0
 10
628.2261331579024
 20
467.8197336244168
 30
0.0
 10
628.8958187534618
 20
468.4665943484828
 30
0.0
 10
629.2320173091146
 20
468.9856855632659
 30
0.0
 10
629.3268297734854
 20
469.1588099195285
 30
0.0
 10
629.3281477852671
 20
469.1612165645069
 30
0.0
  0
SPLINE
  5
7C
330
1F
100
AcDbEntity
  8
0
  6
Continuous
 62
     7
370
    25
100
AcDbSpline
210
0.0
220
0.0
230
1.0
 70
     8
 71
     3
 72
    12
 73
     8
 74
     0
 42
0.00000001
 43
0.00000001
 40
0.0
 40
0.0
 40
0.0
 40
0.0
 40
0.187860694937069
 40
0.4340578186228468
 40
0.8188170208319754
 40
0.997481330089007
 40
1.0
 40
1.0
 40
1.0
 40
1.0
 10
626.4936650461932
 20
461.1095486791831
 30
0.0
 10
626.756774341357
 20
461.0600327900022
 30
0.0
 10
627.3646963271477
 20
460.9456248301452
 30
0.0
 10
628.3198237106192
 20
460.4613030208345
 30
0.0
 10
629.005761731697
 20
459.8317026519661
 30
0.0
 10
629.355067721261
 20
459.3213395618605
 30
0.0
 10
629.4542573155757
 20
459.1506853192785
 30
0.0
 10
629.4556361749356
 20
459.1483130119684
 30
0.0
  0
LINE
  5
7D
330
1F
100
AcDbEntity
  8
0
  6
Continuous
 62
     7
370
    25
100
AcDbLine
 10
699.7975687896
 20
465.051198706
 30
0.0
 11
699.8251361237
 21
466.5946689892
 31
0.0
  0
ELLIPSE
  5
7E
330
1F
100
AcDbEntity
  8
0
  6
Continuous
 62
     7
370
    25
100
AcDbEllipse
 10
699.8913930526
 20
466.5934855995
 30
0.0
 11
1.508668010601696
 21
0.472738425050352
 31
0.0
210
0.0
220
0.0
230
1.0
 40
0.0132558281
 41
0.0397775855582614
 42
1.610573912352071
  0
LINE
  5
7F
330
1F
100
AcDbEntity
  8
0
  6
Continuous
 62
     7
370
    25
100
AcDbLine
 10
701.4000827439
 20
467.0666192123
 30
0.0
 11
701.3986184688
 21
467.0666453652
 31
0.0
  0
LINE
  5
80
330
1F
100
AcDbEntity
  8
0
  6
Continuous
 62
     7
370
    25
100
AcDbLine
 10
701.4000827439
 20
467.0666192123
 30
0.0
 11
701.3644424075
 21
465.0711487828
 31
0.0
  0
LINE
  5
81
330
1F
100
AcDbEntity
  8
0
  6
Continuous
 62
     7
370
    25
100
AcDbLine
 10
701.3644424075
 20
465.0711487828
 30
0.0
 11
699.7975687896
 21
465.051198706
 31
0.0
  0
ELLIPSE
  5
82
330
1F
100
AcDbEntity
  8
0
  6
Continuous
 62
     7
370
    25
100
AcDbEllipse
 10
699.9306303282
 20
463.5118006155
 30
0.0
 11
-0.5648345489489657
 21
1.47679147543937
 31
0.0
210
0.0
220
0.0
230
1.0
 40
0.0397612749
 41
1.557532986873687
 42
3.128329313668878
  0
ELLIPSE
  5
83
330
1F
100
AcDbEntity
  8
0
  6
Continuous
 62
     7
370
    25
100
AcDbEllipse
 10
699.9306303282
 20
463.5118006155
 30
0.0
 11
1.520215184014773
 21
-0.4341734434793238
 31
0.0
210
0.0
220
0.0
230
1.0
 40
0.0132558281
 41
4.672611394827442
 42
6.243407721621822
  0
ARC
  5
84
330
1F
100
AcDbEntity
  8
0
  6
Continuous
 62
     7
370
    25
100
AcDbCircle
 10
700.450860976
 20
463.0333942835
 30
0.0
 40
0.9995121881025304
100
AcDbArc
 50
272.5101744887
 51
2.5101471538
  0
ELLIPSE
  5
85
330
1F
100
AcDbEntity
  8
0
  6
Continuous
 62
     7
370
    25
100
AcDbEllipse
 10
699.8913930526
 20
466.5934855995
 30
0.0
 11
0.5270513106640919
 21
1.490693813478799
 31
0.0
210
0.0
220
0.0
230
1.0
 40
0.0397612749
 41
0.0132633399213059
 42
1.584059666716082
  0
ARC
  5
86
330
1F
100
AcDbEntity
  8
0
  6
Continuous
 62
     7
370
    25
100
AcDbCircle
 10
700.399274498
 20
467.0849822758
 30
0.0
 40
0.9995121881027169
100
AcDbArc
 50
358.9488006812
 51
88.9487733462
  0
LINE
  5
87
330
1F
100
AcDbEntity
  8
0
  6
Continuous
 62
     7
370
    25
100
AcDbLine
 10
701.4508772476
 20
463.0772326644
 30
0.0
 11
701.3644424075
 21
465.0711487828
 31
0.0
  0
LINE
  5
88
330
1F
100
AcDbEntity
  8
0
  6
Continuous
 62
     7
370
    25
100
AcDbLine
 10
701.4508772476
 20
463.0772326644
 30
0.0
 11
701.4494141131
 21
463.0771692385
 31
0.0
  0
LINE
  5
89
330
1F
100
AcDbEntity
  8
0
  6
Continuous
 62
     7
370
    25
100
AcDbLine
 10
699.7975687896
 20
465.051198706
 30
0.0
 11
699.8644250081
 21
463.5089306621
 31
0.0
  0
LINE
  5
8A
330
1F
100
AcDbEntity
  8
0
  6
Continuous
 62
     7
370
    25
100
AcDbLine
 10
651.3234968714
 20
468.9611775042
 30
0.0
 11
700.4176118854
 21
468.0843262378
 31
0.0
  0
LINE
  5
8B
330
1F
100
AcDbEntity
  8
0
  6
Continuous
 62
     7
370
    25
100
AcDbLine
 10
699.8251361237
 20
466.5946689892
 30
0.0
 11
651.2304532866
 21
467.462600088
 31
0.0
  0
ARC
  5
8C
330
1F
100
AcDbEntity
  8
0
  6
Continuous
 62
     7
370
    25
100
AcDbCircle
 10
659.7738003425
 20
467.6843384187
 30
0.0
 40
8.546224125553126
100
AcDbArc
 50
171.4076175938
 51
181.4867497245
  0
LINE
  5
8D
330
1F
100
AcDbEntity
  8
0
  6
Continuous
 62
     7
370
    25
100
AcDbLine
 10
699.8644250081
 20
463.5089306621
 30
0.0
 11
651.307593525
 21
461.4040266864
 31
0.0
  0
LINE
  5
8E
330
1F
100
AcDbEntity
  8
0
  6
Continuous
 62
     7
370
    25
100
AcDbLine
 10
651.4387617649
 20
459.908304027
 30
0.0
 11
700.4946364074
 21
462.0348411674
 31
0.0
  0
ARC
  5
8F
330
1F
100
AcDbEntity
  8
0
  6
Continuous
 62
     7
370
    25
100
AcDbCircle
 10
659.8538166445
 20
461.3998797637
 30
0.0
 40
8.546224125590644
100
AcDbArc
 50
179.9721981104
 51
190.0513302411
  0
LINE
  5
90
330
1F
100
AcDbEntity
  8
0
  6
Continuous
 62
     7
370
    25
100
AcDbLine
 10
651.2304532866
 20
467.462600088
 30
0.0
 11
651.1763272722
 21
464.432133142
 31
0.0
  0
LINE
  5
91
330
1F
100
AcDbEntity
  8
0
  6
Continuous
 62
     7
370
    25
100
AcDbLine
 10
699.7975687896
 20
465.051198706
 30
0.0
 11
651.1763272722
 21
464.432133142
 31
0.0
  0
LINE
  5
92
330
1F
100
AcDbEntity
  8
0
  6
Continuous
 62
     7
370
    25
100
AcDbLine
 10
651.307593525
 20
461.4040266864
 30
0.0
 11
651.1763272722
 21
464.432133142
 31
0.0
  0
SPLINE
  5
93
330
1F
100
AcDbEntity
  8
0
  6
Continuous
 62
     7
370
    25
100
AcDbSpline
210
0.0
220
0.0
230
1.0
 70
     8
 71
     3
 72
    11
 73
     7
 74
     0
 42
0.00000001
 43
0.00000001
 40
0.0
 40
0.0
 40
0.0
 40
0.0
 40
0.2273674984327144
 40
0.6208870439228301
 40
0.9958230995254476
 40
1.0
 40
1.0
 40
1.0
 40
1.0
 10
648.5498461835849
 20
461.061013106253
 30
0.0
 10
648.4089625452167
 20
460.955740763354
 30
0.0
 10
648.0242425374474
 20
460.6682668093371
 30
0.0
 10
647.6122927636922
 20
460.0114393426412
 30
0.0
 10
647.3037441115376
 20
459.5077600701048
 30
0.0
 10
647.1604739411447
 20
459.2541882824849
 30
0.0
 10
647.1588954531687
 20
459.2513945396094
 30
0.0
  0
LWPOLYLINE
  5
94
330
1F
100
AcDbEntity
  8
0
  6
Continuous
 62
     7
370
    25
100
AcDbPolyline
 90
        9
 70
   128
 43
0.0
 10
647.9862867996
 20
459.7586417023
 10
648.0958735023
 20
459.7870285648
 10
648.1999644099
 20
459.8617056986
 10
648.2952821607
 20
459.9803218513
 10
648.3788256205
 20
460.1391423253
 10
648.4479643756
 20
460.3331665669
 10
648.5005215526
 20
460.5562856115
 10
648.5348423587
 20
460.8014744282
 10
648.5498461836
 20
461.0610131063
  0
SPLINE
  5
95
330
1F
100
AcDbEntity
  8
0
  6
Continuous
 62
     7
370
    25
100
AcDbSpline
210
0.0
220
0.0
230
1.0
 70
     8
 71
     3
 72
    11
 73
     7
 74
     0
 42
0.00000001
 43
0.00000001
 40
0.0
 40
0.0
 40
0.0
 40
0.0
 40
0.0040710294805993
 40
0.3645811465977625
 40
0.7571407874342528
 40
1.0
 40
1.0
 40
1.0
 40
1.0
 10
647.1588954531687
 20
459.2513945396094
 30
0.0
 10
647.1594448646212
 20
459.2523648967903
 30
0.0
 10
647.2086474209401
 20
459.3392652583126
 30
0.0
 10
647.3424655554344
 20
459.5017367500089
 30
0.0
 10
647.5800027095482
 20
459.6920623114335
 30
0.0
 10
647.8739421584197
 20
459.7402313387988
 30
0.0
 10
647.9862867996162
 20
459.7586417022833
 30
0.0
  0
LWPOLYLINE
  5
96
330
1F
100
AcDbEntity
  8
0
  6
Continuous
 62
     7
370
    25
100
AcDbPolyline
 90
        9
 70
   128
 43
0.0
 10
647.8683306092
 20
469.0228889112
 10
647.9786045356
 20
468.9973014043
 10
648.084563031
 20
468.9252987055
 10
648.1828699313
 20
468.8091478612
 10
648.2704299875
 20
468.6525059472
 10
648.3444863209
 20
468.4603049242
 10
648.4027072253
 20
468.2385963514
 10
648.4432595823
 20
467.9943608506
 10
648.4648665776
 20
467.7352883164
  0
SPLINE
  5
97
330
1F
100
AcDbEntity
  8
0
  6
Continuous
 62
     7
370
    25
100
AcDbSpline
210
0.0
220
0.0
230
1.0
 70
     8
 71
     3
 72
    11
 73
     7
 74
     0
 42
0.00000001
 43
0.00000001
 40
0.0
 40
0.0
 40
0.0
 40
0.0
 40
0.2273674984327067
 40
0.6208870439228231
 40
0.9958230995254476
 40
1.0
 40
1.0
 40
1.0
 40
1.0
 10
648.4648665775908
 20
467.7352883164497
 30
0.0
 10
648.3213483036407
 20
467.8369395376999
 30
0.0
 10
647.9294337271245
 20
468.1145250620526
 30
0.0
 10
647.5008942159324
 20
468.7606510748799
 30
0.0
 10
647.1796215651439
 20
469.2563112045867
 30
0.0
 10
647.0299417263797
 20
469.50615303269
 30
0.0
 10
647.0282926194853
 20
469.5089056805054
 30
0.0
  0
SPLINE
  5
98
330
1F
100
AcDbEntity
  8
0
  6
Continuous
 62
     7
370
    25
100
AcDbSpline
210
0.0
220
0.0
230
1.0
 70
     8
 71
     3
 72
    11
 73
     7
 74
     0
 42
0.00000001
 43
0.00000001
 40
0.0
 40
0.0
 40
0.0
 40
0.0
 40
0.004071029480603
 40
0.3645811465977618
 40
0.7571407874342525
 40
1.0
 40
1.0
 40
1.0
 40
1.0
 10
647.0282926194853
 20
469.5089056805054
 30
0.0
 10
647.0288665587968
 20
469.5079496262866
 30
0.0
 10
647.0802657081459
 20
469.4223301668906
 30
0.0
 10
647.2181770985834
 20
469.263318446816
 30
0.0
 10
647.4604830693106
 20
469.0791024446175
 30
0.0
 10
647.7555536468368
 20
469.0384329341874
 30
0.0
 10
647.868330609191
 20
469.0228889111771
 30
0.0
  0
SPLINE
  5
99
330
1F
100
AcDbEntity
  8
0
  6
Continuous
 62
     7
370
    25
100
AcDbSpline
210
0.0
220
0.0
230
1.0
 70
     8
 71
     3
 72
     9
 73
     5
 74
     0
 42
0.00000001
 43
0.00000001
 40
0.0
 40
0.0
 40
0.0
 40
0.0
 40
0.7806926000088085
 40
1.0
 40
1.0
 40
1.0
 40
1.0
 10
649.0005283653992
 20
467.5024279266167
 30
0.0
 10
648.8570114577383
 20
467.5621762605516
 30
0.0
 10
648.6731786563779
 20
467.6387087317627
 30
0.0
 10
648.5023340614968
 20
467.7179172928587
 30
0.0
 10
648.4648665775908
 20
467.7352883164497
 30
0.0
  0
ARC
  5
9A
330
1F
100
AcDbEntity
  8
0
  6
Continuous
 62
     7
370
    25
100
AcDbCircle
 10
638.2777558649
 20
464.2679032472
 30
0.0
 40
11.19999999999988
100
AcDbArc
 50
344.6730091565
 51
16.7859386785
  0
SPLINE
  5
9B
330
1F
100
AcDbEntity
  8
0
  6
Continuous
 62
     7
370
    25
100
AcDbSpline
210
0.0
220
0.0
230
1.0
 70
     8
 71
     3
 72
     9
 73
     5
 74
     0
 42
0.00000001
 43
0.00000001
 40
0.0
 40
0.0
 40
0.0
 40
0.0
 40
0.7806926000088017
 40
1.0
 40
1.0
 40
1.0
 40
1.0
 10
649.0794055361193
 20
461.3074363279969
 30
0.0
 10
648.9374563871008
 20
461.2440533232913
 30
0.0
 10
648.7556317495715
 20
461.1628651517821
 30
0.0
 10
648.5868592431567
 20
461.0793324466334
 30
0.0
 10
648.5498461835849
 20
461.061013106253
 30
0.0
  0
ARC
  5
9C
330
1F
100
AcDbEntity
  8
0
  6
Continuous
 62
     7
370
    25
100
AcDbCircle
 10
700.4518155057
 20
463.0339240512
 30
0.0
 40
1.000000000000026
100
AcDbArc
 50
272.4821771085
 51
2.4821771085
  0
ARC
  5
9D
330
1F
100
AcDbEntity
  8
0
  6
Continuous
 62
     7
370
    25
100
AcDbCircle
 10
700.4002422066
 20
467.0844769829
 30
0.0
 40
1.000000000000038
100
AcDbArc
 50
358.9767707264
 51
88.9767707264
  0
LINE
  5
9E
330
1F
100
AcDbEntity
  8
0
  6
Continuous
 62
     7
370
    25
100
AcDbLine
 10
623.7648919161
 20
461.3185860999
 30
0.0
 11
626.2941840987
 21
461.1294994725
 31
0.0
  0
ARC
  5
9F
330
1F
100
AcDbEntity
  8
0
  6
Continuous
 62
     7
370
    25
100
AcDbCircle
 10
625.0804312338
 20
464.0998695039
 30
0.0
 40
3.076715955338933
100
AcDbArc
 50
116.7729669039
 51
244.685980931
  0
LINE
  5
A0
330
1F
100
AcDbEntity
  8
0
  6
Continuous
 62
     7
370
    25
100
AcDbLine
 10
623.6945049829
 20
466.8467567417
 30
0.0
 11
626.2181629535
 21
467.1001796002
 31
0.0
  0
ARC
  5
A1
330
1F
100
AcDbEntity
  8
0
  6
Continuous
 62
     7
370
    25
100
AcDbCircle
 10
625.818497558
 20
471.0801629635
 30
0.0
 40
3.999999999999998
100
AcDbArc
 50
275.7343534957
 51
278.6062633069
  0
ARC
  5
A2
330
1F
100
AcDbEntity
  8
0
  6
Continuous
 62
     7
370
    25
100
AcDbCircle
 10
625.9959813946
 20
457.1406305668
 30
0.0
 40
4.000000000000007
100
AcDbArc
 50
82.852684528
 51
85.7245943392
  0
LINE
  5
A3
330
1F
100
AcDbEntity
  8
0
  6
Continuous
 62
     7
370
    25
100
AcDbLine
 10
649.1443684559
 20
459.8088437152
 30
0.0
 11
649.0794055361
 21
461.307436328
 31
0.0
  0
SPLINE
  5
A4
330
1F
100
AcDbEntity
  8
0
  6
Continuous
 62
     7
370
    25
100
AcDbSpline
210
0.0
220
0.0
230
1.0
 70
    24
 71
     3
 72
     9
 73
     5
 74
     0
 42
0.00000001
 43
0.00000001
 40
0.0
 40
0.0
 40
0.0
 40
0.0
 40
0.2176311901699981
 40
1.0
 40
1.0
 40
1.0
 40
1.0
 10
647.9862867996162
 20
459.7586417022833
 30
0.0
 10
648.0657894130964
 20
459.7620880838137
 30
0.0
 10
648.4310983259315
 20
459.7779239643584
 30
0.0
 10
648.8312793244088
 20
459.7952715249174
 30
0.0
 10
649.1443684559039
 20
459.8088437152255
 30
0.0
  0
LINE
  5
A5
330
1F
100
AcDbEntity
  8
0
  6
Continuous
 62
     7
370
    25
100
AcDbLine
 10
649.0273150212
 20
469.0021887326
 30
0.0
 11
649.0005283654
 21
467.5024279266
 31
0.0
  0
SPLINE
  5
A6
330
1F
100
AcDbEntity
  8
0
  6
Continuous
 62
     7
370
    25
100
AcDbSpline
210
0.0
220
0.0
230
1.0
 70
    24
 71
     3
 72
     9
 73
     5
 74
     0
 42
0.00000001
 43
0.00000001
 40
0.0
 40
0.0
 40
0.0
 40
0.0
 40
0.2176311901699992
 40
1.0
 40
1.0
 40
1.0
 40
1.0
 10
647.868330609191
 20
469.0228889111771
 30
0.0
 10
647.9478951970931
 20
469.0214678384143
 30
0.0
 10
648.3134888780348
 20
469.014938109097
 30
0.0
 10
648.7139818283456
 20
469.0077850572382
 30
0.0
 10
649.0273150212255
 20
469.0021887325686
 30
0.0
  0
LINE
  5
A7
330
1F
100
AcDbEntity
  8
0
  6
Continuous
 62
     7
370
    25
100
AcDbLine
 10
651.2413882049
 20
461.4011567331
 30
0.0
 11
651.307593525
 21
461.4040266864
 31
0.0
  0
LINE
  5
A8
330
1F
100
AcDbEntity
  8
0
  6
Continuous
 62
     7
370
    25
100
AcDbLine
 10
651.3063511247
 20
459.9025641203
 30
0.0
 11
651.2413882049
 21
461.4011567331
 31
0.0
  0
LINE
  5
A9
330
1F
100
AcDbEntity
  8
0
  6
Continuous
 62
     7
370
    25
100
AcDbLine
 10
651.4387617649
 20
459.908304027
 30
0.0
 11
651.3063511247
 21
459.9025641203
 31
0.0
  0
LINE
  5
AA
330
1F
100
AcDbEntity
  8
0
  6
Continuous
 62
     7
370
    25
100
AcDbLine
 10
651.1641963577
 20
467.4637834777
 30
0.0
 11
651.2304532866
 21
467.462600088
 31
0.0
  0
LINE
  5
AB
330
1F
100
AcDbEntity
  8
0
  6
Continuous
 62
     7
370
    25
100
AcDbLine
 10
651.1100341315
 20
464.4312890706
 30
0.0
 11
651.1763272722
 21
464.432133142
 31
0.0
  0
LINE
  5
AC
330
1F
100
AcDbEntity
  8
0
  6
Continuous
 62
     7
370
    25
100
AcDbLine
 10
651.1100341315
 20
464.4312890706
 30
0.0
 11
651.1641963577
 21
467.4637834777
 31
0.0
  0
LINE
  5
AD
330
1F
100
AcDbEntity
  8
0
  6
Continuous
 62
     7
370
    25
100
AcDbLine
 10
651.1100341315
 20
464.4312890706
 30
0.0
 11
651.2413882049
 21
461.4011567331
 31
0.0
  0
LINE
  5
AE
330
1F
100
AcDbEntity
  8
0
  6
Continuous
 62
     7
370
    25
100
AcDbLine
 10
651.1909830135
 20
468.9635442837
 30
0.0
 11
651.1641963577
 21
467.4637834777
 31
0.0
  0
LINE
  5
AF
330
1F
100
AcDbEntity
  8
0
  6
Continuous
 62
     7
370
    25
100
AcDbLine
 10
651.3234968714
 20
468.9611775042
 30
0.0
 11
651.1909830135
 21
468.9635442837
 31
0.0
  0
LINE
  5
B0
330
1F
100
AcDbEntity
  8
0
  6
Continuous
 62
     7
370
    25
100
AcDbLine
 10
651.2413882049
 20
461.4011567331
 30
0.0
 11
649.0794055361
 21
461.307436328
 31
0.0
  0
LINE
  5
B1
330
1F
100
AcDbEntity
  8
0
  6
Continuous
 62
     7
370
    25
100
AcDbLine
 10
649.1443684559
 20
459.8088437152
 30
0.0
 11
651.3063511247
 21
459.9025641203
 31
0.0
  0
LINE
  5
B2
330
1F
100
AcDbEntity
  8
0
  6
Continuous
 62
     7
370
    25
100
AcDbLine
 10
651.1641963577
 20
467.4637834777
 30
0.0
 11
649.0005283654
 21
467.5024279266
 31
0.0
  0
LINE
  5
B3
330
1F
100
AcDbEntity
  8
0
  6
Continuous
 62
     7
370
    25
100
AcDbLine
 10
649.0273150212
 20
469.0021887326
 30
0.0
 11
651.1909830135
 21
468.9635442837
 31
0.0
  0
CIRCLE
  5
B4
330
1F
100
AcDbEntity
  8
0
  6
Continuous
 62
     7
370
    25
100
AcDbCircle
 10
536.2777558649
 20
464.2679032472
 30
0.0
 40
8.069999999999943
  0
CIRCLE
  5
B5
330
1F
100
AcDbEntity
  8
0
  6
Continuous
 62
     7
370
    25
100
AcDbCircle
 10
536.2777558649
 20
464.2679032472
 30
0.0
 40
10.10000000000001
  0
CIRCLE
  5
B6
330
1F
100
AcDbEntity
  8
0
  6
Continuous
 62
     7
370
    25
100
AcDbCircle
 10
536.2777558649
 20
464.2679032472
 30
0.0
 40
10.19999999999991
  0
SPLINE
  5
B7
330
1F
100
AcDbEntity
  8
0
  6
Continuous
 62
     7
370
    25
100
AcDbSpline
210
0.0
220
0.0
230
1.0
 70
     8
 71
     3
 72
    12
 73
     8
 74
     0
 42
0.00000001
 43
0.00000001
 40
0.0
 40
0.0
 40
0.0
 40
0.0
 40
0.1878606949370648
 40
0.4340578186228468
 40
0.8188170208319763
 40
0.9974813300890064
 40
1.0
 40
1.0
 40
1.0
 40
1.0
 10
548.2270303977195
 20
461.8072451769535
 30
0.0
 10
547.9672842198183
 20
461.7423587565818
 30
0.0
 10
547.3671328182003
 20
461.5924367194348
 30
0.0
 10
546.4421057570668
 20
461.0528434746647
 30
0.0
 10
545.7943374080589
 20
460.384035759948
 30
0.0
 10
545.4756153067087
 20
459.8540344578774
 30
0.0
 10
545.3866218829268
 20
459.677848145539
 30
0.0
 10
545.3853847630837
 20
459.6753989355435
 30
0.0
  0
ARC
  5
B8
330
1F
100
AcDbEntity
  8
0
  6
Continuous
 62
     7
370
    25
100
AcDbCircle
 10
536.2777558649
 20
464.2679032472
 30
0.0
 40
12.19999999999997
100
AcDbArc
 50
348.3640048115
 51
16.9124689157
  0
SPLINE
  5
B9
330
1F
100
AcDbEntity
  8
0
  6
Continuous
 62
     7
370
    25
100
AcDbSpline
210
0.0
220
0.0
230
1.0
 70
     8
 71
     3
 72
    12
 73
     8
 74
     0
 42
0.00000001
 43
0.00000001
 40
0.0
 40
0.0
 40
0.0
 40
0.0
 40
0.1878606949370662
 40
0.4340578186228454
 40
0.8188170208319764
 40
0.9974813300890091
 40
1.0
 40
1.0
 40
1.0
 40
1.0
 10
547.9501094972173
 20
467.8170102730973
 30
0.0
 10
547.685496915579
 20
467.8577350336446
 30
0.0
 10
547.0741015409127
 20
467.9518308248531
 30
0.0
 10
546.1033723173557
 20
468.4040704827379
 30
0.0
 10
545.3968441484957
 20
469.0104742589831
 30
0.0
 10
545.0307327848809
 20
469.5089194691337
 30
0.0
 10
544.9259140698712
 20
469.6761752107835
 30
0.0
 10
544.9244569586965
 20
469.6785002746823
 30
0.0
  0
ELLIPSE
  5
BA
330
1F
100
AcDbEntity
  8
0
  6
Continuous
 62
     7
370
    25
100
AcDbEllipse
 10
474.633906227
 20
462.9700501697
 30
0.0
 11
-0.61371016502693
 21
1.457158523620308
 31
0.0
210
0.0
220
0.0
230
1.0
 40
0.0397612749
 41
4.699125640463512
 42
6.269921967258006
  0
ELLIPSE
  5
BB
330
1F
100
AcDbEntity
  8
0
  6
Continuous
 62
     7
370
    25
100
AcDbEllipse
 10
474.633906227
 20
462.9700501697
 30
0.0
 11
1.533833132184214
 21
-0.3832971528016174
 31
0.0
210
0.0
220
0.0
230
1.0
 40
0.0132558281
 41
1.531018741237771
 42
3.101815068030763
  0
ARC
  5
BC
330
1F
100
AcDbEntity
  8
0
  6
Continuous
 62
     7
370
    25
100
AcDbCircle
 10
474.0980294624
 20
463.4308631888
 30
0.0
 40
0.9995121881027366
100
AcDbArc
 50
94.4189374348
 51
184.4189100999
  0
LINE
  5
BD
330
1F
100
AcDbEntity
  8
0
  6
Continuous
 62
     7
370
    25
100
AcDbLine
 10
474.8181682616
 20
461.4359382583
 30
0.0
 11
474.8420261877
 21
459.8924061814
 31
0.0
  0
ELLIPSE
  5
BE
330
1F
100
AcDbEntity
  8
0
  6
Continuous
 62
     7
370
    25
100
AcDbEllipse
 10
474.7757666061
 20
459.8913820263
 30
0.0
 11
1.492084912585483
 21
0.522726886975704
 31
0.0
210
0.0
220
0.0
230
1.0
 40
0.0132558281
 41
3.181370239145276
 42
4.752166565942087
  0
LINE
  5
BF
330
1F
100
AcDbEntity
  8
0
  6
Continuous
 62
     7
370
    25
100
AcDbLine
 10
473.2836731878
 20
459.3682594487
 30
0.0
 11
473.2851375215
 21
459.3682820825
 31
0.0
  0
LINE
  5
C0
330
1F
100
AcDbEntity
  8
0
  6
Continuous
 62
     7
370
    25
100
AcDbLine
 10
473.2836731878
 20
459.3682594487
 30
0.0
 11
473.2528285473
 21
461.363809768
 31
0.0
  0
LINE
  5
C1
330
1F
100
AcDbEntity
  8
0
  6
Continuous
 62
     7
370
    25
100
AcDbLine
 10
473.2528285473
 20
461.363809768
 30
0.0
 11
474.8181682616
 21
461.4359382583
 31
0.0
  0
ELLIPSE
  5
C2
330
1F
100
AcDbEntity
  8
0
  6
Continuous
 62
     7
370
    25
100
AcDbEllipse
 10
474.7757666061
 20
459.8913820263
 30
0.0
 11
0.4771067840400746
 21
1.507421721430262
 31
0.0
210
0.0
220
0.0
230
1.0
 40
0.0397612749
 41
3.154855993512235
 42
4.725652320305912
  0
ARC
  5
C3
330
1F
100
AcDbEntity
  8
0
  6
Continuous
 62
     7
370
    25
100
AcDbCircle
 10
474.2845377562
 20
459.3832415316
 30
0.0
 40
0.9995121881026618
100
AcDbArc
 50
180.8575636273
 51
270.8575362923
  0
LINE
  5
C4
330
1F
100
AcDbEntity
  8
0
  6
Continuous
 62
     7
370
    25
100
AcDbLine
 10
473.1000282368
 20
463.3537405543
 30
0.0
 11
473.2528285473
 21
461.363809768
 31
0.0
  0
LINE
  5
C5
330
1F
100
AcDbEntity
  8
0
  6
Continuous
 62
     7
370
    25
100
AcDbLine
 10
473.1000282368
 20
463.3537405543
 30
0.0
 11
473.1014884469
 21
463.353852679
 31
0.0
  0
LINE
  5
C6
330
1F
100
AcDbEntity
  8
0
  6
Continuous
 62
     7
370
    25
100
AcDbLine
 10
474.8181682616
 20
461.4359382583
 30
0.0
 11
474.6999792195
 21
462.9751236999
 31
0.0
  0
LINE
  5
C7
330
1F
100
AcDbEntity
  8
0
  6
Continuous
 62
     7
370
    25
100
AcDbLine
 10
474.6999792195
 20
462.9751236999
 30
0.0
 11
523.1597579221
 21
466.6961924344
 31
0.0
  0
LINE
  5
C8
330
1F
100
AcDbEntity
  8
0
  6
Continuous
 62
     7
370
    25
100
AcDbLine
 10
522.9788428786
 20
468.1867162108
 30
0.0
 11
474.0210184772
 21
464.4274041675
 31
0.0
  0
ARC
  5
C9
330
1F
100
AcDbEntity
  8
0
  6
Continuous
 62
     7
370
    25
100
AcDbCircle
 10
514.6181386903
 20
466.4156791473
 30
0.0
 40
8.546224125550435
100
AcDbArc
 50
1.8809610565
 51
11.9600931873
  0
LINE
  5
CA
330
1F
100
AcDbEntity
  8
0
  6
Continuous
 62
     7
370
    25
100
AcDbLine
 10
523.3955772527
 20
459.1427051178
 30
0.0
 11
474.2994967285
 21
458.3838412898
 31
0.0
  0
LINE
  5
CB
330
1F
100
AcDbEntity
  8
0
  6
Continuous
 62
     7
370
    25
100
AcDbLine
 10
474.8420261877
 20
459.8924061814
 30
0.0
 11
523.4386545399
 21
460.6435501226
 31
0.0
  0
ARC
  5
CC
330
1F
100
AcDbEntity
  8
0
  6
Continuous
 62
     7
370
    25
100
AcDbCircle
 10
514.9074335701
 20
460.1373727143
 30
0.0
 40
8.546224125553309
100
AcDbArc
 50
353.3163805399
 51
3.3955126707
  0
LINE
  5
CD
330
1F
100
AcDbEntity
  8
0
  6
Continuous
 62
     7
370
    25
100
AcDbLine
 10
523.1597579221
 20
466.6961924344
 30
0.0
 11
523.391811619
 21
463.6741383949
 31
0.0
  0
LINE
  5
CE
330
1F
100
AcDbEntity
  8
0
  6
Continuous
 62
     7
370
    25
100
AcDbLine
 10
474.8181682616
 20
461.4359382583
 30
0.0
 11
523.391811619
 21
463.6741383949
 31
0.0
  0
LINE
  5
CF
330
1F
100
AcDbEntity
  8
0
  6
Continuous
 62
     7
370
    25
100
AcDbLine
 10
523.4386545399
 20
460.6435501226
 30
0.0
 11
523.391811619
 21
463.6741383949
 31
0.0
  0
SPLINE
  5
D0
330
1F
100
AcDbEntity
  8
0
  6
Continuous
 62
     7
370
    25
100
AcDbSpline
210
0.0
220
0.0
230
1.0
 70
     8
 71
     3
 72
    11
 73
     7
 74
     0
 42
0.00000001
 43
0.00000001
 40
0.0
 40
0.0
 40
0.0
 40
0.0
 40
0.2273674984327052
 40
0.6208870439228216
 40
0.9958230995254415
 40
0.9999999999999999
 40
0.9999999999999999
 40
0.9999999999999999
 40
0.9999999999999999
 10
526.2117894267095
 20
460.4631294618326
 30
0.0
 10
526.3586138697214
 20
460.3663149553081
 30
0.0
 10
526.759556814626
 20
460.1019373587775
 30
0.0
 10
527.2093797321767
 20
459.470443669221
 30
0.0
 10
527.5469835850429
 20
458.9857595258263
 30
0.0
 10
527.7049021121156
 20
458.7410418680884
 30
0.0
 10
527.7066419892685
 20
458.7383456761374
 30
0.0
  0
SPLINE
  5
D1
330
1F
100
AcDbEntity
  8
0
  6
Continuous
 62
     7
370
    25
100
AcDbSpline
210
0.0
220
0.0
230
1.0
 70
     8
 71
     3
 72
     9
 73
     5
 74
     0
 42
0.00000001
 43
0.00000001
 40
0.0
 40
0.0
 40
0.0
 40
0.0
 40
0.7806926000087694
 40
0.9999999999999999
 40
0.9999999999999999
 40
0.9999999999999999
 40
0.9999999999999999
 10
525.6686687374341
 20
460.6780188030115
 30
0.0
 10
525.8140961120282
 20
460.6230838877824
 30
0.0
 10
526.0003760570315
 20
460.5527169914797
 30
0.0
 10
526.1737641375759
 20
460.4792428785138
 30
0.0
 10
526.2117894267095
 20
460.4631294618326
 30
0.0
  0
ARC
  5
D2
330
1F
100
AcDbEntity
  8
0
  6
Continuous
 62
     7
370
    25
100
AcDbCircle
 10
536.2777558649
 20
464.2679032472
 30
0.0
 40
11.20000000000003
100
AcDbArc
 50
166.5817721026
 51
198.6947016246
  0
SPLINE
  5
D3
330
1F
100
AcDbEntity
  8
0
  6
Continuous
 62
     7
370
    25
100
AcDbSpline
210
0.0
220
0.0
230
1.0
 70
     8
 71
     3
 72
     9
 73
     5
 74
     0
 42
0.00000001
 43
0.00000001
 40
0.0
 40
0.0
 40
0.0
 40
0.0
 40
0.780692600008777
 40
1.0
 40
1.0
 40
1.0
 40
1.0
 10
525.3834923287363
 20
466.8669457642023
 30
0.0
 10
525.5232515515029
 20
466.9350216471878
 30
0.0
 10
525.7022710820646
 20
467.0222209916991
 30
0.0
 10
525.8681676318915
 20
467.1113288280911
 30
0.0
 10
525.9045499729017
 20
467.1308708360091
 30
0.0
  0
SPLINE
  5
D4
330
1F
100
AcDbEntity
  8
0
  6
Continuous
 62
     7
370
    25
100
AcDbSpline
210
0.0
220
0.0
230
1.0
 70
     8
 71
     3
 72
    11
 73
     7
 74
     0
 42
0.00000001
 43
0.00000001
 40
0.0
 40
0.0
 40
0.0
 40
0.0
 40
0.2273674984327118
 40
0.6208870439228242
 40
0.9958230995254423
 40
0.9999999999999999
 40
0.9999999999999999
 40
0.9999999999999999
 40
0.9999999999999999
 10
525.9045499729017
 20
467.1308708360091
 30
0.0
 10
526.0418490246423
 20
467.2407773241272
 30
0.0
 10
526.4167803712779
 20
467.5409060363923
 30
0.0
 10
526.8066239348506
 20
468.2110902894491
 30
0.0
 10
527.0982248162389
 20
468.7247672368593
 30
0.0
 10
527.2329695125281
 20
468.9829703739894
 30
0.0
 10
527.2344540705651
 20
468.9858151430449
 30
0.0
  0
LWPOLYLINE
  5
D5
330
1F
100
AcDbEntity
  8
0
  6
Continuous
 62
     7
370
    25
100
AcDbPolyline
 90
        9
 70
   128
 43
0.0
 10
526.8508818444
 20
459.1961127553
 10
526.7398168357
 20
459.2180130566
 10
526.6315188647
 20
459.286446534
 10
526.529397755
 20
459.3992585203
 10
526.4366688485
 20
459.5528970654
 10
526.3562517679
 20
459.7425247715
 10
526.2906784911
 20
459.9621711016
 10
526.2420136303
 20
460.204920365
 10
526.2117894267
 20
460.4631294618
  0
SPLINE
  5
D6
330
1F
100
AcDbEntity
  8
0
  6
Continuous
 62
     7
370
    25
100
AcDbSpline
210
0.0
220
0.0
230
1.0
 70
     8
 71
     3
 72
    11
 73
     7
 74
     0
 42
0.00000001
 43
0.00000001
 40
0.0
 40
0.0
 40
0.0
 40
0.0
 40
0.0040710294806033
 40
0.3645811465977625
 40
0.7571407874342575
 40
1.0
 40
1.0
 40
1.0
 40
1.0
 10
527.7066419892685
 20
458.7383456761374
 30
0.0
 10
527.7060365241283
 20
458.7392820830823
 30
0.0
 10
527.6518140783988
 20
458.8231420303764
 30
0.0
 10
527.5086828422565
 20
458.9774719625799
 30
0.0
 10
527.2603754457482
 20
459.1535150134376
 30
0.0
 10
526.9641139714983
 20
459.1843337362446
 30
0.0
 10
526.8508818444301
 20
459.1961127552541
 30
0.0
  0
LWPOLYLINE
  5
D7
330
1F
100
AcDbEntity
  8
0
  6
Continuous
 62
     7
370
    25
100
AcDbPolyline
 90
        9
 70
   128
 43
0.0
 10
526.4244172228
 20
468.451290654
 10
526.3158368368
 20
468.4192694245
 10
526.2142910343
 20
468.3411666629
 10
526.1229770433
 20
468.2194414792
 10
526.0447699371
 20
468.0579264608
 10
525.9821321112
 20
467.8617070006
 10
525.9370357536
 20
467.6369611809
 10
525.910900749
 20
467.3907652527
 10
525.9045499729
 20
467.130870836
  0
SPLINE
  5
D8
330
1F
100
AcDbEntity
  8
0
  6
Continuous
 62
     7
370
    25
100
AcDbSpline
210
0.0
220
0.0
230
1.0
 70
     8
 71
     3
 72
    11
 73
     7
 74
     0
 42
0.00000001
 43
0.00000001
 40
0.0
 40
0.0
 40
0.0
 40
0.0
 40
0.0040710294806039
 40
0.3645811465977643
 40
0.7571407874342543
 40
1.0
 40
1.0
 40
1.0
 40
1.0
 10
527.2344540705651
 20
468.9858151430449
 30
0.0
 10
527.2339372846548
 20
468.9848270244662
 30
0.0
 10
527.1876565095748
 20
468.8963360405236
 30
0.0
 10
527.0593242326141
 20
468.7294974795633
 30
0.0
 10
526.8282582506129
 20
468.5313656273083
 30
0.0
 10
526.5360863146227
 20
468.4734327815294
 30
0.0
 10
526.4244172227656
 20
468.451290653967
 30
0.0
  0
ARC
  5
D9
330
1F
100
AcDbEntity
  8
0
  6
Continuous
 62
     7
370
    25
100
AcDbCircle
 10
474.2835537543
 20
459.3837143116
 30
0.0
 40
1.000000000000035
100
AcDbArc
 50
180.8855336725
 51
270.8855336725
  0
ARC
  5
DA
330
1F
100
AcDbEntity
  8
0
  6
Continuous
 62
     7
370
    25
100
AcDbCircle
 10
474.0970931079
 20
463.4303019216
 30
0.0
 40
1.000000000000071
100
AcDbArc
 50
94.3909400547
 51
184.3909400547
  0
LINE
  5
DB
330
1F
100
AcDbEntity
  8
0
  6
Continuous
 62
     7
370
    25
100
AcDbLine
 10
550.9388115338
 20
462.1762201203
 30
0.0
 11
548.4249948745
 21
461.8388797866
 31
0.0
  0
LINE
  5
DC
330
1F
100
AcDbEntity
  8
0
  6
Continuous
 62
     7
370
    25
100
AcDbLine
 10
550.6843311483
 20
467.6989789144
 30
0.0
 11
548.1501442812
 21
467.8037148684
 31
0.0
  0
ARC
  5
DD
330
1F
100
AcDbEntity
  8
0
  6
Continuous
 62
     7
370
    25
100
AcDbCircle
 10
549.4621608676
 20
464.8754207204
 30
0.0
 40
3.076715955338974
100
AcDbArc
 50
298.68172985
 51
66.5947438771
  0
ARC
  5
DE
330
1F
100
AcDbEntity
  8
0
  6
Continuous
 62
     7
370
    25
100
AcDbCircle
 10
548.9570039389
 20
457.8744168525
 30
0.0
 40
3.999999999999998
100
AcDbArc
 50
97.6431164418
 51
100.515026253
  0
ARC
  5
DF
330
1F
100
AcDbEntity
  8
0
  6
Continuous
 62
     7
370
    25
100
AcDbCircle
 10
548.3153201327
 20
471.8003030306
 30
0.0
 40
4.000000000000018
100
AcDbArc
 50
264.7614474742
 51
267.6333572853
  0
LINE
  5
E0
330
1F
100
AcDbEntity
  8
0
  6
Continuous
 62
     7
370
    25
100
AcDbLine
 10
525.6918510318
 20
459.1781979533
 30
0.0
 11
525.6686687374
 21
460.678018803
 31
0.0
  0
SPLINE
  5
E1
330
1F
100
AcDbEntity
  8
0
  6
Continuous
 62
     7
370
    25
100
AcDbSpline
210
0.0
220
0.0
230
1.0
 70
    24
 71
     3
 72
     9
 73
     5
 74
     0
 42
0.00000001
 43
0.00000001
 40
0.0
 40
0.0
 40
0.0
 40
0.0
 40
0.2176311901700124
 40
1.0
 40
1.0
 40
1.0
 40
1.0
 10
526.8508818444301
 20
459.1961127552541
 30
0.0
 10
526.7713140711155
 20
459.1948828993388
 30
0.0
 10
526.405705753427
 20
459.1892317979768
 30
0.0
 10
526.005196769158
 20
459.1830412471687
 30
0.0
 10
525.6918510318094
 20
459.1781979533006
 30
0.0
  0
LINE
  5
E2
330
1F
100
AcDbEntity
  8
0
  6
Continuous
 62
     7
370
    25
100
AcDbLine
 10
525.2686502777
 20
468.3625430707
 30
0.0
 11
525.3834923287
 21
466.8669457642
 31
0.0
  0
SPLINE
  5
E3
330
1F
100
AcDbEntity
  8
0
  6
Continuous
 62
     7
370
    25
100
AcDbSpline
210
0.0
220
0.0
230
1.0
 70
    24
 71
     3
 72
     9
 73
     5
 74
     0
 42
0.00000001
 43
0.00000001
 40
0.0
 40
0.0
 40
0.0
 40
0.0
 40
0.217631190170007
 40
1.0
 40
1.0
 40
1.0
 40
1.0
 10
526.4244172227656
 20
468.451290653967
 30
0.0
 10
526.3450735148291
 20
468.4451981087926
 30
0.0
 10
525.9804947617813
 20
468.4172032925641
 30
0.0
 10
525.5811136235391
 20
468.386536114412
 30
0.0
 10
525.268650277744
 20
468.3625430707403
 30
0.0
  0
LINE
  5
E4
330
1F
100
AcDbEntity
  8
0
  6
Continuous
 62
     7
370
    25
100
AcDbLine
 10
523.2258309145
 20
466.7012659645
 30
0.0
 11
523.1597579221
 21
466.6961924344
 31
0.0
  0
LINE
  5
E5
330
1F
100
AcDbEntity
  8
0
  6
Continuous
 62
     7
370
    25
100
AcDbLine
 10
523.1109888635
 20
468.1968632711
 30
0.0
 11
523.2258309145
 21
466.7012659645
 31
0.0
  0
LINE
  5
E6
330
1F
100
AcDbEntity
  8
0
  6
Continuous
 62
     7
370
    25
100
AcDbLine
 10
522.9788428786
 20
468.1867162108
 30
0.0
 11
523.1109888635
 21
468.1968632711
 31
0.0
  0
LINE
  5
E7
330
1F
100
AcDbEntity
  8
0
  6
Continuous
 62
     7
370
    25
100
AcDbLine
 10
523.4580398614
 20
463.6771900923
 30
0.0
 11
523.391811619
 21
463.6741383949
 31
0.0
  0
LINE
  5
E8
330
1F
100
AcDbEntity
  8
0
  6
Continuous
 62
     7
370
    25
100
AcDbLine
 10
523.4580398614
 20
463.6771900923
 30
0.0
 11
523.2258309145
 21
466.7012659645
 31
0.0
  0
LINE
  5
E9
330
1F
100
AcDbEntity
  8
0
  6
Continuous
 62
     7
370
    25
100
AcDbLine
 10
523.5049141215
 20
460.6445742776
 30
0.0
 11
523.4386545399
 21
460.6435501226
 31
0.0
  0
LINE
  5
EA
330
1F
100
AcDbEntity
  8
0
  6
Continuous
 62
     7
370
    25
100
AcDbLine
 10
523.5280964159
 20
459.1447534279
 30
0.0
 11
523.5049141215
 21
460.6445742776
 31
0.0
  0
LINE
  5
EB
330
1F
100
AcDbEntity
  8
0
  6
Continuous
 62
     7
370
    25
100
AcDbLine
 10
523.3955772527
 20
459.1427051178
 30
0.0
 11
523.5280964159
 21
459.1447534279
 31
0.0
  0
LINE
  5
EC
330
1F
100
AcDbEntity
  8
0
  6
Continuous
 62
     7
370
    25
100
AcDbLine
 10
523.4580398614
 20
463.6771900923
 30
0.0
 11
523.5049141215
 21
460.6445742776
 31
0.0
  0
LINE
  5
ED
330
1F
100
AcDbEntity
  8
0
  6
Continuous
 62
     7
370
    25
100
AcDbLine
 10
523.2258309145
 20
466.7012659645
 30
0.0
 11
525.3834923287
 21
466.8669457642
 31
0.0
  0
LINE
  5
EE
330
1F
100
AcDbEntity
  8
0
  6
Continuous
 62
     7
370
    25
100
AcDbLine
 10
525.2686502777
 20
468.3625430707
 30
0.0
 11
523.1109888635
 21
468.1968632711
 31
0.0
  0
LINE
  5
EF
330
1F
100
AcDbEntity
  8
0
  6
Continuous
 62
     7
370
    25
100
AcDbLine
 10
523.5049141215
 20
460.6445742776
 30
0.0
 11
525.6686687374
 21
460.678018803
 31
0.0
  0
LINE
  5
F0
330
1F
100
AcDbEntity
  8
0
  6
Continuous
 62
     7
370
    25
100
AcDbLine
 10
525.6918510318
 20
459.1781979533
 30
0.0
 11
523.5280964159
 21
459.1447534279
 31
0.0
  0
ARC
  5
F1
330
1F
100
AcDbEntity
  8
0
  6
Continuous
 62
     7
370
    25
100
AcDbCircle
 10
536.2777558649
 20
464.2679032472
 30
0.0
 40
16.38000000000002
100
AcDbArc
 50
326.8423803591
 51
166.8911868569
  0
ARC
  5
F2
330
1F
100
AcDbEntity
  8
0
  6
Continuous
 62
     7
370
    25
100
AcDbCircle
 10
536.2777558649
 20
464.2679032472
 30
0.0
 40
16.38000000000013
100
AcDbArc
 50
198.3852868703
 51
326.8423803591
  0
ARC
  5
F3
330
1F
100
AcDbEntity
  8
0
  6
Continuous
 62
     7
370
    25
100
AcDbCircle
 10
536.2777558649
 20
464.2679032472
 30
0.0
 40
16.58000000000012
100
AcDbArc
 50
198.1675034742
 51
326.8423803591
  0
ARC
  5
F4
330
1F
100
AcDbEntity
  8
0
  6
Continuous
 62
     7
370
    25
100
AcDbCircle
 10
536.2777558649
 20
464.2679032472
 30
0.0
 40
16.58000000000009
100
AcDbArc
 50
326.8423803591
 51
167.108970253
  0
ARC
  5
F5
330
1F
100
AcDbEntity
  8
0
  6
Continuous
 62
     7
370
    25
100
AcDbCircle
 10
638.2777558649
 20
464.2679032472
 30
0.0
 40
16.37999999999993
100
AcDbArc
 50
326.8423803591
 51
344.9824239108
  0
ARC
  5
F6
330
1F
100
AcDbEntity
  8
0
  6
Continuous
 62
     7
370
    25
100
AcDbCircle
 10
638.2777558649
 20
464.2679032472
 30
0.0
 40
16.37999999999994
100
AcDbArc
 50
16.4765239241
 51
326.8423803591
  0
ARC
  5
F7
330
1F
100
AcDbEntity
  8
0
  6
Continuous
 62
     7
370
    25
100
AcDbCircle
 10
638.2777558649
 20
464.2679032472
 30
0.0
 40
16.58000000000001
100
AcDbArc
 50
16.2587405281
 51
326.8423803591
  0
ARC
  5
F8
330
1F
100
AcDbEntity
  8
0
  6
Continuous
 62
     7
370
    25
100
AcDbCircle
 10
638.2777558649
 20
464.2679032472
 30
0.0
 40
16.58000000000001
100
AcDbArc
 50
326.8423803591
 51
345.2002073069
  0
ARC
  5
F9
330
1F
100
AcDbEntity
  8
0
  6
Continuous
 62
     7
370
    25
100
AcDbCircle
 10
536.2777558649
 20
464.2679032472
 30
0.0
 40
13.10000000000013
100
AcDbArc
 50
15.5181076876
 51
162.3053093476
  0
ARC
  5
FA
330
1F
100
AcDbEntity
  8
0
  6
Continuous
 62
     7
370
    25
100
AcDbCircle
 10
536.2777558649
 20
464.2679032472
 30
0.0
 40
13.1000000000002
100
AcDbArc
 50
202.9711643796
 51
349.7583660396
  0
ARC
  5
FB
330
1F
100
AcDbEntity
  8
0
  6
Continuous
 62
     7
370
    25
100
AcDbCircle
 10
536.2777558649
 20
464.2679032472
 30
0.0
 40
14.21000000000016
100
AcDbArc
 50
14.0795192454
 51
164.110121023
  0
ARC
  5
FC
330
1F
100
AcDbEntity
  8
0
  6
Continuous
 62
     7
370
    25
100
AcDbCircle
 10
536.2777558649
 20
464.2679032472
 30
0.0
 40
14.21000000000012
100
AcDbArc
 50
201.1663527042
 51
351.1969544818
  0
ARC
  5
FD
330
1F
100
AcDbEntity
  8
0
  6
Continuous
 62
     7
370
    25
100
AcDbCircle
 10
638.2777558649
 20
464.2679032472
 30
0.0
 40
13.10000000000013
100
AcDbArc
 50
21.0624014335
 51
167.8496030934
  0
ARC
  5
FE
330
1F
100
AcDbEntity
  8
0
  6
Continuous
 62
     7
370
    25
100
AcDbCircle
 10
638.2777558649
 20
464.2679032472
 30
0.0
 40
13.10000000000011
100
AcDbArc
 50
193.6093447415
 51
340.3965464014
  0
ARC
  5
FF
330
1F
100
AcDbEntity
  8
0
  6
Continuous
 62
     7
370
    25
100
AcDbCircle
 10
638.2777558649
 20
464.2679032472
 30
0.0
 40
14.2100000000001
100
AcDbArc
 50
19.257589758
 51
169.2881915357
  0
ARC
  5
100
330
1F
100
AcDbEntity
  8
0
  6
Continuous
 62
     7
370
    25
100
AcDbCircle
 10
638.2777558649
 20
464.2679032472
 30
0.0
 40
14.21000000000019
100
AcDbArc
 50
192.1707562993
 51
342.2013580769
  0
LINE
  5
101
330
1F
100
AcDbEntity
  8
0
  6
Continuous
 62
     7
370
    25
100
AcDbLine
 10
508.2800384138
 20
485.5795644573
 30
0.0
 11
508.2800384138
 21
485.0737009945
 31
0.0
  0
ARC
  5
102
330
1F
100
AcDbEntity
  8
0
  6
Continuous
 62
     7
370
    25
100
AcDbCircle
 10
513.5800384138
 20
485.5795644573
 30
0.0
 40
5.300000000000011
100
AcDbArc
 50
90.0
 51
180.0
  0
LINE
  5
103
330
1F
100
AcDbEntity
  8
0
  6
Continuous
 62
     7
370
    25
100
AcDbLine
 10
659.3300384138
 20
490.8795644573
 30
0.0
 11
602.9765649306
 21
490.8795644573
 31
0.0
  0
LINE
  5
104
330
1F
100
AcDbEntity
  8
0
  6
Continuous
 62
     7
370
    25
100
AcDbLine
 10
571.4290283581
 20
490.8795644573
 30
0.0
 11
513.5800384138
 21
490.8795644573
 31
0.0
  0
ARC
  5
105
330
1F
100
AcDbEntity
  8
0
  6
Continuous
 62
     7
370
    25
100
AcDbCircle
 10
659.3300384138
 20
485.5795644573
 30
0.0
 40
5.300000000000068
100
AcDbArc
 50
17.1297979762
 51
90.0
  0
LINE
  5
106
330
1F
100
AcDbEntity
  8
0
  6
Continuous
 62
     7
370
    25
100
AcDbLine
 10
507.2800384138
 20
485.5795644573
 30
0.0
 11
507.2800384138
 21
466.9812560947
 31
0.0
  0
LINE
  5
107
330
1F
100
AcDbEntity
  8
0
  6
Continuous
 62
     7
370
    25
100
AcDbLine
 10
507.2800384138
 20
458.8936119241
 30
0.0
 11
507.2800384138
 21
450.6295644573
 31
0.0
  0
ARC
  5
108
330
1F
100
AcDbEntity
  8
0
  6
Continuous
 62
     7
370
    25
100
AcDbCircle
 10
513.5800384138
 20
485.5795644573
 30
0.0
 40
6.300000000000011
100
AcDbArc
 50
90.0
 51
180.0
  0
ARC
  5
109
330
1F
100
AcDbEntity
  8
0
  6
Continuous
 62
     7
370
    25
100
AcDbCircle
 10
513.5800384138
 20
450.6295644573
 30
0.0
 40
6.300000000000016
100
AcDbArc
 50
180.0
 51
206.7655005768
  0
ARC
  5
10A
330
1F
100
AcDbEntity
  8
0
  6
Continuous
 62
     7
370
    25
100
AcDbCircle
 10
659.3300384138
 20
485.5795644573
 30
0.0
 40
6.300000000000068
100
AcDbArc
 50
6.0626898003
 51
90.0
  0
LINE
  5
10B
330
1F
100
AcDbEntity
  8
0
  6
Continuous
 62
     7
370
    25
100
AcDbLine
 10
659.3300384138
 20
491.8795644573
 30
0.0
 11
602.9493223126
 21
491.8795644573
 31
0.0
  0
LINE
  5
10C
330
1F
100
AcDbEntity
  8
0
  6
Continuous
 62
     7
370
    25
100
AcDbLine
 10
571.4563631068
 20
491.8795644573
 30
0.0
 11
513.5800384138
 21
491.8795644573
 31
0.0
  0
ELLIPSE
  5
10D
330
1F
100
AcDbEntity
  8
0
  6
Continuous
 62
     7
370
    25
100
AcDbEllipse
 10
661.3176063569
 20
482.6327537393
 30
0.0
 11
-1.419494087488374
 21
-1.419494087488488
 31
0.0
210
0.0
220
0.0
230
1.0
 40
0.996279995
 41
2.358057956595901
 42
3.925127350583619
  0
LINE
  5
10E
330
1F
100
AcDbEntity
  8
0
  6
Continuous
 62
     7
370
    25
100
AcDbLine
 10
661.3250741342
 20
484.6364911134
 30
0.0
 11
661.3250741342
 21
486.6327607102
 31
0.0
  0
ELLIPSE
  5
10F
330
1F
100
AcDbEntity
  8
0
  6
Continuous
 62
     7
370
    25
100
AcDbEllipse
 10
661.3176063569
 20
482.6327537393
 30
0.0
 11
2.828446768326102
 21
2.828446768326045
 31
0.0
210
0.0
220
0.0
230
1.0
 40
0.999993055
 41
5.499650610185767
 42
7.06672000417344
  0
LINE
  5
110
330
1F
100
AcDbEntity
  8
0
  6
Continuous
 62
     7
370
    25
100
AcDbLine
 10
665.3176133279
 20
482.6402215165
 30
0.0
 11
663.3213437311
 21
482.6402215165
 31
0.0
  0
ELLIPSE
  5
111
330
1F
100
AcDbEntity
  8
0
  6
Continuous
 62
     7
370
    25
100
AcDbEllipse
 10
513.0879053728
 20
482.6327537393
 30
0.0
 11
1.419494087488488
 21
-1.419494087488488
 31
0.0
210
0.0
220
0.0
230
1.0
 40
0.996279995
 41
2.358057956595855
 42
3.925127350583661
  0
ELLIPSE
  5
112
330
1F
100
AcDbEntity
  8
0
  6
Continuous
 62
     7
370
    25
100
AcDbEllipse
 10
661.3176063569
 20
445.9030527551
 30
0.0
 11
-1.419494087488488
 21
1.419494087488488
 31
0.0
210
0.0
220
0.0
230
1.0
 40
0.996279995
 41
2.358057956595855
 42
3.925127350583661
  0
ELLIPSE
  5
113
330
1F
100
AcDbEntity
  8
0
  6
Continuous
 62
     7
370
    25
100
AcDbEllipse
 10
513.0879053728
 20
445.9030527551
 30
0.0
 11
1.419494087488488
 21
1.419494087488488
 31
0.0
210
0.0
220
0.0
230
1.0
 40
0.996279995
 41
2.358057956595933
 42
3.925127350583696
  0
LINE
  5
114
330
1F
100
AcDbEntity
  8
0
  6
Continuous
 62
     7
370
    25
100
AcDbLine
 10
511.0841679987
 20
482.6402215165
 30
0.0
 11
509.0878984018
 21
482.6402215165
 31
0.0
  0
ELLIPSE
  5
115
330
1F
100
AcDbEntity
  8
0
  6
Continuous
 62
     7
370
    25
100
AcDbEllipse
 10
513.0879053728
 20
482.6327537393
 30
0.0
 11
-2.828446768302228
 21
2.828446768349806
 31
0.0
210
0.0
220
0.0
230
1.0
 40
0.999993055
 41
5.499650610194139
 42
7.066720004181841
  0
LINE
  5
116
330
1F
100
AcDbEntity
  8
0
  6
Continuous
 62
     7
370
    25
100
AcDbLine
 10
513.0804375955
 20
486.6327607102
 30
0.0
 11
513.0804375955
 21
484.6364911134
 31
0.0
  0
LINE
  5
117
330
1F
100
AcDbEntity
  8
0
  6
Continuous
 62
     7
370
    25
100
AcDbLine
 10
663.3213437311
 20
445.8955849778
 30
0.0
 11
665.3176133279
 21
445.8955849778
 31
0.0
  0
LINE
  5
118
330
1F
100
AcDbEntity
  8
0
  6
Continuous
 62
     7
370
    25
100
AcDbLine
 10
509.0878984018
 20
445.8955849778
 30
0.0
 11
511.0841679987
 21
445.8955849778
 31
0.0
  0
ELLIPSE
  5
119
330
1F
100
AcDbEntity
  8
0
  6
Continuous
 62
     7
370
    25
100
AcDbEllipse
 10
513.0879053728
 20
445.9030527551
 30
0.0
 11
2.828446768302342
 21
2.828446768349863
 31
0.0
210
0.0
220
0.0
230
1.0
 40
0.999993055
 41
2.358057956587524
 42
3.925127350575261
  0
LINE
  5
11A
330
1F
100
AcDbEntity
  8
0
  6
Continuous
 62
     7
370
    25
100
AcDbLine
 10
513.0804375955
 20
443.899315381
 30
0.0
 11
513.0804375955
 21
441.9030457841
 31
0.0
  0
LINE
  5
11B
330
1F
100
AcDbEntity
  8
0
  6
Continuous
 62
     7
370
    25
100
AcDbLine
 10
661.3250741342
 20
441.9030457841
 30
0.0
 11
661.3250741342
 21
443.899315381
 31
0.0
  0
ELLIPSE
  5
11C
330
1F
100
AcDbEntity
  8
0
  6
Continuous
 62
     7
370
    25
100
AcDbEllipse
 10
661.3176063569
 20
445.9030527551
 30
0.0
 11
2.828446768349863
 21
-2.828446768302285
 31
0.0
210
0.0
220
0.0
230
1.0
 40
0.999993055
 41
5.499650610177312
 42
7.06672000416501
  0
LINE
  5
11D
330
1F
100
AcDbEntity
  8
0
  6
Continuous
 62
     7
370
    25
100
AcDbLine
 10
666.4504733159
 20
483.7730815046
 30
0.0
 11
665.3176133279
 21
482.6402215165
 31
0.0
  0
ELLIPSE
  5
11E
330
1F
100
AcDbEntity
  8
0
  6
Continuous
 62
     7
370
    25
100
AcDbEllipse
 10
662.4429985677
 20
483.75814595
 30
0.0
 11
-2.838988174976976
 21
-2.838988174976862
 31
0.0
210
0.0
220
0.0
230
1.0
 40
0.996279995
 41
2.358057956595967
 42
3.434129389256426
  0
LINE
  5
11F
330
1F
100
AcDbEntity
  8
0
  6
Continuous
 62
     7
370
    25
100
AcDbLine
 10
509.0878984018
 20
482.6402215165
 30
0.0
 11
507.9550384138
 21
483.7730815046
 31
0.0
  0
ELLIPSE
  5
120
330
1F
100
AcDbEntity
  8
0
  6
Continuous
 62
     7
370
    25
100
AcDbEllipse
 10
511.962513162
 20
483.75814595
 30
0.0
 11
2.838988174976862
 21
-2.838988174976862
 31
0.0
210
0.0
220
0.0
230
1.0
 40
0.996279995
 41
3.519617907130925
 42
3.925127350583644
  0
LINE
  5
121
330
1F
100
AcDbEntity
  8
0
  6
Continuous
 62
     7
370
    25
100
AcDbLine
 10
507.9550384138
 20
444.7627249898
 30
0.0
 11
509.0878984018
 21
445.8955849778
 31
0.0
  0
LINE
  5
122
330
1F
100
AcDbEntity
  8
0
  6
Continuous
 62
     7
370
    25
100
AcDbLine
 10
513.0804375955
 20
441.9030457841
 30
0.0
 11
511.9475776075
 21
440.7701857961
 31
0.0
  0
ELLIPSE
  5
123
330
1F
100
AcDbEntity
  8
0
  6
Continuous
 62
     7
370
    25
100
AcDbEllipse
 10
511.962513162
 20
444.7776605443
 30
0.0
 11
2.838988174976976
 21
2.838988174976862
 31
0.0
210
0.0
220
0.0
230
1.0
 40
0.996279995
 41
2.358057956595961
 42
3.925127350583679
  0
LINE
  5
124
330
1F
100
AcDbEntity
  8
0
  6
Continuous
 62
     7
370
    25
100
AcDbLine
 10
662.4579341223
 20
440.7701857961
 30
0.0
 11
661.3250741342
 21
441.9030457841
 31
0.0
  0
LINE
  5
125
330
1F
100
AcDbEntity
  8
0
  6
Continuous
 62
     7
370
    25
100
AcDbLine
 10
665.3176133279
 20
445.8955849778
 30
0.0
 11
666.4504733159
 21
444.7627249898
 31
0.0
  0
ELLIPSE
  5
126
330
1F
100
AcDbEntity
  8
0
  6
Continuous
 62
     7
370
    25
100
AcDbEllipse
 10
662.4429985677
 20
444.7776605443
 30
0.0
 11
-2.838988174976976
 21
2.838988174976862
 31
0.0
210
0.0
220
0.0
230
1.0
 40
0.996279995
 41
2.358057956595887
 42
3.925127350583644
  0
LINE
  5
127
330
1F
100
AcDbEntity
  8
0
  6
Continuous
 62
     7
370
    25
100
AcDbLine
 10
666.4504733159
 20
483.7730815046
 30
0.0
 11
666.4504733159
 21
468.6910003465
 31
0.0
  0
LINE
  5
128
330
1F
100
AcDbEntity
  8
0
  6
Continuous
 62
     7
370
    25
100
AcDbLine
 10
666.4504733159
 20
460.5590510045
 30
0.0
 11
666.4504733159
 21
444.7627249898
 31
0.0
  0
LINE
  5
129
330
1F
100
AcDbEntity
  8
0
  6
Continuous
 62
     7
370
    25
100
AcDbLine
 10
507.9550384138
 20
444.7627249898
 30
0.0
 11
507.9550384138
 21
458.9040452027
 31
0.0
  0
LINE
  5
12A
330
1F
100
AcDbEntity
  8
0
  6
Continuous
 62
     7
370
    25
100
AcDbLine
 10
507.9550384138
 20
467.0330871484
 30
0.0
 11
507.9550384138
 21
483.7730815046
 31
0.0
  0
LINE
  5
12B
330
1F
100
AcDbEntity
  8
0
  6
Continuous
 62
     7
370
    25
100
AcDbLine
 10
662.4579341223
 20
440.7701857961
 30
0.0
 11
511.9475776075
 21
440.7701857961
 31
0.0
  0
SPLINE
  5
12C
330
1F
100
AcDbEntity
  8
0
  6
Continuous
 62
     7
370
    25
100
AcDbSpline
210
0.0
220
0.0
230
1.0
 70
     8
 71
     3
 72
    17
 73
    13
 74
     0
 42
0.00000001
 43
0.00000001
 40
0.0
 40
0.0
 40
0.0
 40
0.0
 40
0.1035083953005604
 40
0.2070962911377669
 40
0.3106044528165728
 40
0.4171214264067725
 40
0.5237253843226081
 40
0.6302421686155315
 40
0.7222260372962226
 40
0.814209902656049
 40
0.9071049386324868
 40
1.0
 40
1.0
 40
1.0
 40
1.0
 10
571.1027558648692
 20
464.7015514406843
 30
0.0
 10
571.1050524699638
 20
466.3685638584814
 30
0.0
 10
571.1096474440809
 20
469.7038690576769
 30
0.0
 10
571.1500866596089
 20
475.0176957558446
 30
0.0
 10
571.2200203246509
 20
480.5921177260628
 30
0.0
 10
571.3265097814663
 20
486.4431769946847
 30
0.0
 10
571.4728210873974
 20
492.5499767297742
 30
0.0
 10
571.6524992574657
 20
498.5533330934645
 30
0.0
 10
571.8612492633348
 20
504.4056405843028
 30
0.0
 10
572.0953356251612
 20
510.0916989094548
 30
0.0
 10
572.3635229383925
 20
515.8859063466165
 30
0.0
 10
572.5741471960395
 20
519.8264040910817
 30
0.0
 10
572.6794593392555
 20
521.7966532325793
 30
0.0
  0
ARC
  5
12D
330
1F
100
AcDbEntity
  8
0
  6
Continuous
 62
     7
370
    25
100
AcDbCircle
 10
572.7622508045
 20
521.9005751458
 30
0.0
 40
0.1328690737680409
100
AcDbArc
 50
231.4567210765
 51
277.3760177005
  0
SPLINE
  5
12E
330
1F
100
AcDbEntity
  8
0
  6
Continuous
 62
     7
370
    25
100
AcDbSpline
210
0.0
220
0.0
230
1.0
 70
     8
 71
     3
 72
    17
 73
    13
 74
     0
 42
0.00000001
 43
0.00000001
 40
0.0
 40
0.0
 40
0.0
 40
0.0
 40
0.0919859463410558
 40
0.1839718686724227
 40
0.2768690574216676
 40
0.369766250204514
 40
0.4732715069784535
 40
0.5768567463423857
 40
0.680362174747749
 40
0.7868790546002977
 40
0.893482852370629
 40
1.0
 40
1.0
 40
1.0
 40
1.0
 10
572.7793086027842
 20
521.7688055655643
 30
0.0
 10
572.6750005294903
 20
519.8163447053528
 30
0.0
 10
572.4663844101281
 20
515.9114234945505
 30
0.0
 10
572.1985334511136
 20
510.1305983203424
 30
0.0
 10
571.9631726159785
 20
504.4199992363309
 30
0.0
 10
571.755125746782
 20
498.5866995320153
 30
0.0
 10
571.5778807515633
 20
492.6776726742286
 30
0.0
 10
571.4340308633293
 20
486.7316273753839
 30
0.0
 10
571.3259475035653
 20
480.9178649867906
 30
0.0
 10
571.2529894616586
 20
475.2697698200608
 30
0.0
 10
571.2100581440075
 20
469.7864337964086
 30
0.0
 10
571.2051892980613
 20
466.3501721825011
 30
0.0
 10
571.2027558648693
 20
464.6327399285514
 30
0.0
  0
ARC
  5
12F
330
1F
100
AcDbEntity
  8
0
  6
Continuous
 62
     7
370
    25
100
AcDbCircle
 10
571.1895934254
 20
464.7206796928
 30
0.0
 40
0.0889193563955421
100
AcDbArc
 50
192.4225148312
 51
278.5125886022
  0
SPLINE
  5
130
330
1F
100
AcDbEntity
  8
0
  6
Continuous
 62
     7
370
    25
100
AcDbSpline
210
0.0
220
0.0
230
1.0
 70
     8
 71
     3
 72
    10
 73
     6
 74
     0
 42
0.00000001
 43
0.00000001
 40
0.0
 40
0.0
 40
0.0
 40
0.0
 40
0.4973726682134908
 40
0.7479704860270376
 40
1.0
 40
1.0
 40
1.0
 40
1.0
 10
571.4048303048202
 20
489.994317079444
 30
0.0
 10
571.3626619327084
 20
488.1385434701039
 30
0.0
 10
571.2992473146584
 20
485.3477510175953
 30
0.0
 10
571.2385135460061
 20
481.8685625079496
 30
0.0
 10
571.215337049067
 20
480.2996072370809
 30
0.0
 10
571.2037157923431
 20
479.512895076091
 30
0.0
  0
SPLINE
  5
131
330
1F
100
AcDbEntity
  8
0
  6
Continuous
 62
     7
370
    25
100
AcDbSpline
210
0.0
220
0.0
230
1.0
 70
     8
 71
     3
 72
    11
 73
     7
 74
     0
 42
0.00000001
 43
0.00000001
 40
0.0
 40
0.0
 40
0.0
 40
0.0
 40
0.2463353530617841
 40
0.4926708121420532
 40
0.7463352498555316
 40
1.0
 40
1.0
 40
1.0
 40
1.0
 10
572.4427406132777
 20
517.5754459560023
 30
0.0
 10
572.3200752408479
 20
515.0605124083361
 30
0.0
 10
572.0747444431952
 20
510.0306442306197
 30
0.0
 10
571.7929743207995
 20
502.9202068872911
 30
0.0
 10
571.5641312778886
 20
496.1444200845611
 30
0.0
 10
571.457930555247
 20
492.0443478097567
 30
0.0
 10
571.4048301612253
 20
489.9943104098708
 30
0.0
  0
SPLINE
  5
132
330
1F
100
AcDbEntity
  8
0
  6
Continuous
 62
     7
370
    25
100
AcDbSpline
210
0.0
220
0.0
230
1.0
 70
     8
 71
     3
 72
     9
 73
     5
 74
     0
 42
0.00000001
 43
0.00000001
 40
0.0
 40
0.0
 40
0.0
 40
0.0
 40
0.4998656796011473
 40
1.0
 40
1.0
 40
1.0
 40
1.0
 10
572.4427406132772
 20
517.5754459560063
 30
0.0
 10
572.4769065234257
 20
518.2033262093132
 30
0.0
 10
572.5452567053698
 20
519.4594241550808
 30
0.0
 10
572.6347171170547
 20
521.0174373581099
 30
0.0
 10
572.6794593392555
 20
521.7966532325793
 30
0.0
  0
SPLINE
  5
133
330
1F
100
AcDbEntity
  8
0
  6
Continuous
 62
     7
370
    25
100
AcDbSpline
210
0.0
220
0.0
230
1.0
 70
    24
 71
     3
 72
     9
 73
     5
 74
     0
 42
0.00000001
 43
0.00000001
 40
0.0
 40
0.0
 40
0.0
 40
0.0
 40
0.288333172898423
 40
0.9999999999999999
 40
0.9999999999999999
 40
0.9999999999999999
 40
0.9999999999999999
 10
571.1027558648693
 20
464.7015514406843
 30
0.0
 10
571.1027558648693
 20
464.7290702364801
 30
0.0
 10
571.1027558648693
 20
464.82451119986
 30
0.0
 10
571.1027558648693
 20
464.915135995287
 30
0.0
 10
571.1027558648693
 20
464.9796306559052
 30
0.0
  0
SPLINE
  5
134
330
1F
100
AcDbEntity
  8
0
  6
Continuous
 62
     7
370
    25
100
AcDbSpline
210
0.0
220
0.0
230
1.0
 70
     8
 71
     3
 72
    14
 73
    10
 74
     0
 42
0.00000001
 43
0.00000001
 40
0.0
 40
0.0
 40
0.0
 40
0.0
 40
0.1454737679064778
 40
0.2907659708341274
 40
0.4373861140373175
 40
0.5839393376357579
 40
0.7162814351807668
 40
0.8487152246706122
 40
1.0
 40
1.0
 40
1.0
 40
1.0
 10
574.0839648050942
 20
543.3935423390651
 30
0.0
 10
574.3045337884266
 20
544.1549233985584
 30
0.0
 10
574.7453964642032
 20
545.6767352421931
 30
0.0
 10
575.8182288873828
 20
547.8199430233404
 30
0.0
 10
577.2444265283405
 20
549.750011796018
 30
0.0
 10
578.9523283124023
 20
551.3412749426665
 30
0.0
 10
580.8580262948675
 20
552.5378446811043
 30
0.0
 10
582.9480435161289
 20
553.4491095664222
 30
0.0
 10
584.4619889523885
 20
553.7788747487821
 30
0.0
 10
585.2692568706208
 20
553.9547125603
 30
0.0
  0
SPLINE
  5
135
330
1F
100
AcDbEntity
  8
0
  6
Continuous
 62
     7
370
    25
100
AcDbSpline
210
0.0
220
0.0
230
1.0
 70
     8
 71
     3
 72
    16
 73
    12
 74
     0
 42
0.00000001
 43
0.00000001
 40
0.0
 40
0.0
 40
0.0
 40
0.0
 40
0.1470656108842111
 40
0.3030135509647219
 40
0.4504929731857881
 40
0.582699464028378
 40
0.6946468098259277
 40
0.7841343693329861
 40
0.8518830167657785
 40
0.9893700792675033
 40
1.0
 40
1.0
 40
1.0
 40
1.0
 10
574.0839648050942
 20
543.3935423390651
 30
0.0
 10
574.0517520241516
 20
543.3318425919182
 30
0.0
 10
573.9853809052942
 20
543.2047166148508
 30
0.0
 10
573.9150222968525
 20
543.0521266749936
 30
0.0
 10
573.8615022257658
 20
542.9250589009218
 30
0.0
 10
573.8249075833651
 20
542.827898188672
 30
0.0
 10
573.8005380915084
 20
542.7560283106666
 30
0.0
 10
573.7848555085072
 20
542.7047877682159
 30
0.0
 10
573.7706998619105
 20
542.6540743648227
 30
0.0
 10
573.7629302337327
 20
542.621757510039
 30
0.0
 10
573.7587289399319
 20
542.6018733563002
 30
0.0
 10
573.7584274254187
 20
542.6004463290042
 30
0.0
  0
SPLINE
  5
136
330
1F
100
AcDbEntity
  8
0
  6
Continuous
 62
     7
370
    25
100
AcDbSpline
210
0.0
220
0.0
230
1.0
 70
     8
 71
     3
 72
    11
 73
     7
 74
     0
 42
0.00000001
 43
0.00000001
 40
0.0
 40
0.0
 40
0.0
 40
0.0
 40
0.008494671129342
 40
0.3298553999510003
 40
0.6511607750824179
 40
1.0
 40
1.0
 40
1.0
 40
1.0
 10
573.7584274254187
 20
542.6004463290042
 30
0.0
 10
573.7584057286289
 20
542.6043715823051
 30
0.0
 10
573.7575632235827
 20
542.7567925504367
 30
0.0
 10
573.7492450957023
 20
543.0570555159804
 30
0.0
 10
573.7204329396496
 20
543.5114019446818
 30
0.0
 10
573.6881179816146
 20
543.8125366055901
 30
0.0
 10
573.6712966494522
 20
543.9692902102589
 30
0.0
  0
SPLINE
  5
137
330
1F
100
AcDbEntity
  8
0
  6
Continuous
 62
     7
370
    25
100
AcDbSpline
210
0.0
220
0.0
230
1.0
 70
     8
 71
     3
 72
    11
 73
     7
 74
     0
 42
0.00000001
 43
0.00000001
 40
0.0
 40
0.0
 40
0.0
 40
0.0
 40
0.1068190284106826
 40
0.3653235040384318
 40
0.6328210032192826
 40
1.0
 40
1.0
 40
1.0
 40
1.0
 10
574.1042218020026
 20
551.6885213253473
 30
0.0
 10
574.0361984196206
 20
551.4209195886929
 30
0.0
 10
573.8035569064175
 20
550.5057155695596
 30
0.0
 10
573.5913187593763
 20
548.8510754202065
 30
0.0
 10
573.5266995808123
 20
546.5305764413688
 30
0.0
 10
573.618301974087
 20
544.9079989518091
 30
0.0
 10
573.6712966494522
 20
543.969290210259
 30
0.0
  0
SPLINE
  5
138
330
1F
100
AcDbEntity
  8
0
  6
Continuous
 62
     7
370
    25
100
AcDbSpline
210
0.0
220
0.0
230
1.0
 70
     8
 71
     3
 72
    10
 73
     6
 74
     0
 42
0.00000001
 43
0.00000001
 40
0.0
 40
0.0
 40
0.0
 40
0.0
 40
0.0702924015215911
 40
0.3515648404460523
 40
1.0
 40
1.0
 40
1.0
 40
1.0
 10
575.1295225885697
 20
554.2486051326906
 30
0.0
 10
575.0997388350863
 20
554.1910022539107
 30
0.0
 10
574.9507764961339
 20
553.9029035910523
 30
0.0
 10
574.5553614128524
 20
553.0690293352998
 30
0.0
 10
574.2895882931224
 20
552.2557513348903
 30
0.0
 10
574.1042218020027
 20
551.6885213253472
 30
0.0
  0
SPLINE
  5
139
330
1F
100
AcDbEntity
  8
0
  6
Continuous
 62
     7
370
    25
100
AcDbSpline
210
0.0
220
0.0
230
1.0
 70
     8
 71
     3
 72
    15
 73
    11
 74
     0
 42
0.00000001
 43
0.00000001
 40
0.0
 40
0.0
 40
0.0
 40
0.0
 40
0.1084207934192025
 40
0.2503588537372149
 40
0.3924221832831216
 40
0.5341034776226596
 40
0.7032871739522475
 40
0.8407683925326878
 40
0.8920855142033057
 40
1.0
 40
1.0
 40
1.0
 40
1.0
 10
585.2692568706208
 20
553.9547125603
 30
0.0
 10
584.9962988061291
 20
554.1987610720752
 30
0.0
 10
584.3660002629309
 20
554.7623033939628
 30
0.0
 10
583.2366117987937
 20
555.506746999636
 30
0.0
 10
581.8718408854331
 20
556.1119059900736
 30
0.0
 10
580.2630039889848
 20
556.4459926555272
 30
0.0
 10
578.5133046104388
 20
556.3365562865088
 30
0.0
 10
577.0999373594318
 20
555.7723661443122
 30
0.0
 10
575.9935441266789
 20
555.0716311027697
 30
0.0
 10
575.4785467455885
 20
554.5810690039502
 30
0.0
 10
575.1295225885697
 20
554.2486051326906
 30
0.0
  0
SPLINE
  5
13A
330
1F
100
AcDbEntity
  8
0
  6
Continuous
 62
     7
370
    25
100
AcDbSpline
210
0.0
220
0.0
230
1.0
 70
     8
 71
     3
 72
    14
 73
    10
 74
     0
 42
0.00000001
 43
0.00000001
 40
0.0
 40
0.0
 40
0.0
 40
0.0
 40
0.1511832263969658
 40
0.2835527791266487
 40
0.4158303508078603
 40
0.5624314774356758
 40
0.7091008454250716
 40
0.8544592369322896
 40
1.0
 40
1.0
 40
1.0
 40
1.0
 10
585.2856194777975
 20
553.861962417534
 30
0.0
 10
584.4843257166682
 20
553.6870623618341
 30
0.0
 10
582.9814534848741
 20
553.3590273142634
 30
0.0
 10
580.9067774755683
 20
552.4535762239624
 30
0.0
 10
579.0145399328983
 20
551.264422577638
 30
0.0
 10
577.3186609130743
 20
549.6825960610464
 30
0.0
 10
575.9025889914882
 20
547.7636002996514
 30
0.0
 10
574.8376835449524
 20
545.6329590253298
 30
0.0
 10
574.3999659927324
 20
544.1203034024586
 30
0.0
 10
574.1809700088792
 20
543.3635014312289
 30
0.0
  0
ARC
  5
13B
330
1F
100
AcDbEntity
  8
0
  6
Continuous
 62
     7
370
    25
100
AcDbCircle
 10
574.273044116
 20
543.8324586431
 30
0.0
 40
0.4779105645769636
100
AcDbArc
 50
246.6942646901
 51
258.8919577578
  0
LWPOLYLINE
  5
13C
330
1F
100
AcDbEntity
  8
0
  6
Continuous
 62
     7
370
    25
100
AcDbPolyline
 90
        9
 70
   128
 43
0.0
 10
585.2856194778
 20
553.8619624175
 10
585.2829595738
 20
553.8770543084
 10
585.2803625207
 20
553.8917860605
 10
585.2778896841
 20
553.9058095774
 10
585.2755994948
 20
553.9187934975
 10
585.2735460676
 20
553.9304310238
 10
585.2717779228
 20
553.9404471735
 10
585.2703368401
 20
553.9486052749
 10
585.2692568706
 20
553.9547125603
  0
SPLINE
  5
13D
330
1F
100
AcDbEntity
  8
0
  6
Continuous
 62
     7
370
    25
100
AcDbSpline
210
0.0
220
0.0
230
1.0
 70
     8
 71
     3
 72
    16
 73
    12
 74
     0
 42
0.00000001
 43
0.00000001
 40
0.0
 40
0.0
 40
0.0
 40
0.0
 40
0.1470656108842116
 40
0.3030135509647223
 40
0.4504929731857885
 40
0.5826994640283784
 40
0.694646809825928
 40
0.7841343693329861
 40
0.8518830167657786
 40
0.9893700792675033
 40
1.0
 40
1.0
 40
1.0
 40
1.0
 10
600.3215469246446
 20
543.3935423390643
 30
0.0
 10
600.3537597055871
 20
543.3318425919177
 30
0.0
 10
600.4201308244443
 20
543.204716614851
 30
0.0
 10
600.4904894328862
 20
543.0521266749934
 30
0.0
 10
600.5440095039727
 20
542.9250589009217
 30
0.0
 10
600.5806041463737
 20
542.827898188672
 30
0.0
 10
600.6049736382301
 20
542.7560283106666
 30
0.0
 10
600.6206562212315
 20
542.7047877682159
 30
0.0
 10
600.6348118678281
 20
542.6540743648227
 30
0.0
 10
600.6425814960057
 20
542.6217575100388
 30
0.0
 10
600.6467827898068
 20
542.6018733563002
 30
0.0
 10
600.6470843043201
 20
542.6004463290042
 30
0.0
  0
SPLINE
  5
13E
330
1F
100
AcDbEntity
  8
0
  6
Continuous
 62
     7
370
    25
100
AcDbSpline
210
0.0
220
0.0
230
1.0
 70
     8
 71
     3
 72
    14
 73
    10
 74
     0
 42
0.00000001
 43
0.00000001
 40
0.0
 40
0.0
 40
0.0
 40
0.0
 40
0.1444419511430408
 40
0.2887245569891889
 40
0.4341385133666028
 40
0.5795195267456006
 40
0.7105405297356927
 40
0.8416574220348085
 40
1.0
 40
1.0
 40
1.0
 40
1.0
 10
589.1362548591179
 20
553.9547125603
 30
0.0
 10
589.9066194178572
 20
553.7868993788696
 30
0.0
 10
591.4464986854939
 20
553.4514581439514
 30
0.0
 10
593.6346404120337
 20
552.5110219994219
 30
0.0
 10
595.6257118355777
 20
551.2033177522756
 30
0.0
 10
597.2928364684825
 20
549.5989823641747
 30
0.0
 10
598.5868360763943
 20
547.7850503627595
 30
0.0
 10
599.6395597099624
 20
545.7381528457898
 30
0.0
 10
600.0803965901631
 20
544.2225954294355
 30
0.0
 10
600.3215469246446
 20
543.3935423390643
 30
0.0
  0
SPLINE
  5
13F
330
1F
100
AcDbEntity
  8
0
  6
Continuous
 62
     7
370
    25
100
AcDbSpline
210
0.0
220
0.0
230
1.0
 70
     8
 71
     3
 72
    15
 73
    11
 74
     0
 42
0.00000001
 43
0.00000001
 40
0.0
 40
0.0
 40
0.0
 40
0.0
 40
0.108420793419202
 40
0.2503588537372148
 40
0.392422183283122
 40
0.5341034776226603
 40
0.7032871739522486
 40
0.8407683925326892
 40
0.8920855142033078
 40
1.0
 40
1.0
 40
1.0
 40
1.0
 10
589.1362548591179
 20
553.9547125603
 30
0.0
 10
589.4092129236097
 20
554.1987610720753
 30
0.0
 10
590.0395114668077
 20
554.7623033939627
 30
0.0
 10
591.168899930945
 20
555.5067469996361
 30
0.0
 10
592.5336708443056
 20
556.1119059900735
 30
0.0
 10
594.1425077407538
 20
556.4459926555273
 30
0.0
 10
595.8922071192999
 20
556.3365562865089
 30
0.0
 10
597.3055743703069
 20
555.7723661443122
 30
0.0
 10
598.4119676030597
 20
555.0716311027697
 30
0.0
 10
598.9269649841503
 20
554.58106900395
 30
0.0
 10
599.2759891411691
 20
554.2486051326903
 30
0.0
  0
SPLINE
  5
140
330
1F
100
AcDbEntity
  8
0
  6
Continuous
 62
     7
370
    25
100
AcDbSpline
210
0.0
220
0.0
230
1.0
 70
     8
 71
     3
 72
    10
 73
     6
 74
     0
 42
0.00000001
 43
0.00000001
 40
0.0
 40
0.0
 40
0.0
 40
0.0
 40
0.0702930183303189
 40
0.3515626332548983
 40
1.0
 40
1.0
 40
1.0
 40
1.0
 10
600.3012899277364
 20
551.6885213253454
 30
0.0
 10
600.2831121232699
 20
551.7504669029804
 30
0.0
 10
600.1921978766368
 20
552.0602807494926
 30
0.0
 10
599.9040667466207
 20
552.9341783388888
 30
0.0
 10
599.5340574154684
 20
553.7085256084009
 30
0.0
 10
599.2759891411691
 20
554.2486051326903
 30
0.0
  0
SPLINE
  5
141
330
1F
100
AcDbEntity
  8
0
  6
Continuous
 62
     7
370
    25
100
AcDbSpline
210
0.0
220
0.0
230
1.0
 70
     8
 71
     3
 72
    11
 73
     7
 74
     0
 42
0.00000001
 43
0.00000001
 40
0.0
 40
0.0
 40
0.0
 40
0.0
 40
0.3634943239892297
 40
0.5479802707146953
 40
0.7321891515819622
 40
1.0
 40
1.0
 40
1.0
 40
1.0
 10
600.7342150802866
 20
543.9692902102588
 30
0.0
 10
600.7872379999741
 20
544.8988400737529
 30
0.0
 10
600.867171886054
 20
546.3001686564115
 30
0.0
 10
600.8334288797813
 20
548.196127970471
 30
0.0
 10
600.7146901031879
 20
549.8610256541006
 30
0.0
 10
600.4550942466319
 20
551.0086069380491
 30
0.0
 10
600.3012899277364
 20
551.6885213253454
 30
0.0
  0
SPLINE
  5
142
330
1F
100
AcDbEntity
  8
0
  6
Continuous
 62
     7
370
    25
100
AcDbSpline
210
0.0
220
0.0
230
1.0
 70
     8
 71
     3
 72
    11
 73
     7
 74
     0
 42
0.00000001
 43
0.00000001
 40
0.0
 40
0.0
 40
0.0
 40
0.0
 40
0.0084946711293412
 40
0.3298553999509686
 40
0.6511607750823551
 40
1.0
 40
1.0
 40
1.0
 40
1.0
 10
600.6470843043201
 20
542.6004463290042
 30
0.0
 10
600.6471060011098
 20
542.6043715823051
 30
0.0
 10
600.6479485061557
 20
542.7567925504362
 30
0.0
 10
600.6562666340363
 20
543.0570555159804
 30
0.0
 10
600.685078790089
 20
543.5114019446819
 30
0.0
 10
600.7173937481243
 20
543.81253660559
 30
0.0
 10
600.7342150802866
 20
543.9692902102588
 30
0.0
  0
SPLINE
  5
143
330
1F
100
AcDbEntity
  8
0
  6
Continuous
 62
     7
370
    25
100
AcDbSpline
210
0.0
220
0.0
230
1.0
 70
     8
 71
     3
 72
    14
 73
    10
 74
     0
 42
0.00000001
 43
0.00000001
 40
0.0
 40
0.0
 40
0.0
 40
0.0
 40
0.1455407630677085
 40
0.2908991545749218
 40
0.4375685225643124
 40
0.5841696491921229
 40
0.7164472208733276
 40
0.8488167736030041
 40
1.0
 40
1.0
 40
1.0
 40
1.0
 10
600.2245417208597
 20
543.3635014312281
 30
0.0
 10
600.0055457370065
 20
544.1203034024578
 30
0.0
 10
599.5678281847865
 20
545.632959025329
 30
0.0
 10
598.5029227382507
 20
547.763600299651
 30
0.0
 10
597.0868508166648
 20
549.6825960610458
 30
0.0
 10
595.3909717968409
 20
551.2644225776377
 30
0.0
 10
593.4987342541709
 20
552.4535762239622
 30
0.0
 10
591.424058244865
 20
553.3590273142632
 30
0.0
 10
589.9211860130706
 20
553.6870623618343
 30
0.0
 10
589.1198922519412
 20
553.861962417534
 30
0.0
  0
LWPOLYLINE
  5
144
330
1F
100
AcDbEntity
  8
0
  6
Continuous
 62
     7
370
    25
100
AcDbPolyline
 90
        9
 70
   128
 43
0.0
 10
589.1198922519
 20
553.8619624175
 10
589.1225521559
 20
553.8770543084
 10
589.1251492091
 20
553.8917860605
 10
589.1276220456
 20
553.9058095774
 10
589.1299122349
 20
553.9187934975
 10
589.1319656622
 20
553.9304310238
 10
589.1337338069
 20
553.9404471735
 10
589.1351748897
 20
553.9486052749
 10
589.1362548591
 20
553.9547125603
  0
ARC
  5
145
330
1F
100
AcDbEntity
  8
0
  6
Continuous
 62
     7
370
    25
100
AcDbCircle
 10
600.1324676137
 20
543.8324586431
 30
0.0
 40
0.4779105645999631
100
AcDbArc
 50
281.1080422426
 51
293.3057353096
  0
SPLINE
  5
146
330
1F
100
AcDbEntity
  8
0
  6
Continuous
 62
     7
370
    25
100
AcDbSpline
210
0.0
220
0.0
230
1.0
 70
     8
 71
     3
 72
     9
 73
     5
 74
     0
 42
0.00000001
 43
0.00000001
 40
0.0
 40
0.0
 40
0.0
 40
0.0
 40
0.4923617400595062
 40
0.9999999999999999
 40
0.9999999999999999
 40
0.9999999999999999
 40
0.9999999999999999
 10
585.2692568706208
 20
553.9547125603
 30
0.0
 10
585.9037990779796
 20
554.0383728545921
 30
0.0
 10
587.1925714494519
 20
554.2082891731957
 30
0.0
 10
588.4817954372688
 20
554.0400945739782
 30
0.0
 10
589.1362548591179
 20
553.9547125603
 30
0.0
  0
ARC
  5
147
330
1F
100
AcDbEntity
  8
0
  6
Continuous
 62
     7
370
    25
100
AcDbCircle
 10
587.2027558649
 20
547.7324493518
 30
0.0
 40
13.71944779882245
100
AcDbArc
 50
28.3565883655
 51
151.6434116345
  0
SPLINE
  5
148
330
1F
100
AcDbEntity
  8
0
  6
Continuous
 62
     7
370
    25
100
AcDbSpline
210
0.0
220
0.0
230
1.0
 70
     8
 71
     3
 72
     9
 73
     5
 74
     0
 42
0.00000001
 43
0.00000001
 40
0.0
 40
0.0
 40
0.0
 40
0.0
 40
0.4923414819693872
 40
1.0
 40
1.0
 40
1.0
 40
1.0
 10
589.1198922519412
 20
553.861962417534
 30
0.0
 10
588.4907464595233
 20
553.9450230600161
 30
0.0
 10
587.2128817752368
 20
554.1137284109237
 30
0.0
 10
585.9345669085806
 20
553.9467370197175
 30
0.0
 10
585.2856194777975
 20
553.861962417534
 30
0.0
  0
LINE
  5
149
330
1F
100
AcDbEntity
  8
0
  6
Continuous
 62
     7
370
    25
100
AcDbLine
 10
574.1809700089
 20
543.3635014312
 30
0.0
 11
573.8420544257
 21
541.1215466552
 31
0.0
  0
LINE
  5
14A
330
1F
100
AcDbEntity
  8
0
  6
Continuous
 62
     7
370
    25
100
AcDbLine
 10
600.5634573041
 20
541.1215466552
 30
0.0
 11
600.2245417209
 21
543.3635014312
 31
0.0
  0
LINE
  5
14B
330
1F
100
AcDbEntity
  8
0
  6
Continuous
 62
     7
370
    25
100
AcDbLine
 10
600.9760362577
 20
533.6162250313
 30
0.0
 11
600.5634573041
 21
541.1215466552
 31
0.0
  0
LINE
  5
14C
330
1F
100
AcDbEntity
  8
0
  6
Continuous
 62
     7
370
    25
100
AcDbLine
 10
573.429475472
 20
533.6162250313
 30
0.0
 11
600.9760362577
 21
533.6162250313
 31
0.0
  0
LINE
  5
14D
330
1F
100
AcDbEntity
  8
0
  6
Continuous
 62
     7
370
    25
100
AcDbLine
 10
573.8420544257
 20
541.1215466552
 30
0.0
 11
573.429475472
 21
533.6162250313
 31
0.0
  0
LINE
  5
14E
330
1F
100
AcDbEntity
  8
0
  6
Continuous
 62
     7
370
    25
100
AcDbLine
 10
600.3215469246
 20
543.3935423391
 30
0.0
 11
600.6633048437
 21
541.1343971772
 31
0.0
  0
ARC
  5
14F
330
1F
100
AcDbEntity
  8
0
  6
Continuous
 62
     7
370
    25
100
AcDbCircle
 10
600.5687656985
 20
541.474629854
 30
0.0
 40
0.3531231007973978
100
AcDbArc
 50
269.1386571581
 51
285.5288117199
  0
ARC
  5
150
330
1F
100
AcDbEntity
  8
0
  6
Continuous
 62
     7
370
    25
100
AcDbCircle
 10
573.8367460312
 20
541.474629854
 30
0.0
 40
0.353123100786511
100
AcDbArc
 50
254.4711882798
 51
270.8613428421
  0
LINE
  5
151
330
1F
100
AcDbEntity
  8
0
  6
Continuous
 62
     7
370
    25
100
AcDbLine
 10
573.7422068861
 20
541.1343971772
 30
0.0
 11
574.0839648051
 21
543.3935423391
 31
0.0
  0
LINE
  5
152
330
1F
100
AcDbEntity
  8
0
  6
Continuous
 62
     7
370
    25
100
AcDbLine
 10
571.2027558649
 20
464.6327399286
 30
0.0
 11
571.2027558649
 21
441.7782868992
 31
0.0
  0
SPLINE
  5
153
330
1F
100
AcDbEntity
  8
0
  6
Continuous
 62
     7
370
    25
100
AcDbSpline
210
0.0
220
0.0
230
1.0
 70
     8
 71
     3
 72
     9
 73
     5
 74
     0
 42
0.00000001
 43
0.00000001
 40
0.0
 40
0.0
 40
0.0
 40
0.0
 40
0.4994027892256875
 40
1.0
 40
1.0
 40
1.0
 40
1.0
 10
573.4294754720158
 20
533.6152899774685
 30
0.0
 10
573.3207438074738
 20
531.6303411544142
 30
0.0
 10
573.1030204248902
 20
527.6556961066128
 30
0.0
 10
572.8872984311522
 20
523.732664330477
 30
0.0
 10
572.7793086027842
 20
521.7688055655643
 30
0.0
  0
LINE
  5
154
330
1F
100
AcDbEntity
  8
0
  6
Continuous
 62
     7
370
    25
100
AcDbLine
 10
600.9760362577
 20
533.6152899775
 30
0.0
 11
573.429475472
 21
533.6152899775
 31
0.0
  0
SPLINE
  5
155
330
1F
100
AcDbEntity
  8
0
  6
Continuous
 62
     7
370
    25
100
AcDbSpline
210
0.0
220
0.0
230
1.0
 70
     8
 71
     3
 72
     9
 73
     5
 74
     0
 42
0.00000001
 43
0.00000001
 40
0.0
 40
0.0
 40
0.0
 40
0.0
 40
0.4994027748662467
 40
1.0
 40
1.0
 40
1.0
 40
1.0
 10
601.6262031269531
 20
521.7688055655765
 30
0.0
 10
601.5184714315933
 20
523.7279640268242
 30
0.0
 10
601.3027503727974
 20
527.6509667810087
 30
0.0
 10
601.08502764907
 20
531.6255997448478
 30
0.0
 10
600.9760362577233
 20
533.6152899774708
 30
0.0
  0
SPLINE
  5
156
330
1F
100
AcDbEntity
  8
0
  6
Continuous
 62
     7
370
    25
100
AcDbSpline
210
0.0
220
0.0
230
1.0
 70
     8
 71
     3
 72
    17
 73
    13
 74
     0
 42
0.00000001
 43
0.00000001
 40
0.0
 40
0.0
 40
0.0
 40
0.0
 40
0.0923144273416537
 40
0.1846288117342235
 40
0.2778600237385899
 40
0.3710911920456266
 40
0.4743822006561391
 40
0.5777525698210758
 40
0.681043432432867
 40
0.7873333698189904
 40
0.8937099788245182
 40
1.0
 40
1.0
 40
1.0
 40
1.0
 10
603.2027558648693
 20
464.6327399285485
 30
0.0
 10
603.2009418409574
 20
466.1179695387786
 30
0.0
 10
603.1973137939775
 20
469.0884280682389
 30
0.0
 10
603.1654212571176
 20
473.8088827035945
 30
0.0
 10
603.1106273136662
 20
478.7155388153471
 30
0.0
 10
603.0257552646765
 20
483.9996273131918
 30
0.0
 10
602.9051117029214
 20
489.6509706207426
 30
0.0
 10
602.7421719161953
 20
495.6721559052597
 30
0.0
 10
602.5370289306362
 20
501.9139648426654
 30
0.0
 10
602.2842633757821
 20
508.3658836267206
 30
0.0
 10
601.9858710979736
 20
515.0019732705937
 30
0.0
 10
601.746059904021
 20
519.5138071359598
 30
0.0
 10
601.6262031269531
 20
521.7688055655765
 30
0.0
  0
LINE
  5
157
330
1F
100
AcDbEntity
  8
0
  6
Continuous
 62
     7
370
    25
100
AcDbLine
 10
603.2027558649
 20
441.7782868992
 30
0.0
 11
603.2027558649
 21
464.6327399285
 31
0.0
  0
LINE
  5
158
330
1F
100
AcDbEntity
  8
0
  6
Continuous
 62
     7
370
    25
100
AcDbLine
 10
603.2027558649
 20
441.7782868992
 30
0.0
 11
571.2027558649
 21
441.7782868992
 31
0.0
  0
SPLINE
  5
159
330
1F
100
AcDbEntity
  8
0
  6
Continuous
 62
     7
370
    25
100
AcDbSpline
210
0.0
220
0.0
230
1.0
 70
     8
 71
     3
 72
    11
 73
     7
 74
     0
 42
0.00000001
 43
0.00000001
 40
0.0
 40
0.0
 40
0.0
 40
0.0
 40
0.0108645174219043
 40
0.1365492629895589
 40
0.4774169141203181
 40
0.9999999999999999
 40
0.9999999999999999
 40
0.9999999999999999
 40
0.9999999999999999
 10
573.7584274254187
 20
542.6004463290042
 30
0.0
 10
573.7584036658039
 20
542.5955817321245
 30
0.0
 10
573.7581050461991
 20
542.5344416839422
 30
0.0
 10
573.7568509529038
 20
542.3179068387282
 30
0.0
 10
573.7531446313297
 20
541.8545020466305
 30
0.0
 10
573.7463307974567
 20
541.4059018249184
 30
0.0
 10
573.7422068860633
 20
541.1343971771832
 30
0.0
  0
SPLINE
  5
15A
330
1F
100
AcDbEntity
  8
0
  6
Continuous
 62
     7
370
    25
100
AcDbSpline
210
0.0
220
0.0
230
1.0
 70
     8
 71
     3
 72
    11
 73
     7
 74
     0
 42
0.00000001
 43
0.00000001
 40
0.0
 40
0.0
 40
0.0
 40
0.0
 40
0.0108645174219043
 40
0.1365492629895594
 40
0.4774169141203197
 40
1.0
 40
1.0
 40
1.0
 40
1.0
 10
600.64708430432
 20
542.6004463290042
 30
0.0
 10
600.6471080639349
 20
542.5955817321246
 30
0.0
 10
600.6474066835397
 20
542.534441683942
 30
0.0
 10
600.6486607768346
 20
542.3179068387284
 30
0.0
 10
600.6523670984091
 20
541.8545020466305
 30
0.0
 10
600.659180932282
 20
541.4059018249184
 30
0.0
 10
600.6633048436754
 20
541.1343971771832
 30
0.0
  0
LINE
  5
15B
330
1F
100
AcDbEntity
  8
0
  6
Continuous
 62
     7
370
    25
100
AcDbLine
 10
600.6633048437
 20
541.1343971772
 30
0.0
 11
601.0758880646
 21
533.633448194
 31
0.0
  0
ARC
  5
15C
330
1F
100
AcDbEntity
  8
0
  6
Continuous
 62
     7
370
    25
100
AcDbCircle
 10
600.9885059843
 20
533.8419899319
 30
0.0
 40
0.2261090100433356
100
AcDbArc
 50
266.8385807988
 51
292.7344066851
  0
ARC
  5
15D
330
1F
100
AcDbEntity
  8
0
  6
Continuous
 62
     7
370
    25
100
AcDbCircle
 10
573.4170057454
 20
533.8419899319
 30
0.0
 40
0.2261090100786674
100
AcDbArc
 50
247.2655933192
 51
273.1614192012
  0
LINE
  5
15E
330
1F
100
AcDbEntity
  8
0
  6
Continuous
 62
     7
370
    25
100
AcDbLine
 10
573.3296236651
 20
533.633448194
 30
0.0
 11
573.7422068861
 21
541.1343971772
 31
0.0
  0
SPLINE
  5
15F
330
1F
100
AcDbEntity
  8
0
  6
Continuous
 62
     7
370
    25
100
AcDbSpline
210
0.0
220
0.0
230
1.0
 70
     8
 71
     3
 72
     9
 73
     5
 74
     0
 42
0.00000001
 43
0.00000001
 40
0.0
 40
0.0
 40
0.0
 40
0.0
 40
0.4986468004937977
 40
0.9999999999999999
 40
0.9999999999999999
 40
0.9999999999999999
 40
0.9999999999999999
 10
573.1491452917834
 20
531.501751246769
 30
0.0
 10
573.0291709583626
 20
529.128624813081
 30
0.0
 10
572.7885711323895
 20
524.369491832908
 30
0.0
 10
572.5582252555992
 20
519.8442103207786
 30
0.0
 10
572.4427406132772
 20
517.5754459560063
 30
0.0
  0
SPLINE
  5
160
330
1F
100
AcDbEntity
  8
0
  6
Continuous
 62
     7
370
    25
100
AcDbSpline
210
0.0
220
0.0
230
1.0
 70
     8
 71
     3
 72
    11
 73
     7
 74
     0
 42
0.00000001
 43
0.00000001
 40
0.0
 40
0.0
 40
0.0
 40
0.0
 40
0.2783373245312533
 40
0.5649896697899419
 40
0.7792358741234732
 40
0.9999999999999999
 40
0.9999999999999999
 40
0.9999999999999999
 40
0.9999999999999999
 10
573.6858093703565
 20
542.6109056291597
 30
0.0
 10
573.6394658104387
 20
541.6052653462862
 30
0.0
 10
573.5453942278403
 20
539.5639423857201
 30
0.0
 10
573.4032243952491
 20
536.6143637889965
 30
0.0
 10
573.2686360962148
 20
533.8784306010461
 30
0.0
 10
573.189371443848
 20
532.3018518534118
 30
0.0
 10
573.1491452917834
 20
531.501751246769
 30
0.0
  0
SPLINE
  5
161
330
1F
100
AcDbEntity
  8
0
  6
Continuous
 62
     7
370
    25
100
AcDbSpline
210
0.0
220
0.0
230
1.0
 70
     8
 71
     3
 72
    11
 73
     7
 74
     0
 42
0.00000001
 43
0.00000001
 40
0.0
 40
0.0
 40
0.0
 40
0.0
 40
0.3074903771271902
 40
0.6588258777232653
 40
0.991340234266361
 40
1.0
 40
1.0
 40
1.0
 40
1.0
 10
573.6858093703565
 20
542.6109056291597
 30
0.0
 10
573.6927868967418
 20
542.6043058912551
 30
0.0
 10
573.7077368766019
 20
542.5901653573028
 30
0.0
 10
573.73173731972
 20
542.587932671617
 30
0.0
 10
573.7493118996364
 20
542.5947983137498
 30
0.0
 10
573.7582017802754
 20
542.6003065183951
 30
0.0
 10
573.7584274254187
 20
542.6004463290042
 30
0.0
  0
SPLINE
  5
162
330
1F
100
AcDbEntity
  8
0
  6
Continuous
 62
     7
370
    25
100
AcDbSpline
210
0.0
220
0.0
230
1.0
 70
     8
 71
     3
 72
     9
 73
     5
 74
     0
 42
0.00000001
 43
0.00000001
 40
0.0
 40
0.0
 40
0.0
 40
0.0
 40
0.499402849043284
 40
1.0
 40
1.0
 40
1.0
 40
1.0
 10
572.6794593392555
 20
521.7966532325793
 30
0.0
 10
572.7871905058759
 20
523.7542085360022
 30
0.0
 10
573.0029104738874
 20
527.6740005579603
 30
0.0
 10
573.2206325927197
 20
531.6453846380975
 30
0.0
 10
573.3296236651072
 20
533.6334481939691
 30
0.0
  0
SPLINE
  5
163
330
1F
100
AcDbEntity
  8
0
  6
Continuous
 62
     7
370
    25
100
AcDbSpline
210
0.0
220
0.0
230
1.0
 70
     8
 71
     3
 72
    11
 73
     7
 74
     0
 42
0.00000001
 43
0.00000001
 40
0.0
 40
0.0
 40
0.0
 40
0.0
 40
0.3074903771272519
 40
0.6588258777232957
 40
0.9913402342663618
 40
0.9999999999999999
 40
0.9999999999999999
 40
0.9999999999999999
 40
0.9999999999999999
 10
600.7197023593823
 20
542.6109056291597
 30
0.0
 10
600.7127248329967
 20
542.6043058912551
 30
0.0
 10
600.6977748531368
 20
542.5901653573028
 30
0.0
 10
600.6737744100186
 20
542.5879326716172
 30
0.0
 10
600.6561998301025
 20
542.594798313749
 30
0.0
 10
600.6473099494633
 20
542.6003065183952
 30
0.0
 10
600.6470843043201
 20
542.6004463290042
 30
0.0
  0
SPLINE
  5
164
330
1F
100
AcDbEntity
  8
0
  6
Continuous
 62
     7
370
    25
100
AcDbSpline
210
0.0
220
0.0
230
1.0
 70
     8
 71
     3
 72
    12
 73
     8
 74
     0
 42
0.00000001
 43
0.00000001
 40
0.0
 40
0.0
 40
0.0
 40
0.0
 40
0.1949464989315698
 40
0.3954927022678635
 40
0.6567997031253529
 40
0.9255733467046359
 40
1.0
 40
1.0
 40
1.0
 40
1.0
 10
601.2563664379559
 20
531.5017512467695
 30
0.0
 10
601.2209264160424
 20
532.2063824944721
 30
0.0
 10
601.1490283819056
 20
533.6358850389321
 30
0.0
 10
601.0263259410796
 20
536.1219320612806
 30
0.0
 10
600.8928426072947
 20
538.8833730347908
 30
0.0
 10
600.7877096020515
 20
541.1219660911657
 30
0.0
 10
600.7318221506688
 20
542.3455568849589
 30
0.0
 10
600.7197023593823
 20
542.6109056291597
 30
0.0
  0
SPLINE
  5
165
330
1F
100
AcDbEntity
  8
0
  6
Continuous
 62
     7
370
    25
100
AcDbSpline
210
0.0
220
0.0
230
1.0
 70
     8
 71
     3
 72
     9
 73
     5
 74
     0
 42
0.00000001
 43
0.00000001
 40
0.0
 40
0.0
 40
0.0
 40
0.0
 40
0.4986466148768859
 40
1.0
 40
1.0
 40
1.0
 40
1.0
 10
601.9627711164619
 20
517.5754459559917
 30
0.0
 10
601.8479159953444
 20
519.831831587168
 30
0.0
 10
601.6175822926963
 20
524.3568510375327
 30
0.0
 10
601.376988799972
 20
529.1158240281927
 30
0.0
 10
601.2563664379559
 20
531.5017512467695
 30
0.0
  0
SPLINE
  5
166
330
1F
100
AcDbEntity
  8
0
  6
Continuous
 62
     7
370
    25
100
AcDbSpline
210
0.0
220
0.0
230
1.0
 70
     8
 71
     3
 72
     9
 73
     5
 74
     0
 42
0.00000001
 43
0.00000001
 40
0.0
 40
0.0
 40
0.0
 40
0.0
 40
0.4998318622284391
 40
0.9999999999999999
 40
0.9999999999999999
 40
0.9999999999999999
 40
0.9999999999999999
 10
601.7260523904833
 20
521.7966532325762
 30
0.0
 10
601.7707689873184
 20
521.0178884058611
 30
0.0
 10
601.8602322653009
 20
519.4598348171141
 30
0.0
 10
601.9285838377541
 20
518.2037163770027
 30
0.0
 10
601.9627711164619
 20
517.5754459559917
 30
0.0
  0
SPLINE
  5
167
330
1F
100
AcDbEntity
  8
0
  6
Continuous
 62
     7
370
    25
100
AcDbSpline
210
0.0
220
0.0
230
1.0
 70
     8
 71
     3
 72
     9
 73
     5
 74
     0
 42
0.00000001
 43
0.00000001
 40
0.0
 40
0.0
 40
0.0
 40
0.0
 40
0.499402876686426
 40
1.0
 40
1.0
 40
1.0
 40
1.0
 10
601.0758880646313
 20
533.6334481939709
 30
0.0
 10
601.1846194462156
 20
531.6501215298825
 30
0.0
 10
601.4023422240772
 20
527.6787253752428
 30
0.0
 10
601.6180631270277
 20
523.758904357808
 30
0.0
 10
601.7260523904833
 20
521.7966532325762
 30
0.0
  0
LINE
  5
168
330
1F
100
AcDbEntity
  8
0
  6
Continuous
 62
     7
370
    25
100
AcDbLine
 10
573.429475472
 20
533.6162250313
 30
0.0
 11
573.429475472
 21
533.6152899775
 31
0.0
  0
ARC
  5
169
330
1F
100
AcDbEntity
  8
0
  6
Continuous
 62
     7
370
    25
100
AcDbCircle
 10
573.4162243135
 20
533.8260430524
 30
0.0
 40
0.2111692491952051
100
AcDbArc
 50
245.7888417606
 51
273.5977521461
  0
ARC
  5
16A
330
1F
100
AcDbEntity
  8
0
  6
Continuous
 62
     7
370
    25
100
AcDbCircle
 10
600.9892874162
 20
533.8260430524
 30
0.0
 40
0.2111692491809462
100
AcDbArc
 50
266.4022478528
 51
294.21115824
  0
LINE
  5
16B
330
1F
100
AcDbEntity
  8
0
  6
Continuous
 62
     7
370
    25
100
AcDbLine
 10
600.9760362577
 20
533.6162250313
 30
0.0
 11
600.9760362577
 21
533.6152899775
 31
0.0
  0
ARC
  5
16C
330
1F
100
AcDbEntity
  8
0
  6
Continuous
 62
     7
370
    25
100
AcDbCircle
 10
601.6432609253
 20
521.9005751458
 30
0.0
 40
0.1328690737834905
100
AcDbArc
 50
262.6239822945
 51
308.5432789116
  0
SPLINE
  5
16D
330
1F
100
AcDbEntity
  8
0
  6
Continuous
 62
     7
370
    25
100
AcDbSpline
210
0.0
220
0.0
230
1.0
 70
     8
 71
     3
 72
    17
 73
    13
 74
     0
 42
0.00000001
 43
0.00000001
 40
0.0
 40
0.0
 40
0.0
 40
0.0
 40
0.1032994819638386
 40
0.2066784171199207
 40
0.3099778172307262
 40
0.4162771821254479
 40
0.522663211967213
 40
0.6289627328936929
 40
0.7212635561847113
 40
0.8135644205121565
 40
0.9067821884293583
 40
1.0
 40
1.0
 40
1.0
 40
1.0
 10
601.7260523904833
 20
521.7966532325762
 30
0.0
 10
601.8426784358493
 20
519.6064992921386
 30
0.0
 10
602.0760202299505
 20
515.2245068459705
 30
0.0
 10
602.3680831233482
 20
508.7751330123418
 30
0.0
 10
602.6216537817083
 20
502.3793719874388
 30
0.0
 10
602.8318704434836
 20
496.070234281778
 30
0.0
 10
603.001320734845
 20
489.8702700501311
 30
0.0
 10
603.1245349758083
 20
484.1241803706038
 30
0.0
 10
603.2098839798269
 20
478.8222140001706
 30
0.0
 10
603.2648678105187
 20
473.9333119188544
 30
0.0
 10
603.2972061811179
 20
469.1983088046437
 30
0.0
 10
603.3009059699967
 20
466.200470795986
 30
0.0
 10
603.3027558648694
 20
464.7015514406889
 30
0.0
  0
ARC
  5
16E
330
1F
100
AcDbEntity
  8
0
  6
Continuous
 62
     7
370
    25
100
AcDbCircle
 10
603.2159183044
 20
464.7206796928
 30
0.0
 40
0.0889193563965276
100
AcDbArc
 50
261.4874113993
 51
347.577485173
  0
SPLINE
  5
16F
330
1F
100
AcDbEntity
  8
0
  6
Continuous
 62
     7
370
    25
100
AcDbSpline
210
0.0
220
0.0
230
1.0
 70
     8
 71
     3
 72
    11
 73
     7
 74
     0
 42
0.00000001
 43
0.00000001
 40
0.0
 40
0.0
 40
0.0
 40
0.0
 40
0.2463370513625
 40
0.4926738236348193
 40
0.7463369735907114
 40
1.0
 40
1.0
 40
1.0
 40
1.0
 10
603.0006815685136
 20
489.9943104098708
 30
0.0
 10
602.9492491566349
 20
491.9835269320714
 30
0.0
 10
602.8463843911485
 20
495.9619577227685
 30
0.0
 10
602.622426806909
 20
502.6485964202799
 30
0.0
 10
602.341056484396
 20
509.8092024128856
 30
0.0
 10
602.0888662186347
 20
514.9866985285736
 30
0.0
 10
601.9627711164615
 20
517.5754459559927
 30
0.0
  0
SPLINE
  5
170
330
1F
100
AcDbEntity
  8
0
  6
Continuous
 62
     7
370
    25
100
AcDbSpline
210
0.0
220
0.0
230
1.0
 70
     8
 71
     3
 72
    10
 73
     6
 74
     0
 42
0.00000001
 43
0.00000001
 40
0.0
 40
0.0
 40
0.0
 40
0.0
 40
0.2509027106371625
 40
0.501427898776309
 40
0.9999999999999999
 40
0.9999999999999999
 40
0.9999999999999999
 40
0.9999999999999999
 10
603.2098664430711
 20
478.919946792151
 30
0.0
 10
603.1984481282096
 20
479.7248674014392
 30
0.0
 10
603.1756286791333
 20
481.3334974906564
 30
0.0
 10
603.111486948722
 20
485.1053093680574
 30
0.0
 10
603.0449594970397
 20
488.0406617618157
 30
0.0
 10
603.0006812279213
 20
489.9943263012146
 30
0.0
  0
SPLINE
  5
171
330
1F
100
AcDbEntity
  8
0
  6
Continuous
 62
     7
370
    25
100
AcDbSpline
210
0.0
220
0.0
230
1.0
 70
    24
 71
     3
 72
     9
 73
     5
 74
     0
 42
0.00000001
 43
0.00000001
 40
0.0
 40
0.0
 40
0.0
 40
0.0
 40
0.7116668271016822
 40
0.9999999999999999
 40
0.9999999999999999
 40
0.9999999999999999
 40
0.9999999999999999
 10
603.3027558648694
 20
464.9796306559118
 30
0.0
 10
603.3027558648694
 20
464.9151359952959
 30
0.0
 10
603.3027558648694
 20
464.8245111998722
 30
0.0
 10
603.3027558648694
 20
464.7290702364864
 30
0.0
 10
603.3027558648694
 20
464.7015514406889
 30
0.0
  0
LINE
  5
172
330
1F
100
AcDbEntity
  8
0
  6
Continuous
 62
     7
370
    25
100
AcDbLine
 10
573.6712966495
 20
543.9692902103
 30
0.0
 11
573.6858093704
 21
542.6109056292
 31
0.0
  0
LINE
  5
173
330
1F
100
AcDbEntity
  8
0
  6
Continuous
 62
     7
370
    25
100
AcDbLine
 10
600.7197023594
 20
542.6109056292
 30
0.0
 11
600.7342150803
 21
543.9692902103
 31
0.0
  0
ARC
  5
174
330
1F
100
AcDbEntity
  8
0
  6
Continuous
 62
     7
370
    25
100
AcDbCircle
 10
574.1069345277
 20
551.6900900779
 30
0.0
 40
0.0031336664400816
100
AcDbArc
 50
152.854668909
 51
210.0405302724
  0
SPLINE
  5
175
330
1F
100
AcDbEntity
  8
0
  6
Continuous
 62
     7
370
    25
100
AcDbSpline
210
0.0
220
0.0
230
1.0
 70
     8
 71
     3
 72
    11
 73
     7
 74
     0
 42
0.00000001
 43
0.00000001
 40
0.0
 40
0.0
 40
0.0
 40
0.0
 40
0.0092845745146023
 40
0.4218274246099721
 40
0.8336197797716337
 40
1.0
 40
1.0
 40
1.0
 40
1.0
 10
573.561826793411
 20
546.8988403763323
 30
0.0
 10
573.5613528664136
 20
546.9102010977726
 30
0.0
 10
573.5398208721977
 20
547.4263544076905
 30
0.0
 10
573.5976820583403
 20
548.4601991003784
 30
0.0
 10
573.6767906680088
 20
549.6987620877846
 30
0.0
 10
573.8326749275084
 20
550.3975107687667
 30
0.0
 10
573.8775336055738
 20
550.5985890702541
 30
0.0
  0
ARC
  5
176
330
1F
100
AcDbEntity
  8
0
  6
Continuous
 62
     7
370
    25
100
AcDbCircle
 10
600.2985772021
 20
551.6900900779
 30
0.0
 40
0.0031336663350758
100
AcDbArc
 50
329.9594688241
 51
27.1453316255
  0
SPLINE
  5
177
330
1F
100
AcDbEntity
  8
0
  6
Continuous
 62
     7
370
    25
100
AcDbSpline
210
0.0
220
0.0
230
1.0
 70
     8
 71
     3
 72
     9
 73
     5
 74
     0
 42
0.00000001
 43
0.00000001
 40
0.0
 40
0.0
 40
0.0
 40
0.0
 40
0.9842306130356508
 40
1.0
 40
1.0
 40
1.0
 40
1.0
 10
600.3013657017291
 20
551.6915198103034
 30
0.0
 10
600.4764009806465
 20
551.0332603188517
 30
0.0
 10
600.6542406826422
 20
550.3644541643453
 30
0.0
 10
600.6949040305369
 20
549.6763278705863
 30
0.0
 10
600.6955452666051
 20
549.6654765407795
 30
0.0
  0
SPLINE
  5
178
330
1F
100
AcDbEntity
  8
0
  6
Continuous
 62
     7
370
    25
100
AcDbSpline
210
0.0
220
0.0
230
1.0
 70
     8
 71
     3
 72
     9
 73
     5
 74
     0
 42
0.00000001
 43
0.00000001
 40
0.0
 40
0.0
 40
0.0
 40
0.0
 40
0.4425673107361074
 40
1.0
 40
1.0
 40
1.0
 40
1.0
 10
574.1041460280188
 20
551.6915198103369
 30
0.0
 10
574.0872461882034
 20
551.6291729568334
 30
0.0
 10
574.0490602684453
 20
551.4882975419728
 30
0.0
 10
574.0189855482785
 20
551.3455985099798
 30
0.0
 10
574.0022209161369
 20
551.2660534048205
 30
0.0
  0
LINE
  5
179
330
1F
100
AcDbEntity
  8
0
  6
Continuous
 62
     7
370
    25
100
AcDbLine
 10
600.3751842766
 20
551.2967818907
 30
0.0
 11
600.3013657017
 21
551.6915198103
 31
0.0
  0
LINE
  5
17A
330
1F
100
AcDbEntity
  8
0
  6
Continuous
 62
     7
370
    25
100
AcDbLine
 10
571.1027558649
 20
441.8927277712
 30
0.0
 11
571.1027558649
 21
464.7015514407
 31
0.0
  0
SPLINE
  5
17B
330
1F
100
AcDbEntity
  8
0
  6
Continuous
 62
     7
370
    25
100
AcDbSpline
210
0.0
220
0.0
230
1.0
 70
     8
 71
     3
 72
    12
 73
     8
 74
     0
 42
0.00000001
 43
0.00000001
 40
0.0
 40
0.0
 40
0.0
 40
0.0
 40
0.1815402056157023
 40
0.3627336191045861
 40
0.5529720030958601
 40
0.7660924978878413
 40
1.0
 40
1.0
 40
1.0
 40
1.0
 10
571.2027558648693
 20
441.7782868992012
 30
0.0
 10
571.1925480210996
 20
441.7793397312843
 30
0.0
 10
571.1721518333718
 20
441.7814433842493
 30
0.0
 10
571.1447052291891
 20
441.7975584337356
 30
0.0
 10
571.1223088782425
 20
441.8217758001185
 30
0.0
 10
571.1060583136799
 20
441.8544699054807
 30
0.0
 10
571.1038902859023
 20
441.8795858483038
 30
0.0
 10
571.1027558648693
 20
441.892727771158
 30
0.0
  0
LINE
  5
17C
330
1F
100
AcDbEntity
  8
0
  6
Continuous
 62
     7
370
    25
100
AcDbLine
 10
603.3027558649
 20
464.7015514407
 30
0.0
 11
603.3027558649
 21
441.8927277712
 31
0.0
  0
SPLINE
  5
17D
330
1F
100
AcDbEntity
  8
0
  6
Continuous
 62
     7
370
    25
100
AcDbSpline
210
0.0
220
0.0
230
1.0
 70
     8
 71
     3
 72
    12
 73
     8
 74
     0
 42
0.00000001
 43
0.00000001
 40
0.0
 40
0.0
 40
0.0
 40
0.0
 40
0.2561474966056115
 40
0.5129515545470206
 40
0.7486195972304802
 40
0.9519066116172542
 40
0.9999999999999999
 40
0.9999999999999999
 40
0.9999999999999999
 40
0.9999999999999999
 10
603.3027558648694
 20
441.892727771158
 30
0.0
 10
603.3013898780853
 20
441.8783446336261
 30
0.0
 10
603.2986544031979
 20
441.8495414914756
 30
0.0
 10
603.2770730446117
 20
441.8120964272776
 30
0.0
 10
603.2463535787472
 20
441.786958138262
 30
0.0
 10
603.2194928792892
 20
441.7787685918236
 30
0.0
 10
603.2054437118818
 20
441.7783642556545
 30
0.0
 10
603.2027558648693
 20
441.7782868992012
 30
0.0
  0
LINE
  5
17E
330
1F
100
AcDbEntity
  8
0
  6
Continuous
 62
     8
370
    25
100
AcDbLine
 10
511.0841679987
 20
482.6402215165
 30
0.0
 11
511.0841679987
 21
467.2733628281
 31
0.0
  0
LINE
  5
17F
330
1F
100
AcDbEntity
  8
0
  6
Continuous
 62
     8
370
    25
100
AcDbLine
 10
511.0841679987
 20
458.952411248
 30
0.0
 11
511.0841679987
 21
445.8955849778
 31
0.0
  0
LINE
  5
180
330
1F
100
AcDbEntity
  8
0
  6
Continuous
 62
     8
370
    25
100
AcDbLine
 10
661.3250741342
 20
484.6364911134
 30
0.0
 11
603.1155837141
 21
484.6364911134
 31
0.0
  0
LINE
  5
181
330
1F
100
AcDbEntity
  8
0
  6
Continuous
 62
     8
370
    25
100
AcDbLine
 10
571.2890061744
 20
484.6364911134
 30
0.0
 11
513.0804375955
 21
484.6364911134
 31
0.0
  0
LINE
  5
182
330
1F
100
AcDbEntity
  8
0
  6
Continuous
 62
     8
370
    25
100
AcDbLine
 10
663.3213437311
 20
445.8955849778
 30
0.0
 11
663.3213437311
 21
460.4234054712
 31
0.0
  0
LINE
  5
183
330
1F
100
AcDbEntity
  8
0
  6
Continuous
 62
     8
370
    25
100
AcDbLine
 10
663.3213437311
 20
468.7468885368
 30
0.0
 11
663.3213437311
 21
482.6402215165
 31
0.0
  0
LINE
  5
184
330
1F
100
AcDbEntity
  8
0
  6
Continuous
 62
     8
370
    25
100
AcDbLine
 10
513.0804375955
 20
443.899315381
 30
0.0
 11
571.1027558649
 21
443.899315381
 31
0.0
  0
LINE
  5
185
330
1F
100
AcDbEntity
  8
0
  6
Continuous
 62
     8
370
    25
100
AcDbLine
 10
603.3027558649
 20
443.899315381
 30
0.0
 11
661.3250741342
 21
443.899315381
 31
0.0
  0
LINE
  5
186
330
1F
100
AcDbEntity
  8
0
  6
Continuous
 62
     8
370
    25
100
AcDbLine
 10
665.3176133279
 20
482.6402215165
 30
0.0
 11
665.3176133279
 21
468.7112339268
 31
0.0
  0
LINE
  5
187
330
1F
100
AcDbEntity
  8
0
  6
Continuous
 62
     8
370
    25
100
AcDbLine
 10
665.3176133279
 20
460.5099423329
 30
0.0
 11
665.3176133279
 21
445.8955849778
 31
0.0
  0
LINE
  5
188
330
1F
100
AcDbEntity
  8
0
  6
Continuous
 62
     8
370
    25
100
AcDbLine
 10
509.0878984018
 20
445.8955849778
 30
0.0
 11
509.0878984018
 21
458.9215554898
 31
0.0
  0
LINE
  5
189
330
1F
100
AcDbEntity
  8
0
  6
Continuous
 62
     8
370
    25
100
AcDbLine
 10
509.0878984018
 20
467.120075781
 30
0.0
 11
509.0878984018
 21
482.6402215165
 31
0.0
  0
LINE
  5
18A
330
1F
100
AcDbEntity
  8
0
  6
Continuous
 62
     8
370
    25
100
AcDbLine
 10
513.0804375955
 20
486.6327607102
 30
0.0
 11
571.3321610271
 21
486.6327607102
 31
0.0
  0
LINE
  5
18B
330
1F
100
AcDbEntity
  8
0
  6
Continuous
 62
     8
370
    25
100
AcDbLine
 10
603.07277233
 20
486.6327607102
 30
0.0
 11
661.3250741342
 21
486.6327607102
 31
0.0
  0
LINE
  5
18C
330
1F
100
AcDbEntity
  8
0
  6
Continuous
 62
     8
370
    25
100
AcDbLine
 10
661.3250741342
 20
441.9030457841
 30
0.0
 11
603.3027558649
 21
441.9030457841
 31
0.0
  0
LINE
  5
18D
330
1F
100
AcDbEntity
  8
0
  6
Continuous
 62
     8
370
    25
100
AcDbLine
 10
571.1027558649
 20
441.9030457841
 30
0.0
 11
513.0804375955
 21
441.9030457841
 31
0.0
  0
LINE
  5
18E
330
1F
100
AcDbEntity
  8
0
  6
Continuous
 62
     8
370
    25
100
AcDbLine
 10
661.3250741342
 20
486.6327607102
 30
0.0
 11
662.3784227161
 21
487.6861092921
 31
0.0
  0
LINE
  5
18F
330
1F
100
AcDbEntity
  8
0
  6
Continuous
 62
     8
370
    25
100
AcDbLine
 10
512.0270890137
 20
487.6861092921
 30
0.0
 11
513.0804375955
 21
486.6327607102
 31
0.0
  0
ENDSEC
  0
SECTION
  2
OBJECTS
  0
DICTIONARY
  5
C
330
0
100
AcDbDictionary
281
     1
  3
ACAD_GROUP
350
D
  3
ACAD_LAYOUT
350
1A
  3
ACAD_MLINESTYLE
350
17
  3
ACAD_PLOTSETTINGS
350
19
  3
ACAD_PLOTSTYLENAME
350
E
  3
ACAD_SCALELIST
350
47
  3
DWGPROPS
350
190
  0
DICTIONARY
  5
D
102
{ACAD_REACTORS
330
C
102
}
330
C
100
AcDbDictionary
281
     1
  0
DICTIONARY
  5
1A
102
{ACAD_REACTORS
330
C
102
}
330
C
100
AcDbDictionary
281
     1
  3
Layout1
350
1E
  3
Layout2
350
26
  3
Model
350
22
  0
DICTIONARY
  5
17
102
{ACAD_REACTORS
330
C
102
}
330
C
100
AcDbDictionary
281
     1
  3
Standard
350
18
  0
DICTIONARY
  5
19
102
{ACAD_REACTORS
330
C
102
}
330
C
100
AcDbDictionary
281
     1
  0
ACDBDICTIONARYWDFLT
  5
E
102
{ACAD_REACTORS
330
C
102
}
330
C
100
AcDbDictionary
281
     1
  3
Normal
350
F
100
AcDbDictionaryWithDefault
340
F
  0
DICTIONARY
  5
47
102
{ACAD_REACTORS
330
C
102
}
330
C
100
AcDbDictionary
281
     1
  3
A0
350
48
  3
A1
350
49
  3
A2
350
4A
  3
A3
350
4B
  3
A4
350
4C
  3
A5
350
4D
  3
A6
350
4E
  3
A7
350
4F
  3
A8
350
50
  3
A9
350
51
  3
B0
350
52
  3
B1
350
53
  3
B2
350
54
  3
B3
350
55
  3
B4
350
56
  3
B5
350
57
  3
B6
350
58
  3
B7
350
59
  3
B8
350
5A
  3
B9
350
5B
  3
C0
350
5C
  3
C1
350
5D
  3
C2
350
5E
  3
C3
350
5F
  3
C4
350
60
  3
C5
350
61
  3
C6
350
62
  3
C7
350
63
  3
C8
350
64
  3
C9
350
65
  3
D0
350
66
  3
D1
350
67
  3
D2
350
68
  0
XRECORD
  5
190
102
{ACAD_REACTORS
330
C
102
}
330
C
100
AcDbXrecord
280
     1
  1
DWGPROPS COOKIE
  2

  3

  4

  6

  7

  8
designer5
  9

300
=
301
=
302
=
303
=
304
=
305
=
306
=
307
=
308
=
309
=
 40
0.0
 41
2460383.189171493
 42
2460383.189171852
  1

 90
        0
  0
LAYOUT
  5
1E
102
{ACAD_REACTORS
330
1A
102
}
330
1A
100
AcDbPlotSettings
  1

  2
none_device
  4

  6

 40
0.0
 41
0.0
 42
0.0
 43
0.0
 44
0.0
 45
0.0
 46
0.0
 47
0.0
 48
0.0
 49
0.0
140
0.0
141
0.0
142
1.0
143
1.0
 70
   688
 72
     1
 73
     0
 74
     5
  7

 75
    16
147
1.0
148
0.0
149
0.0
100
AcDbLayout
  1
Layout1
 70
     1
 71
     1
 10
0.0
 20
0.0
 11
420.0
 21
297.0
 12
0.0
 22
0.0
 32
0.0
 14
1.0000000000E+20
 24
1.0000000000E+20
 34
1.0000000000E+20
 15
-1.0000000000E+20
 25
-1.0000000000E+20
 35
-1.0000000000E+20
146
0.0
 13
0.0
 23
0.0
 33
0.0
 16
1.0
 26
0.0
 36
0.0
 17
0.0
 27
1.0
 37
0.0
 76
     0
330
1B
  0
LAYOUT
  5
26
102
{ACAD_REACTORS
330
1A
102
}
330
1A
100
AcDbPlotSettings
  1

  2
none_device
  4

  6

 40
0.0
 41
0.0
 42
0.0
 43
0.0
 44
0.0
 45
0.0
 46
0.0
 47
0.0
 48
0.0
 49
0.0
140
0.0
141
0.0
142
1.0
143
1.0
 70
   688
 72
     1
 73
     0
 74
     5
  7

 75
    16
147
1.0
148
0.0
149
0.0
100
AcDbLayout
  1
Layout2
 70
     1
 71
     2
 10
0.0
 20
0.0
 11
0.0
 21
0.0
 12
0.0
 22
0.0
 32
0.0
 14
0.0
 24
0.0
 34
0.0
 15
0.0
 25
0.0
 35
0.0
146
0.0
 13
0.0
 23
0.0
 33
0.0
 16
1.0
 26
0.0
 36
0.0
 17
0.0
 27
1.0
 37
0.0
 76
     0
330
23
  0
LAYOUT
  5
22
102
{ACAD_REACTORS
330
1A
102
}
330
1A
100
AcDbPlotSettings
  1

  2
none_device
  4
Letter_(8.50_x_11.00_Inches)
  6

 40
6.35
 41
6.35
 42
6.35000508
 43
6.35000508
 44
215.9
 45
279.4
 46
0.0
 47
0.0
 48
0.0
 49
0.0
140
0.0
141
0.0
142
1.0
143
1.0
 70
  1712
 72
     1
 73
     0
 74
     0
  7

 75
     0
147
1.0
148
0.0
149
0.0
100
AcDbLayout
  1
Model
 70
     1
 71
     0
 10
0.0
 20
0.0
 11
1189.0
 21
841.0
 12
0.0
 22
0.0
 32
0.0
 14
0.0
 24
0.0
 34
0.0
 15
1189.0
 25
841.0
 35
0.0
146
0.0
 13
0.0
 23
0.0
 33
0.0
 16
1.0
 26
0.0
 36
0.0
 17
0.0
 27
1.0
 37
0.0
 76
     0
330
1F
331
29
  0
MLINESTYLE
  5
18
102
{ACAD_REACTORS
330
17
102
}
330
17
100
AcDbMlineStyle
  2
Standard
 70
     0
  3

 62
   256
 51
90.0
 52
90.0
 71
     2
 49
0.5
 62
   256
  6
BYLAYER
 49
-0.5
 62
   256
  6
BYLAYER
  0
ACDBPLACEHOLDER
  5
F
102
{ACAD_REACTORS
330
E
102
}
330
E
  0
SCALE
  5
48
102
{ACAD_REACTORS
330
47
102
}
330
47
100
AcDbScale
 70
     0
300
1:1
140
1.0
141
1.0
290
     1
  0
SCALE
  5
49
102
{ACAD_REACTORS
330
47
102
}
330
47
100
AcDbScale
 70
     0
300
1:2
140
1.0
141
2.0
290
     0
  0
SCALE
  5
4A
102
{ACAD_REACTORS
330
47
102
}
330
47
100
AcDbScale
 70
     0
300
1:4
140
1.0
141
4.0
290
     0
  0
SCALE
  5
4B
102
{ACAD_REACTORS
330
47
102
}
330
47
100
AcDbScale
 70
     0
300
1:5
140
1.0
141
5.0
290
     0
  0
SCALE
  5
4C
102
{ACAD_REACTORS
330
47
102
}
330
47
100
AcDbScale
 70
     0
300
1:8
140
1.0
141
8.0
290
     0
  0
SCALE
  5
4D
102
{ACAD_REACTORS
330
47
102
}
330
47
100
AcDbScale
 70
     0
300
1:10
140
1.0
141
10.0
290
     0
  0
SCALE
  5
4E
102
{ACAD_REACTORS
330
47
102
}
330
47
100
AcDbScale
 70
     0
300
1:16
140
1.0
141
16.0
290
     0
  0
SCALE
  5
4F
102
{ACAD_REACTORS
330
47
102
}
330
47
100
AcDbScale
 70
     0
300
1:20
140
1.0
141
20.0
290
     0
  0
SCALE
  5
50
102
{ACAD_REACTORS
330
47
102
}
330
47
100
AcDbScale
 70
     0
300
1:30
140
1.0
141
30.0
290
     0
  0
SCALE
  5
51
102
{ACAD_REACTORS
330
47
102
}
330
47
100
AcDbScale
 70
     0
300
1:40
140
1.0
141
40.0
290
     0
  0
SCALE
  5
52
102
{ACAD_REACTORS
330
47
102
}
330
47
100
AcDbScale
 70
     0
300
1:50
140
1.0
141
50.0
290
     0
  0
SCALE
  5
53
102
{ACAD_REACTORS
330
47
102
}
330
47
100
AcDbScale
 70
     0
300
1:100
140
1.0
141
100.0
290
     0
  0
SCALE
  5
54
102
{ACAD_REACTORS
330
47
102
}
330
47
100
AcDbScale
 70
     0
300
2:1
140
2.0
141
1.0
290
     0
  0
SCALE
  5
55
102
{ACAD_REACTORS
330
47
102
}
330
47
100
AcDbScale
 70
     0
300
4:1
140
4.0
141
1.0
290
     0
  0
SCALE
  5
56
102
{ACAD_REACTORS
330
47
102
}
330
47
100
AcDbScale
 70
     0
300
8:1
140
8.0
141
1.0
290
     0
  0
SCALE
  5
57
102
{ACAD_REACTORS
330
47
102
}
330
47
100
AcDbScale
 70
     0
300
10:1
140
10.0
141
1.0
290
     0
  0
SCALE
  5
58
102
{ACAD_REACTORS
330
47
102
}
330
47
100
AcDbScale
 70
     0
300
100:1
140
100.0
141
1.0
290
     0
  0
SCALE
  5
59
102
{ACAD_REACTORS
330
47
102
}
330
47
100
AcDbScale
 70
     0
300
1/128" = 1'-0"
140
0.0078125
141
12.0
290
     0
  0
SCALE
  5
5A
102
{ACAD_REACTORS
330
47
102
}
330
47
100
AcDbScale
 70
     0
300
1/64" = 1'-0"
140
0.015625
141
12.0
290
     0
  0
SCALE
  5
5B
102
{ACAD_REACTORS
330
47
102
}
330
47
100
AcDbScale
 70
     0
300
1/32" = 1'-0"
140
0.03125
141
12.0
290
     0
  0
SCALE
  5
5C
102
{ACAD_REACTORS
330
47
102
}
330
47
100
AcDbScale
 70
     0
300
1/16" = 1'-0"
140
0.0625
141
12.0
290
     0
  0
SCALE
  5
5D
102
{ACAD_REACTORS
330
47
102
}
330
47
100
AcDbScale
 70
     0
300
3/32" = 1'-0"
140
0.09375
141
12.0
290
     0
  0
SCALE
  5
5E
102
{ACAD_REACTORS
330
47
102
}
330
47
100
AcDbScale
 70
     0
300
1/8" = 1'-0"
140
0.125
141
12.0
290
     0
  0
SCALE
  5
5F
102
{ACAD_REACTORS
330
47
102
}
330
47
100
AcDbScale
 70
     0
300
3/16" = 1'-0"
140
0.1875
141
12.0
290
     0
  0
SCALE
  5
60
102
{ACAD_REACTORS
330
47
102
}
330
47
100
AcDbScale
 70
     0
300
1/4" = 1'-0"
140
0.25
141
12.0
290
     0
  0
SCALE
  5
61
102
{ACAD_REACTORS
330
47
102
}
330
47
100
AcDbScale
 70
     0
300
3/8" = 1'-0"
140
0.375
141
12.0
290
     0
  0
SCALE
  5
62
102
{ACAD_REACTORS
330
47
102
}
330
47
100
AcDbScale
 70
     0
300
1/2" = 1'-0"
140
0.5
141
12.0
290
     0
  0
SCALE
  5
63
102
{ACAD_REACTORS
330
47
102
}
330
47
100
AcDbScale
 70
     0
300
3/4" = 1'-0"
140
0.75
141
12.0
290
     0
  0
SCALE
  5
64
102
{ACAD_REACTORS
330
47
102
}
330
47
100
AcDbScale
 70
     0
300
1" = 1'-0"
140
1.0
141
12.0
290
     0
  0
SCALE
  5
65
102
{ACAD_REACTORS
330
47
102
}
330
47
100
AcDbScale
 70
     0
300
1-1/2" = 1'-0"
140
1.5
141
12.0
290
     0
  0
SCALE
  5
66
102
{ACAD_REACTORS
330
47
102
}
330
47
100
AcDbScale
 70
     0
300
3" = 1'-0"
140
3.0
141
12.0
290
     0
  0
SCALE
  5
67
102
{ACAD_REACTORS
330
47
102
}
330
47
100
AcDbScale
 70
     0
300
6" = 1'-0"
140
6.0
141
12.0
290
     0
  0
SCALE
  5
68
102
{ACAD_REACTORS
330
47
102
}
330
47
100
AcDbScale
 70
     0
300
1'-0" = 1'-0"
140
12.0
141
12.0
290
     0
  0
ENDSEC
  0
EOF
