  0
SECTION
  2
HEADER
  9
$ACADVER
  1
AC1015
  9
$ACADMAINTVER
 70
     6
  9
$DWGCODEPAGE
  3
ANSI_1252
  9
$INSBASE
 10
0.0
 20
0.0
 30
0.0
  9
$EXTMIN
 10
0.0
 20
0.0
 30
0.0
  9
$EXTMAX
 10
1189.0
 20
841.0
 30
0.0
  9
$LIMMIN
 10
0.0
 20
0.0
  9
$LIMMAX
 10
1189.0
 20
841.0
  9
$ORTHOMODE
 70
     0
  9
$REGENMODE
 70
     1
  9
$FILLMODE
 70
     1
  9
$QTEXTMODE
 70
     0
  9
$MIRRTEXT
 70
     1
  9
$LTSCALE
 40
1.0
  9
$ATTMODE
 70
     1
  9
$TEXTSIZE
 40
3.5
  9
$TRACEWID
 40
1.0
  9
$TEXTSTYLE
  7
Standard
  9
$CLAYER
  8
0
  9
$CELTYPE
  6
ByLayer
  9
$CECOLOR
 62
   256
  9
$CELTSCALE
 40
1.0
  9
$DISPSILH
 70
     0
  9
$DIMSCALE
 40
1.0
  9
$DIMASZ
 40
3.302
  9
$DIMEXO
 40
1.0
  9
$DIMDLI
 40
3.75
  9
$DIMRND
 40
0.0
  9
$DIMDLE
 40
0.0
  9
$DIMEXE
 40
1.0
  9
$DIMTP
 40
0.0
  9
$DIMTM
 40
0.0
  9
$DIMTXT
 40
3.5
  9
$DIMCEN
 40
2.5
  9
$DIMTSZ
 40
0.0
  9
$DIMTOL
 70
     0
  9
$DIMLIM
 70
     0
  9
$DIMTIH
 70
     1
  9
$DIMTOH
 70
     1
  9
$DIMSE1
 70
     0
  9
$DIMSE2
 70
     0
  9
$DIMTAD
 70
     1
  9
$DIMZIN
 70
     1
  9
$DIMBLK
  1

  9
$DIMASO
 70
     1
  9
$DIMSHO
 70
     1
  9
$DIMPOST
  1

  9
$DIMAPOST
  1

  9
$DIMALT
 70
     0
  9
$DIMALTD
 70
     3
  9
$DIMALTF
 40
0.0393700787
  9
$DIMLFAC
 40
1.0
  9
$DIMTOFL
 70
     1
  9
$DIMTVP
 40
0.0
  9
$DIMTIX
 70
     0
  9
$DIMSOXD
 70
     0
  9
$DIMSAH
 70
     0
  9
$DIMBLK1
  1

  9
$DIMBLK2
  1

  9
$DIMSTYLE
  2
ISO-25
  9
$DIMCLRD
 70
     0
  9
$DIMCLRE
 70
     0
  9
$DIMCLRT
 70
     0
  9
$DIMTFAC
 40
1.0
  9
$DIMGAP
 40
1.524
  9
$DIMJUST
 70
     0
  9
$DIMSD1
 70
     0
  9
$DIMSD2
 70
     0
  9
$DIMTOLJ
 70
     0
  9
$DIMTZIN
 70
     1
  9
$DIMALTZ
 70
     0
  9
$DIMALTTZ
 70
     0
  9
$DIMUPT
 70
     0
  9
$DIMDEC
 70
     2
  9
$DIMTDEC
 70
     2
  9
$DIMALTU
 70
     2
  9
$DIMALTTD
 70
     3
  9
$DIMTXSTY
  7
Standard
  9
$DIMAUNIT
 70
     0
  9
$DIMADEC
 70
     2
  9
$DIMALTRND
 40
0.0
  9
$DIMAZIN
 70
     0
  9
$DIMDSEP
 70
    44
  9
$DIMATFIT
 70
     3
  9
$DIMFRAC
 70
     0
  9
$DIMLDRBLK
  1

  9
$DIMLUNIT
 70
     2
  9
$DIMLWD
 70
    -2
  9
$DIMLWE
 70
    -2
  9
$DIMTMOVE
 70
     0
  9
$LUNITS
 70
     2
  9
$LUPREC
 70
     2
  9
$SKETCHINC
 40
1.0
  9
$FILLETRAD
 40
10.0
  9
$AUNITS
 70
     0
  9
$AUPREC
 70
     2
  9
$MENU
  1
.
  9
$ELEVATION
 40
0.0
  9
$PELEVATION
 40
0.0
  9
$THICKNESS
 40
0.0
  9
$LIMCHECK
 70
     0
  9
$CHAMFERA
 40
0.0
  9
$CHAMFERB
 40
0.0
  9
$CHAMFERC
 40
0.0
  9
$CHAMFERD
 40
0.0
  9
$SKPOLY
 70
     0
  9
$TDCREATE
 40
2460383.508538993
  9
$TDUCREATE
 40
2460383.279372327
  9
$TDUPDATE
 40
2460383.508552002
  9
$TDUUPDATE
 40
2460383.279385336
  9
$TDINDWG
 40
0.0000000116
  9
$TDUSRTIMER
 40
0.0000000116
  9
$USRTIMER
 70
     1
  9
$ANGBASE
 50
0.0
  9
$ANGDIR
 70
     0
  9
$PDMODE
 70
     0
  9
$PDSIZE
 40
-1.0
  9
$PLINEWID
 40
0.0
  9
$SPLFRAME
 70
     0
  9
$SPLINETYPE
 70
     6
  9
$SPLINESEGS
 70
     8
  9
$HANDSEED
  5
254
  9
$SURFTAB1
 70
     6
  9
$SURFTAB2
 70
     6
  9
$SURFTYPE
 70
     6
  9
$SURFU
 70
     6
  9
$SURFV
 70
     6
  9
$UCSBASE
  2

  9
$UCSNAME
  2

  9
$UCSORG
 10
0.0
 20
0.0
 30
0.0
  9
$UCSXDIR
 10
1.0
 20
0.0
 30
0.0
  9
$UCSYDIR
 10
0.0
 20
1.0
 30
0.0
  9
$UCSORTHOREF
  2

  9
$UCSORTHOVIEW
 70
     0
  9
$UCSORGTOP
 10
0.0
 20
0.0
 30
0.0
  9
$UCSORGBOTTOM
 10
0.0
 20
0.0
 30
0.0
  9
$UCSORGLEFT
 10
0.0
 20
0.0
 30
0.0
  9
$UCSORGRIGHT
 10
0.0
 20
0.0
 30
0.0
  9
$UCSORGFRONT
 10
0.0
 20
0.0
 30
0.0
  9
$UCSORGBACK
 10
0.0
 20
0.0
 30
0.0
  9
$PUCSBASE
  2

  9
$PUCSNAME
  2

  9
$PUCSORG
 10
0.0
 20
0.0
 30
0.0
  9
$PUCSXDIR
 10
1.0
 20
0.0
 30
0.0
  9
$PUCSYDIR
 10
0.0
 20
1.0
 30
0.0
  9
$PUCSORTHOREF
  2

  9
$PUCSORTHOVIEW
 70
     0
  9
$PUCSORGTOP
 10
0.0
 20
0.0
 30
0.0
  9
$PUCSORGBOTTOM
 10
0.0
 20
0.0
 30
0.0
  9
$PUCSORGLEFT
 10
0.0
 20
0.0
 30
0.0
  9
$PUCSORGRIGHT
 10
0.0
 20
0.0
 30
0.0
  9
$PUCSORGFRONT
 10
0.0
 20
0.0
 30
0.0
  9
$PUCSORGBACK
 10
0.0
 20
0.0
 30
0.0
  9
$USERI1
 70
     0
  9
$USERI2
 70
     0
  9
$USERI3
 70
     0
  9
$USERI4
 70
     0
  9
$USERI5
 70
     0
  9
$USERR1
 40
0.0
  9
$USERR2
 40
0.0
  9
$USERR3
 40
0.0
  9
$USERR4
 40
0.0
  9
$USERR5
 40
0.0
  9
$WORLDVIEW
 70
     1
  9
$SHADEDGE
 70
     3
  9
$SHADEDIF
 70
    70
  9
$TILEMODE
 70
     1
  9
$MAXACTVP
 70
    64
  9
$PINSBASE
 10
0.0
 20
0.0
 30
0.0
  9
$PLIMCHECK
 70
     0
  9
$PEXTMIN
 10
1.0000000000E+20
 20
1.0000000000E+20
 30
1.0000000000E+20
  9
$PEXTMAX
 10
-1.0000000000E+20
 20
-1.0000000000E+20
 30
-1.0000000000E+20
  9
$PLIMMIN
 10
0.0
 20
0.0
  9
$PLIMMAX
 10
420.0
 20
297.0
  9
$UNITMODE
 70
     0
  9
$VISRETAIN
 70
     1
  9
$PLINEGEN
 70
     0
  9
$PSLTSCALE
 70
     1
  9
$TREEDEPTH
 70
  3020
  9
$CMLSTYLE
  2
Standard
  9
$CMLJUST
 70
     0
  9
$CMLSCALE
 40
20.0
  9
$PROXYGRAPHICS
 70
     1
  9
$MEASUREMENT
 70
     1
  9
$CELWEIGHT
370
    -1
  9
$ENDCAPS
280
     0
  9
$JOINSTYLE
280
     0
  9
$LWDISPLAY
290
     1
  9
$INSUNITS
 70
     4
  9
$HYPERLINKBASE
  1

  9
$STYLESHEET
  1

  9
$XEDIT
290
     1
  9
$CEPSNTYPE
380
     0
  9
$PSTYLEMODE
290
     1
  9
$FINGERPRINTGUID
  2
{5add7365-a83f-41bd-bb86-4373637d1819}
  9
$VERSIONGUID
  2
{FAEB1C32-E019-11D5-929B-00C0DF256EC4}
  9
$EXTNAMES
290
     1
  9
$PSVPSCALE
 40
0.0
  9
$OLESTARTUP
290
     0
  0
ENDSEC
  0
SECTION
  2
CLASSES
  0
CLASS
  1
ACDBDICTIONARYWDFLT
  2
AcDbDictionaryWithDefault
  3
ObjectDBX Classes
 90
        0
280
     0
281
     0
  0
CLASS
  1
VISUALSTYLE
  2
AcDbVisualStyle
  3
ObjectDBX Classes
 90
     4095
280
     0
281
     0
  0
CLASS
  1
MATERIAL
  2
AcDbMaterial
  3
ObjectDBX Classes
 90
     1153
280
     0
281
     0
  0
CLASS
  1
SCALE
  2
AcDbScale
  3
ObjectDBX Classes
 90
     1153
280
     0
281
     0
  0
CLASS
  1
TABLESTYLE
  2
AcDbTableStyle
  3
ObjectDBX Classes
 90
     4095
280
     0
281
     0
  0
CLASS
  1
MLEADERSTYLE
  2
AcDbMLeaderStyle
  3
ACDB_MLEADERSTYLE_CLASS
 90
     4095
280
     0
281
     0
  0
CLASS
  1
SUN
  2
AcDbSun
  3
SCENEOE
 90
     1153
280
     0
281
     0
  0
CLASS
  1
ACDBPLACEHOLDER
  2
AcDbPlaceHolder
  3
ObjectDBX Classes
 90
        0
280
     0
281
     0
  0
CLASS
  1
LAYOUT
  2
AcDbLayout
  3
ObjectDBX Classes
 90
        0
280
     0
281
     0
  0
ENDSEC
  0
SECTION
  2
TABLES
  0
TABLE
  2
VPORT
  5
8
330
0
100
AcDbSymbolTable
 70
     1
  0
VPORT
  5
29
330
8
100
AcDbSymbolTableRecord
100
AcDbViewportTableRecord
  2
*Active
 70
     0
 10
0.0
 20
0.0
 11
1.0
 21
1.0
 12
594.5
 22
420.5
 13
0.0
 23
0.0
 14
10.0
 24
10.0
 15
10.0
 25
10.0
 16
0.0
 26
0.0
 36
1.0
 17
0.0
 27
0.0
 37
0.0
 40
841.0
 41
1.4137931034
 42
50.0
 43
0.0
 44
0.0
 50
0.0
 51
0.0
 71
     0
 72
  2000
 73
     1
 74
     3
 75
     0
 76
     0
 77
     0
 78
     0
281
     0
 65
     1
110
0.0
120
0.0
130
0.0
111
1.0
121
0.0
131
0.0
112
0.0
122
1.0
132
0.0
 79
     0
146
0.0
  0
ENDTAB
  0
TABLE
  2
LTYPE
  5
5
330
0
100
AcDbSymbolTable
 70
     6
  0
LTYPE
  5
14
330
5
100
AcDbSymbolTableRecord
100
AcDbLinetypeTableRecord
  2
ByBlock
 70
     0
  3

 72
    65
 73
     0
 40
0.0
  0
LTYPE
  5
15
330
5
100
AcDbSymbolTableRecord
100
AcDbLinetypeTableRecord
  2
ByLayer
 70
     0
  3

 72
    65
 73
     0
 40
0.0
  0
LTYPE
  5
16
330
5
100
AcDbSymbolTableRecord
100
AcDbLinetypeTableRecord
  2
Continuous
 70
     0
  3
Solid line
 72
    65
 73
     0
 40
0.0
  0
LTYPE
  5
6E
330
5
100
AcDbSymbolTableRecord
100
AcDbLinetypeTableRecord
  2
HIDDEN
 70
     0
  3
Hidden __ __ __ __ __ __ __ __ __ __ __ __ __ __
 72
    65
 73
     2
 40
1.905
 49
1.27
 74
     0
 49
-0.635
 74
     0
  0
LTYPE
  5
6F
330
5
100
AcDbSymbolTableRecord
100
AcDbLinetypeTableRecord
  2
PHANTOM
 70
     0
  3
Phantom ______  __  __  ______  __  __  ______
 72
    65
 73
     6
 40
12.7
 49
6.35
 74
     0
 49
-1.27
 74
     0
 49
1.27
 74
     0
 49
-1.27
 74
     0
 49
1.27
 74
     0
 49
-1.27
 74
     0
  0
LTYPE
  5
70
330
5
100
AcDbSymbolTableRecord
100
AcDbLinetypeTableRecord
  2
CENTER
 70
     0
  3
Center ____ _ ____ _ ____ _ ____ _ ____ _ ____
 72
    65
 73
     4
 40
10.16
 49
6.35
 74
     0
 49
-1.27
 74
     0
 49
1.27
 74
     0
 49
-1.27
 74
     0
  0
LTYPE
  5
71
330
5
100
AcDbSymbolTableRecord
100
AcDbLinetypeTableRecord
  2
CENTERX2
 70
     0
  3
Center (2x) ________  __  ________  __  _____
 72
    65
 73
     4
 40
20.32
 49
12.7
 74
     0
 49
-2.54
 74
     0
 49
2.54
 74
     0
 49
-2.54
 74
     0
  0
LTYPE
  5
72
330
5
100
AcDbSymbolTableRecord
100
AcDbLinetypeTableRecord
  2
DOT2
 70
     0
  3
Dot (.5x) ........................................
 72
    65
 73
     2
 40
0.635
 49
0.0
 74
     0
 49
-0.635
 74
     0
  0
ENDTAB
  0
TABLE
  2
LAYER
  5
2
330
0
100
AcDbSymbolTable
 70
     1
  0
LAYER
  5
10
330
2
100
AcDbSymbolTableRecord
100
AcDbLayerTableRecord
  2
0
 70
     0
 62
     7
  6
Continuous
370
    -3
390
F
  0
ENDTAB
  0
TABLE
  2
STYLE
  5
3
330
0
100
AcDbSymbolTable
 70
     1
  0
STYLE
  5
11
330
3
100
AcDbSymbolTableRecord
100
AcDbTextStyleTableRecord
  2
Standard
 70
     0
 40
0.0
 41
1.0
 50
0.0
 71
     0
 42
3.5
  3
txt
  4

  0
ENDTAB
  0
TABLE
  2
VIEW
  5
6
330
0
100
AcDbSymbolTable
 70
     0
  0
ENDTAB
  0
TABLE
  2
UCS
  5
7
330
0
100
AcDbSymbolTable
 70
     0
  0
ENDTAB
  0
TABLE
  2
APPID
  5
9
330
0
100
AcDbSymbolTable
 70
     1
  0
APPID
  5
12
330
9
100
AcDbSymbolTableRecord
100
AcDbRegAppTableRecord
  2
ACAD
 70
     0
  0
ENDTAB
  0
TABLE
  2
DIMSTYLE
  5
A
330
0
100
AcDbSymbolTable
 70
     1
100
AcDbDimStyleTable
  0
DIMSTYLE
105
27
330
A
100
AcDbSymbolTableRecord
100
AcDbDimStyleTableRecord
  2
ISO-25
 70
     0
 41
2.5
 42
0.625
 43
3.75
 44
1.25
 73
     0
 74
     0
 77
     1
 78
     8
140
2.5
141
2.5
143
0.0393700787
147
0.625
171
     3
172
     1
178
     0
271
     2
272
     2
274
     3
278
    44
283
     0
284
     8
340
11
  0
ENDTAB
  0
TABLE
  2
BLOCK_RECORD
  5
1
330
0
100
AcDbSymbolTable
 70
     1
  0
BLOCK_RECORD
  5
1F
330
1
100
AcDbSymbolTableRecord
100
AcDbBlockTableRecord
  2
*Model_Space
340
22
  0
BLOCK_RECORD
  5
1B
330
1
100
AcDbSymbolTableRecord
100
AcDbBlockTableRecord
  2
*Paper_Space
340
1E
  0
BLOCK_RECORD
  5
23
330
1
100
AcDbSymbolTableRecord
100
AcDbBlockTableRecord
  2
*Paper_Space0
340
26
  0
ENDTAB
  0
ENDSEC
  0
SECTION
  2
BLOCKS
  0
BLOCK
  5
20
330
1F
100
AcDbEntity
  8
0
100
AcDbBlockBegin
  2
*Model_Space
 70
     0
 10
0.0
 20
0.0
 30
0.0
  3
*Model_Space
  1

  0
ENDBLK
  5
21
330
1F
100
AcDbEntity
  8
0
100
AcDbBlockEnd
  0
BLOCK
  5
1C
330
1B
100
AcDbEntity
 67
     1
  8
0
100
AcDbBlockBegin
  2
*Paper_Space
 70
     0
 10
0.0
 20
0.0
 30
0.0
  3
*Paper_Space
  1

  0
ENDBLK
  5
1D
330
1B
100
AcDbEntity
 67
     1
  8
0
100
AcDbBlockEnd
  0
BLOCK
  5
24
330
23
100
AcDbEntity
  8
0
100
AcDbBlockBegin
  2
*Paper_Space0
 70
     0
 10
0.0
 20
0.0
 30
0.0
  3
*Paper_Space0
  1

  0
ENDBLK
  5
25
330
23
100
AcDbEntity
  8
0
100
AcDbBlockEnd
  0
ENDSEC
  0
SECTION
  2
ENTITIES
  0
SPLINE
  5
73
330
1F
100
AcDbEntity
  8
0
  6
Continuous
 62
     7
370
    25
100
AcDbSpline
210
0.0
220
0.0
230
1.0
 70
     8
 71
     3
 72
    17
 73
    13
 74
     0
 42
0.00000001
 43
0.00000001
 40
0.0
 40
0.0
 40
0.0
 40
0.0
 40
0.1527640838153008
 40
0.4502730491673269
 40
0.5800470479856665
 40
0.6279326497268062
 40
0.6630083138259064
 40
0.7130322114092292
 40
0.7787813230971529
 40
0.8627535164020479
 40
0.9533289213553016
 40
1.0
 40
1.0
 40
1.0
 40
1.0
 10
463.7466623069213
 20
524.5930315262254
 30
0.0
 10
463.6732511760735
 20
524.5883811130049
 30
0.0
 10
463.4568714295774
 20
524.5746739922703
 30
0.0
 10
463.2711313567602
 20
524.5593871794572
 30
0.0
 10
463.1838264002134
 20
524.5496953255292
 30
0.0
 10
463.1244712051706
 20
524.5391117826379
 30
0.0
 10
463.0619719761224
 20
524.5222248182181
 30
0.0
 10
462.9751754046217
 20
524.4850476978534
 30
0.0
 10
462.8701991856609
 20
524.4089804754555
 30
0.0
 10
462.7763946940372
 20
524.2835430922862
 30
0.0
 10
462.7234028833392
 20
524.1441398273139
 30
0.0
 10
462.7322198770287
 20
524.0551406863397
 30
0.0
 10
462.735218122194
 20
524.0248762613516
 30
0.0
  0
SPLINE
  5
74
330
1F
100
AcDbEntity
  8
0
  6
Continuous
 62
     7
370
    25
100
AcDbSpline
210
0.0
220
0.0
230
1.0
 70
     8
 71
     3
 72
    17
 73
    13
 74
     0
 42
0.00000001
 43
0.00000001
 40
0.0
 40
0.0
 40
0.0
 40
0.0
 40
0.0756189488074864
 40
0.1929507193726825
 40
0.2904713933993078
 40
0.373232021497471
 40
0.4408909341481901
 40
0.4905895596092694
 40
0.5341021759280993
 40
0.5956653102408067
 40
0.7374176238030296
 40
1.0
 40
1.0
 40
1.0
 40
1.0
 10
462.6948012380955
 20
518.4907010677917
 30
0.0
 10
462.6956872166308
 20
518.458170473039
 30
0.0
 10
462.6979478959767
 20
518.3751648010726
 30
0.0
 10
462.7575293658744
 20
518.2616900669098
 30
0.0
 10
462.8389828822525
 20
518.164285167685
 30
0.0
 10
462.9241845849251
 20
518.1018726902676
 30
0.0
 10
462.9986761229721
 20
518.0663946270165
 30
0.0
 10
463.0522209596738
 20
518.049212410113
 30
0.0
 10
463.0895376366262
 20
518.0402394022618
 30
0.0
 10
463.1310873885528
 20
518.0325766456762
 30
0.0
 10
463.1865457686343
 20
518.0246226721839
 30
0.0
 10
463.2771112691436
 20
518.016266127553
 30
0.0
 10
463.3359261690953
 20
518.0108392339384
 30
0.0
  0
LINE
  5
75
330
1F
100
AcDbEntity
  8
0
  6
Continuous
 62
     7
370
    25
100
AcDbLine
 10
467.2317623751
 20
524.8080795716
 30
0.0
 11
463.7466623069
 21
524.5930315262
 31
0.0
  0
LINE
  5
76
330
1F
100
AcDbEntity
  8
0
  6
Continuous
 62
     7
370
    25
100
AcDbLine
 10
463.6951868613
 20
517.9797577561
 30
0.0
 11
467.1765171464
 21
517.7104854158
 31
0.0
  0
ARC
  5
77
330
1F
100
AcDbEntity
  8
0
  6
Continuous
 62
     7
370
    25
100
AcDbCircle
 10
512.0511192734
 20
523.8821935499
 30
0.0
 40
8.999995138922987
100
AcDbArc
 50
76.6959574571
 51
89.554038389
  0
ARC
  5
78
330
1F
100
AcDbEntity
  8
0
  6
Continuous
 62
     7
370
    25
100
AcDbCircle
 10
512.0511192734
 20
523.8821935499
 30
0.0
 40
8.999995138922987
100
AcDbArc
 50
89.554038389
 51
124.7259678059
  0
SPLINE
  5
79
330
1F
100
AcDbEntity
  8
0
  6
Continuous
 62
     7
370
    25
100
AcDbSpline
210
0.0
220
0.0
230
1.0
 70
     8
 71
     3
 72
    17
 73
    13
 74
     0
 42
0.00000001
 43
0.00000001
 40
0.0
 40
0.0
 40
0.0
 40
0.0
 40
0.1527640838153015
 40
0.4502730491673266
 40
0.5800470479856688
 40
0.6279326497268003
 40
0.6630083138259105
 40
0.7130322114092051
 40
0.7787813230971342
 40
0.8627535164020528
 40
0.9533289213552951
 40
0.9999999999999999
 40
0.9999999999999999
 40
0.9999999999999999
 40
0.9999999999999999
 10
779.837277959635
 20
519.5963960829106
 30
0.0
 10
779.9104119683094
 20
519.6042851418326
 30
0.0
 10
780.125974895545
 20
519.6275381901092
 30
0.0
 10
780.3108582756385
 20
519.6510157764716
 30
0.0
 10
780.3976498221163
 20
519.6645551608805
 30
0.0
 10
780.4564795022275
 20
519.6777505879949
 30
0.0
 10
780.5181716716314
 20
519.6973821807254
 30
0.0
 10
780.6032410744042
 20
519.7383575369142
 30
0.0
 10
780.7047542727097
 20
519.8189881727817
 30
0.0
 10
780.7929255565344
 20
519.9484472182512
 30
0.0
 10
780.8397070162949
 20
520.0900554712191
 30
0.0
 10
780.8269667916093
 20
520.1785781979444
 30
0.0
 10
780.8226344399694
 20
520.2086806168371
 30
0.0
  0
SPLINE
  5
7A
330
1F
100
AcDbEntity
  8
0
  6
Continuous
 62
     7
370
    25
100
AcDbSpline
210
0.0
220
0.0
230
1.0
 70
     8
 71
     3
 72
    17
 73
    13
 74
     0
 42
0.00000001
 43
0.00000001
 40
0.0
 40
0.0
 40
0.0
 40
0.0
 40
0.0756189488074748
 40
0.1929507193726839
 40
0.2904713933993234
 40
0.3732320214974757
 40
0.4408909341482107
 40
0.4905895596093172
 40
0.5341021759281267
 40
0.5956653102409186
 40
0.7374176238033524
 40
0.9999999999999999
 40
0.9999999999999999
 40
0.9999999999999999
 40
0.9999999999999999
 10
780.6185208736696
 20
525.7392381158228
 30
0.0
 10
780.6161986106173
 20
525.7716978084777
 30
0.0
 10
780.6102730809242
 20
525.8545225653295
 30
0.0
 10
780.5457366510442
 20
525.9652542955014
 30
0.0
 10
780.460059468832
 20
526.0589656084336
 30
0.0
 10
780.3721836689455
 20
526.1175530752674
 30
0.0
 10
780.2961974961474
 20
526.1497055830412
 30
0.0
 10
780.2419458547166
 20
526.1645054991626
 30
0.0
 10
780.204269198499
 20
526.1718211553138
 30
0.0
 10
780.1624214850369
 20
526.1776408289855
 30
0.0
 10
780.1066658575015
 20
526.1831369743377
 30
0.0
 10
780.0158196011475
 20
526.1874843214719
 30
0.0
 10
779.9568223731919
 20
526.1903075685727
 30
0.0
  0
LINE
  5
7B
330
1F
100
AcDbEntity
  8
0
  6
Continuous
 62
     7
370
    25
100
AcDbLine
 10
776.365081019
 20
519.227591863
 30
0.0
 11
779.8372779596
 21
519.5963960829
 31
0.0
  0
LINE
  5
7C
330
1F
100
AcDbEntity
  8
0
  6
Continuous
 62
     7
370
    25
100
AcDbLine
 10
779.5965393125
 20
526.2054871387
 30
0.0
 11
776.106711976
 21
526.3206969851
 31
0.0
  0
ARC
  5
7D
330
1F
100
AcDbEntity
  8
0
  6
Continuous
 62
     7
370
    25
100
AcDbCircle
 10
731.5485789814
 20
518.1725265534
 30
0.0
 40
8.99999513892306
100
AcDbArc
 50
259.2280172662
 51
272.0860981981
  0
ARC
  5
7E
330
1F
100
AcDbEntity
  8
0
  6
Continuous
 62
     7
370
    25
100
AcDbCircle
 10
731.5485789814
 20
518.1725265534
 30
0.0
 40
8.99999513892306
100
AcDbArc
 50
272.0860981981
 51
307.2580276151
  0
SPLINE
  5
7F
330
1F
100
AcDbEntity
  8
0
  6
Continuous
 62
     7
370
    25
100
AcDbSpline
210
0.0
220
0.0
230
1.0
 70
     8
 71
     3
 72
    21
 73
    17
 74
     0
 42
0.00000001
 43
0.00000001
 40
0.0
 40
0.0
 40
0.0
 40
0.0
 40
0.0694377721701157
 40
0.1388755443396188
 40
0.210809708479287
 40
0.2827438726193571
 40
0.354682901259434
 40
0.4266250275818225
 40
0.4988698706873112
 40
0.5711147137927923
 40
0.6435404679891216
 40
0.7159690563655129
 40
0.7719198403686081
 40
0.8448302784952252
 40
0.917740716621899
 40
1.0
 40
1.0
 40
1.0
 40
1.0
 10
621.736757343716
 20
533.1033598852988
 30
0.0
 10
622.4041414979955
 20
533.0767189716454
 30
0.0
 10
623.7389098065486
 20
533.023437144339
 30
0.0
 10
625.7158170721003
 20
532.5322625001883
 30
0.0
 10
627.6077183061643
 20
531.7297356170428
 30
0.0
 10
629.3613854478872
 20
530.6074373402901
 30
0.0
 10
630.8971127254894
 20
529.2030258964688
 30
0.0
 10
632.1839258594727
 20
527.563413713983
 30
0.0
 10
633.1740713440157
 20
525.7260037985295
 30
0.0
 10
633.8507998276801
 20
523.7466005346221
 30
0.0
 10
634.1792248797705
 20
521.678714143889
 30
0.0
 10
634.1633680458638
 20
519.7422911223906
 30
0.0
 10
633.8597486160583
 20
517.8284422115166
 30
0.0
 10
633.265694960061
 20
515.9774926848014
 30
0.0
 10
632.2775538972415
 20
514.0058888014869
 30
0.0
 10
631.3197248441699
 20
512.8591916688785
 30
0.0
 10
630.8119561200895
 20
512.2512993335353
 30
0.0
  0
ARC
  5
80
330
1F
100
AcDbEntity
  8
0
  6
Continuous
 62
     7
370
    25
100
AcDbCircle
 10
621.7367573437
 20
520.8472732265
 30
0.0
 40
12.5000000000001
100
AcDbArc
 50
223.4465753578
 51
316.5534246422
  0
SPLINE
  5
81
330
1F
100
AcDbEntity
  8
0
  6
Continuous
 62
     7
370
    25
100
AcDbSpline
210
0.0
220
0.0
230
1.0
 70
     8
 71
     3
 72
    21
 73
    17
 74
     0
 42
0.00000001
 43
0.00000001
 40
0.0
 40
0.0
 40
0.0
 40
0.0
 40
0.0694377721701157
 40
0.1388755443396188
 40
0.210809708479287
 40
0.2827438726193571
 40
0.354682901259434
 40
0.4266250275818225
 40
0.4988698706873112
 40
0.5711147137927923
 40
0.6435404679891216
 40
0.7159690563655129
 40
0.7719198403686081
 40
0.8448302784952252
 40
0.917740716621899
 40
1.0
 40
1.0
 40
1.0
 40
1.0
 10
621.736757343716
 20
533.1033598852988
 30
0.0
 10
621.0693731894365
 20
533.0767189716454
 30
0.0
 10
619.7346048808835
 20
533.023437144339
 30
0.0
 10
617.7576976153317
 20
532.5322625001883
 30
0.0
 10
615.8657963812676
 20
531.7297356170428
 30
0.0
 10
614.112129239545
 20
530.6074373402901
 30
0.0
 10
612.5764019619427
 20
529.2030258964688
 30
0.0
 10
611.2895888279594
 20
527.563413713983
 30
0.0
 10
610.2994433434163
 20
525.7260037985295
 30
0.0
 10
609.6227148597518
 20
523.7466005346221
 30
0.0
 10
609.2942898076616
 20
521.678714143889
 30
0.0
 10
609.3101466415683
 20
519.7422911223906
 30
0.0
 10
609.6137660713738
 20
517.8284422115166
 30
0.0
 10
610.2078197273712
 20
515.9774926848014
 30
0.0
 10
611.1959607901905
 20
514.0058888014869
 30
0.0
 10
612.1537898432622
 20
512.8591916688785
 30
0.0
 10
612.6615585673426
 20
512.2512993335353
 30
0.0
  0
CIRCLE
  5
82
330
1F
100
AcDbEntity
  8
0
  6
Continuous
 62
     7
370
    25
100
AcDbCircle
 10
621.7367573437
 20
520.8472732265
 30
0.0
 40
11.74999999999989
  0
SPLINE
  5
83
330
1F
100
AcDbEntity
  8
0
  6
Continuous
 62
     7
370
    25
100
AcDbSpline
210
0.0
220
0.0
230
1.0
 70
     8
 71
     3
 72
    15
 73
    11
 74
     0
 42
0.00000001
 43
0.00000001
 40
0.0
 40
0.0
 40
0.0
 40
0.0
 40
0.1395933393156312
 40
0.2715798944666296
 40
0.4035664496193265
 40
0.5355169385695756
 40
0.6674679576795429
 40
0.7944346000703869
 40
0.9214012424621636
 40
1.0
 40
1.0
 40
1.0
 40
1.0
 10
633.1885930657247
 20
518.0541738071445
 30
0.0
 10
632.9825477086862
 20
517.3475902836511
 30
0.0
 10
632.5816849125514
 20
515.9729267095655
 30
0.0
 10
631.5254613836131
 20
514.1138102394447
 30
0.0
 10
630.2153379264383
 20
512.4857229645557
 30
0.0
 10
628.6287875531767
 20
511.1215168497165
 30
0.0
 10
626.8573216956135
 20
510.0592934979529
 30
0.0
 10
624.952718341254
 20
509.337859581328
 30
0.0
 10
623.2306108328339
 20
508.9786586096932
 30
0.0
 10
622.149951707265
 20
508.9362329041726
 30
0.0
 10
621.736757343716
 20
508.9200112650119
 30
0.0
  0
SPLINE
  5
84
330
1F
100
AcDbEntity
  8
0
  6
Continuous
 62
     7
370
    25
100
AcDbSpline
210
0.0
220
0.0
230
1.0
 70
     8
 71
     3
 72
    15
 73
    11
 74
     0
 42
0.00000001
 43
0.00000001
 40
0.0
 40
0.0
 40
0.0
 40
0.0
 40
0.1395933393156312
 40
0.2715798944666296
 40
0.4035664496193265
 40
0.5355169385695756
 40
0.6674679576795429
 40
0.7944346000703869
 40
0.9214012424621636
 40
1.0
 40
1.0
 40
1.0
 40
1.0
 10
610.2849216217073
 20
518.0541738071445
 30
0.0
 10
610.4909669787459
 20
517.3475902836511
 30
0.0
 10
610.8918297748806
 20
515.9729267095655
 30
0.0
 10
611.9480533038189
 20
514.1138102394447
 30
0.0
 10
613.2581767609936
 20
512.4857229645557
 30
0.0
 10
614.8447271342553
 20
511.1215168497165
 30
0.0
 10
616.6161929918186
 20
510.0592934979529
 30
0.0
 10
618.520796346178
 20
509.337859581328
 30
0.0
 10
620.2429038545981
 20
508.9786586096932
 30
0.0
 10
621.3235629801669
 20
508.9362329041726
 30
0.0
 10
621.736757343716
 20
508.9200112650119
 30
0.0
  0
SPLINE
  5
85
330
1F
100
AcDbEntity
  8
0
  6
Continuous
 62
     7
370
    25
100
AcDbSpline
210
0.0
220
0.0
230
1.0
 70
     8
 71
     3
 72
    15
 73
    11
 74
     0
 42
0.00000001
 43
0.00000001
 40
0.0
 40
0.0
 40
0.0
 40
0.0
 40
0.0308352644733814
 40
0.1609905512894352
 40
0.2911458379690731
 40
0.4187778310122998
 40
0.5464098241471347
 40
0.6741202445180671
 40
0.8018182621817956
 40
1.0
 40
1.0
 40
1.0
 40
1.0
 10
621.736757343716
 20
508.6165776418117
 30
0.0
 10
621.572686985391
 20
508.6228855447946
 30
0.0
 10
620.7160775841713
 20
508.6558190316985
 30
0.0
 10
619.1760377590504
 20
508.9010967555848
 30
0.0
 10
617.2076014034659
 20
509.5573219628698
 30
0.0
 10
615.3954468462783
 20
510.5406690483167
 30
0.0
 10
613.7776435674455
 20
511.7992253501258
 30
0.0
 10
612.4079367380895
 20
513.3197868202024
 30
0.0
 10
611.0768264098599
 20
515.3598794583748
 30
0.0
 10
610.584392330983
 20
517.0352858654444
 30
0.0
 10
610.2849216217072
 20
518.0541738071446
 30
0.0
  0
SPLINE
  5
86
330
1F
100
AcDbEntity
  8
0
  6
Continuous
 62
     7
370
    25
100
AcDbSpline
210
0.0
220
0.0
230
1.0
 70
     8
 71
     3
 72
    15
 73
    11
 74
     0
 42
0.00000001
 43
0.00000001
 40
0.0
 40
0.0
 40
0.0
 40
0.0
 40
0.0308352644733814
 40
0.1609905512894352
 40
0.2911458379690731
 40
0.4187778310122998
 40
0.5464098241471347
 40
0.6741202445180671
 40
0.8018182621817956
 40
1.0
 40
1.0
 40
1.0
 40
1.0
 10
621.736757343716
 20
508.6165776418117
 30
0.0
 10
621.900827702041
 20
508.6228855447946
 30
0.0
 10
622.7574371032605
 20
508.6558190316985
 30
0.0
 10
624.2974769283816
 20
508.9010967555848
 30
0.0
 10
626.265913283966
 20
509.5573219628698
 30
0.0
 10
628.0780678411537
 20
510.5406690483167
 30
0.0
 10
629.6958711199865
 20
511.7992253501258
 30
0.0
 10
631.0655779493426
 20
513.3197868202024
 30
0.0
 10
632.396688277572
 20
515.3598794583748
 30
0.0
 10
632.889122356449
 20
517.0352858654444
 30
0.0
 10
633.1885930657247
 20
518.0541738071446
 30
0.0
  0
CIRCLE
  5
87
330
1F
100
AcDbEntity
  8
0
  6
Continuous
 62
     7
370
    25
100
AcDbCircle
 10
621.7367573437
 20
520.8472732265
 30
0.0
 40
11.04999999999995
  0
CIRCLE
  5
88
330
1F
100
AcDbEntity
  8
0
  6
Continuous
 62
     7
370
    25
100
AcDbCircle
 10
621.7367573437
 20
520.8472732265
 30
0.0
 40
10.30000000000007
  0
LINE
  5
89
330
1F
100
AcDbEntity
  8
0
  6
Continuous
 62
     7
370
    25
100
AcDbLine
 10
621.7367573437
 20
508.920011265
 30
0.0
 11
621.7367573437
 21
508.6165776418
 31
0.0
  0
LINE
  5
8A
330
1F
100
AcDbEntity
  8
0
  6
Continuous
 62
     7
370
    25
100
AcDbLine
 10
621.7367573437
 20
533.3472732265
 30
0.0
 11
621.7367573437
 21
533.1033598853
 31
0.0
  0
SPLINE
  5
8B
330
1F
100
AcDbEntity
  8
0
  6
Continuous
 62
     7
370
    25
100
AcDbSpline
210
0.0
220
0.0
230
1.0
 70
     8
 71
     3
 72
    15
 73
    11
 74
     0
 42
0.00000001
 43
0.00000001
 40
0.0
 40
0.0
 40
0.0
 40
0.0
 40
0.0715578614306938
 40
0.2000563015994354
 40
0.3307729648886055
 40
0.4606509457998711
 40
0.587828756859633
 40
0.7174772361223716
 40
0.8600533973335757
 40
1.0
 40
1.0
 40
1.0
 40
1.0
 10
634.1037478070909
 20
519.5993868302703
 30
0.0
 10
634.1637740896502
 20
520.0943467841732
 30
0.0
 10
634.3315912357681
 20
521.4781200808853
 30
0.0
 10
633.971428891444
 20
523.7824782636329
 30
0.0
 10
633.0764261486252
 20
526.3474783144432
 30
0.0
 10
631.6260632688825
 20
528.6474669508401
 30
0.0
 10
629.731835864608
 20
530.5831092338299
 30
0.0
 10
627.3927985448385
 20
532.1081705454222
 30
0.0
 10
624.6792965517099
 20
533.1475475087584
 30
0.0
 10
622.7114987048238
 20
533.2811123687817
 30
0.0
 10
621.736757343716
 20
533.3472732265454
 30
0.0
  0
SPLINE
  5
8C
330
1F
100
AcDbEntity
  8
0
  6
Continuous
 62
     7
370
    25
100
AcDbSpline
210
0.0
220
0.0
230
1.0
 70
     8
 71
     3
 72
    15
 73
    11
 74
     0
 42
0.00000001
 43
0.00000001
 40
0.0
 40
0.0
 40
0.0
 40
0.0
 40
0.0715578614306938
 40
0.2000563015994354
 40
0.3307729648886055
 40
0.4606509457998711
 40
0.587828756859633
 40
0.7174772361223716
 40
0.8600533973335757
 40
1.0
 40
1.0
 40
1.0
 40
1.0
 10
609.3697668803411
 20
519.5993868302703
 30
0.0
 10
609.3097405977817
 20
520.0943467841732
 30
0.0
 10
609.1419234516638
 20
521.4781200808853
 30
0.0
 10
609.502085795988
 20
523.7824782636329
 30
0.0
 10
610.3970885388068
 20
526.3474783144432
 30
0.0
 10
611.8474514185494
 20
528.6474669508401
 30
0.0
 10
613.741678822824
 20
530.5831092338299
 30
0.0
 10
616.0807161425935
 20
532.1081705454222
 30
0.0
 10
618.7942181357221
 20
533.1475475087584
 30
0.0
 10
620.7620159826082
 20
533.2811123687817
 30
0.0
 10
621.736757343716
 20
533.3472732265454
 30
0.0
  0
CIRCLE
  5
8D
330
1F
100
AcDbEntity
  8
0
  6
Continuous
 62
     7
370
    25
100
AcDbCircle
 10
621.7367573437
 20
520.8472732265
 30
0.0
 40
12.99999999999989
  0
SPLINE
  5
8E
330
1F
100
AcDbEntity
  8
0
  6
Continuous
 62
     7
370
    25
100
AcDbSpline
210
0.0
220
0.0
230
1.0
 70
     8
 71
     3
 72
     9
 73
     5
 74
     0
 42
0.00000001
 43
0.00000001
 40
0.0
 40
0.0
 40
0.0
 40
0.0
 40
0.8860376046734871
 40
1.0
 40
1.0
 40
1.0
 40
1.0
 10
625.4936772589964
 20
508.0813237692641
 30
0.0
 10
624.3929883906063
 20
507.8189259314512
 30
0.0
 10
623.1507286235441
 20
507.522778413074
 30
0.0
 10
621.8814117365825
 20
507.498249822125
 30
0.0
 10
621.736757343716
 20
507.4954544851464
 30
0.0
  0
SPLINE
  5
8F
330
1F
100
AcDbEntity
  8
0
  6
Continuous
 62
     7
370
    25
100
AcDbSpline
210
0.0
220
0.0
230
1.0
 70
     8
 71
     3
 72
     9
 73
     5
 74
     0
 42
0.00000001
 43
0.00000001
 40
0.0
 40
0.0
 40
0.0
 40
0.0
 40
0.8860376046734871
 40
1.0
 40
1.0
 40
1.0
 40
1.0
 10
617.9798374284355
 20
508.0813237692641
 30
0.0
 10
619.0805262968257
 20
507.8189259314512
 30
0.0
 10
620.3227860638881
 20
507.522778413074
 30
0.0
 10
621.5921029508494
 20
507.498249822125
 30
0.0
 10
621.736757343716
 20
507.4954544851464
 30
0.0
  0
SPLINE
  5
90
330
1F
100
AcDbEntity
  8
0
  6
Continuous
 62
     7
370
    25
100
AcDbSpline
210
0.0
220
0.0
230
1.0
 70
     8
 71
     3
 72
     9
 73
     5
 74
     0
 42
0.00000001
 43
0.00000001
 40
0.0
 40
0.0
 40
0.0
 40
0.0
 40
0.6076703961215972
 40
0.9999999999999999
 40
0.9999999999999999
 40
0.9999999999999999
 40
0.9999999999999999
 10
621.736757343716
 20
507.3987516672537
 30
0.0
 10
620.9605984677736
 20
507.4604902705088
 30
0.0
 10
619.6833289465065
 20
507.562089103773
 30
0.0
 10
618.4598460058826
 20
507.9350142100443
 30
0.0
 10
617.9798374284355
 20
508.0813237692641
 30
0.0
  0
SPLINE
  5
91
330
1F
100
AcDbEntity
  8
0
  6
Continuous
 62
     7
370
    25
100
AcDbSpline
210
0.0
220
0.0
230
1.0
 70
     8
 71
     3
 72
     9
 73
     5
 74
     0
 42
0.00000001
 43
0.00000001
 40
0.0
 40
0.0
 40
0.0
 40
0.0
 40
0.6076703961215972
 40
0.9999999999999999
 40
0.9999999999999999
 40
0.9999999999999999
 40
0.9999999999999999
 10
621.736757343716
 20
507.3987516672537
 30
0.0
 10
622.5129162196585
 20
507.4604902705088
 30
0.0
 10
623.7901857409254
 20
507.562089103773
 30
0.0
 10
625.0136686815493
 20
507.9350142100443
 30
0.0
 10
625.4936772589964
 20
508.0813237692641
 30
0.0
  0
SPLINE
  5
92
330
1F
100
AcDbEntity
  8
0
  6
Continuous
 62
     7
370
    25
100
AcDbSpline
210
0.0
220
0.0
230
1.0
 70
     8
 71
     3
 72
    27
 73
    23
 74
     0
 42
0.00000001
 43
0.00000001
 40
0.0
 40
0.0
 40
0.0
 40
0.0
 40
0.0618679206620066
 40
0.1146468534248492
 40
0.1674257861875588
 40
0.2204055646256669
 40
0.2733878156480862
 40
0.3264725194125324
 40
0.3795572231759711
 40
0.4330096882711969
 40
0.4864621533678989
 40
0.539899450442361
 40
0.5933377568727254
 40
0.6472174631933993
 40
0.7010971695148164
 40
0.7550111852016556
 40
0.8089283843750562
 40
0.8544151763228229
 40
0.8999019682704043
 40
0.9453887602161152
 40
0.9908755521625751
 40
0.9999999999999999
 40
0.9999999999999999
 40
0.9999999999999999
 40
0.9999999999999999
 10
621.736757343716
 20
534.692329013774
 30
0.0
 10
620.8226306135567
 20
534.6508223106964
 30
0.0
 10
619.1286710926468
 20
534.573906635287
 30
0.0
 10
616.7403242989617
 20
533.883259190813
 30
0.0
 10
614.6126394656444
 20
532.8965896183613
 30
0.0
 10
612.6837907682394
 20
531.5506698157451
 30
0.0
 10
610.9986998316642
 20
529.9053373677955
 30
0.0
 10
609.6172564389083
 20
527.9955389192203
 30
0.0
 10
608.5631591671375
 20
525.8797047118313
 30
0.0
 10
607.8841367470098
 20
523.6095277542101
 30
0.0
 10
607.5873571070847
 20
521.2534055497669
 30
0.0
 10
607.6973479262248
 20
518.8815468185066
 30
0.0
 10
608.1936876707703
 20
516.5532366009883
 30
0.0
 10
609.0820918256392
 20
514.3372927067825
 30
0.0
 10
610.3262342746623
 20
512.291422650244
 30
0.0
 10
611.9027918376862
 20
510.4885779204751
 30
0.0
 10
613.6573468011891
 20
509.0470686740216
 30
0.0
 10
615.5048261221688
 20
507.9619480488689
 30
0.0
 10
617.3697963472993
 20
507.1900521859311
 30
0.0
 10
619.3254209852287
 20
506.6939059079361
 30
0.0
 10
620.7974283644224
 20
506.5271021687295
 30
0.0
 10
621.6022823173435
 20
506.5115747201368
 30
0.0
 10
621.736757343716
 20
506.5089803934873
 30
0.0
  0
SPLINE
  5
93
330
1F
100
AcDbEntity
  8
0
  6
Continuous
 62
     7
370
    25
100
AcDbSpline
210
0.0
220
0.0
230
1.0
 70
     8
 71
     3
 72
    27
 73
    23
 74
     0
 42
0.00000001
 43
0.00000001
 40
0.0
 40
0.0
 40
0.0
 40
0.0
 40
0.0618679206620066
 40
0.1146468534248492
 40
0.1674257861875588
 40
0.2204055646256669
 40
0.2733878156480862
 40
0.3264725194125324
 40
0.3795572231759711
 40
0.4330096882711969
 40
0.4864621533678989
 40
0.539899450442361
 40
0.5933377568727254
 40
0.6472174631933993
 40
0.7010971695148164
 40
0.7550111852016556
 40
0.8089283843750562
 40
0.8544151763228229
 40
0.8999019682704043
 40
0.9453887602161152
 40
0.9908755521625751
 40
0.9999999999999999
 40
0.9999999999999999
 40
0.9999999999999999
 40
0.9999999999999999
 10
621.736757343716
 20
534.692329013774
 30
0.0
 10
622.6508840738752
 20
534.6508223106964
 30
0.0
 10
624.3448435947853
 20
534.573906635287
 30
0.0
 10
626.7331903884705
 20
533.883259190813
 30
0.0
 10
628.8608752217876
 20
532.8965896183613
 30
0.0
 10
630.7897239191926
 20
531.5506698157451
 30
0.0
 10
632.4748148557677
 20
529.9053373677955
 30
0.0
 10
633.8562582485237
 20
527.9955389192203
 30
0.0
 10
634.9103555202944
 20
525.8797047118313
 30
0.0
 10
635.5893779404222
 20
523.6095277542101
 30
0.0
 10
635.8861575803472
 20
521.2534055497669
 30
0.0
 10
635.7761667612072
 20
518.8815468185066
 30
0.0
 10
635.2798270166618
 20
516.5532366009883
 30
0.0
 10
634.3914228617928
 20
514.3372927067825
 30
0.0
 10
633.1472804127699
 20
512.291422650244
 30
0.0
 10
631.5707228497457
 20
510.4885779204751
 30
0.0
 10
629.8161678862429
 20
509.0470686740216
 30
0.0
 10
627.9686885652633
 20
507.9619480488689
 30
0.0
 10
626.1037183401328
 20
507.1900521859311
 30
0.0
 10
624.1480937022033
 20
506.6939059079361
 30
0.0
 10
622.6760863230096
 20
506.5271021687295
 30
0.0
 10
621.8712323700886
 20
506.5115747201368
 30
0.0
 10
621.736757343716
 20
506.5089803934873
 30
0.0
  0
LINE
  5
94
330
1F
100
AcDbEntity
  8
0
  6
Continuous
 62
     7
370
    25
100
AcDbLine
 10
621.7367573437
 20
507.4954544851
 30
0.0
 11
621.7367573437
 21
507.3987516673
 31
0.0
  0
LINE
  5
95
330
1F
100
AcDbEntity
  8
0
  6
Continuous
 62
     7
370
    25
100
AcDbLine
 10
621.7367573437
 20
535.3472732265
 30
0.0
 11
621.7367573437
 21
534.6923290138
 31
0.0
  0
SPLINE
  5
96
330
1F
100
AcDbEntity
  8
0
  6
Continuous
 62
     7
370
    25
100
AcDbSpline
210
0.0
220
0.0
230
1.0
 70
     8
 71
     3
 72
    20
 73
    16
 74
     0
 42
0.00000001
 43
0.00000001
 40
0.0
 40
0.0
 40
0.0
 40
0.0
 40
0.0428850211616539
 40
0.121870463660054
 40
0.202404184301378
 40
0.2829379049427021
 40
0.3619233474411025
 40
0.4409087899395021
 40
0.5214425105808264
 40
0.601976231222151
 40
0.680961673720551
 40
0.7599471162189565
 40
0.8404808368602864
 40
0.9210145575016166
 40
1.0
 40
1.0
 40
1.0
 40
1.0
 10
630.809296288947
 20
509.6235168767882
 30
0.0
 10
631.2130115347577
 20
509.9360031965086
 30
0.0
 10
632.3602877365838
 20
510.8240254392442
 30
0.0
 10
633.8547929891924
 20
512.7448152387419
 30
0.0
 10
635.2239639858193
 20
515.2583368619412
 30
0.0
 10
636.0509116565543
 20
518.0104790171532
 30
0.0
 10
636.3286039785914
 20
520.847023462796
 30
0.0
 10
636.051615723113
 20
523.6850762827081
 30
0.0
 10
635.2210831947075
 20
526.4326044214002
 30
0.0
 10
633.86550131942
 20
528.9630044262445
 30
0.0
 10
632.054609502404
 20
531.1646507057894
 30
0.0
 10
629.8523541180563
 20
532.9778001040661
 30
0.0
 10
627.3221418848944
 20
534.3248007491238
 30
0.0
 10
624.5744834911302
 20
535.18728061912
 30
0.0
 10
622.6765255919772
 20
535.2942885604416
 30
0.0
 10
621.736757343716
 20
535.3472732265454
 30
0.0
  0
SPLINE
  5
97
330
1F
100
AcDbEntity
  8
0
  6
Continuous
 62
     7
370
    25
100
AcDbSpline
210
0.0
220
0.0
230
1.0
 70
     8
 71
     3
 72
    11
 73
     7
 74
     0
 42
0.00000001
 43
0.00000001
 40
0.0
 40
0.0
 40
0.0
 40
0.0
 40
0.0782861290711543
 40
0.3875056902922062
 40
0.6967252515132594
 40
1.0
 40
1.0
 40
1.0
 40
1.0
 10
613.0967119948625
 20
532.4266599593532
 30
0.0
 10
613.2812937192847
 20
532.58397469074
 30
0.0
 10
614.1949481480602
 20
533.3626612128926
 30
0.0
 10
616.1684568059882
 20
534.3029506704163
 30
0.0
 10
618.8948558586768
 20
535.1926207875413
 30
0.0
 10
620.79560635113
 20
535.2960570611573
 30
0.0
 10
621.736757343716
 20
535.3472732265454
 30
0.0
  0
CIRCLE
  5
98
330
1F
100
AcDbEntity
  8
0
  6
Continuous
 62
     7
370
    25
100
AcDbCircle
 10
621.7367573437
 20
520.8472732265
 30
0.0
 40
4.999999999999886
  0
LINE
  5
99
330
1F
100
AcDbEntity
  8
0
  6
Continuous
 62
     7
370
    25
100
AcDbLine
 10
517.5690111317
 20
504.3458587602
 30
0.0
 11
516.5568864186
 21
504.5354822716
 31
0.0
  0
LINE
  5
9A
330
1F
100
AcDbEntity
  8
0
  6
Continuous
 62
     7
370
    25
100
AcDbLine
 10
507.7164176823
 20
509.6837091588
 30
0.0
 11
507.1292761011
 21
510.3737145322
 31
0.0
  0
LWPOLYLINE
  5
9B
330
1F
100
AcDbEntity
  8
0
  6
Continuous
 62
     7
370
    25
100
AcDbPolyline
 90
        3
 70
   128
 43
0.0
 10
507.2940419591
 20
531.5222281
 10
507.643504819
 20
531.9291792609
 10
508.0183272766
 20
532.3378629724
  0
LINE
  5
9C
330
1F
100
AcDbEntity
  8
0
  6
Continuous
 62
     7
370
    25
100
AcDbLine
 10
519.2061141592
 20
504.6040247845
 30
0.0
 11
517.5690111317
 21
504.3458587602
 31
0.0
  0
LINE
  5
9D
330
1F
100
AcDbEntity
  8
0
  6
Continuous
 62
     7
370
    25
100
AcDbLine
 10
521.0674005282
 20
537.0905216685
 30
0.0
 11
522.7045035557
 21
537.3486876929
 31
0.0
  0
LINE
  5
9E
330
1F
100
AcDbEntity
  8
0
  6
Continuous
 62
     7
370
    25
100
AcDbLine
 10
522.7045035557
 20
537.3486876929
 30
0.0
 11
523.7166282688
 21
537.1590641815
 31
0.0
  0
ARC
  5
9F
330
1F
100
AcDbEntity
  8
0
  6
Continuous
 62
     7
370
    25
100
AcDbCircle
 10
520.1367573437
 20
520.8472732265
 30
0.0
 40
16.69999999999999
100
AcDbArc
 50
18.0673642379
 51
41.9496190324
  0
ARC
  5
A0
330
1F
100
AcDbEntity
  8
0
  6
Continuous
 62
     7
370
    25
100
AcDbCircle
 10
520.1367573437
 20
520.8472732265
 30
0.0
 40
16.70000000000007
100
AcDbArc
 50
316.5233213642
 51
341.5816359963
  0
LINE
  5
A1
330
1F
100
AcDbEntity
  8
0
  6
Continuous
 62
     7
370
    25
100
AcDbLine
 10
624.0075083975
 20
535.2467412976
 30
0.0
 11
624.0343924841
 21
535.4172208161
 31
0.0
  0
ARC
  5
A2
330
1F
100
AcDbEntity
  8
0
  6
Continuous
 62
     7
370
    25
100
AcDbCircle
 10
621.7367573437
 20
520.8472732265
 30
0.0
 40
14.75000000000002
100
AcDbArc
 50
81.0384348577
 51
52.6736919228
  0
SPLINE
  5
A3
330
1F
100
AcDbEntity
  8
0
  6
Continuous
 62
     7
370
    25
100
AcDbSpline
210
0.0
220
0.0
230
1.0
 70
     8
 71
     3
 72
    23
 73
    19
 74
     0
 42
0.00000001
 43
0.00000001
 40
0.0
 40
0.0
 40
0.0
 40
0.0
 40
0.0756300362496875
 40
0.1434681871485365
 40
0.2012688821431894
 40
0.26423058415159
 40
0.3271922861602949
 40
0.3901539881686417
 40
0.4531158795052892
 40
0.5160807200012344
 40
0.5790455604980465
 40
0.6420104009952146
 40
0.7049752414920317
 40
0.7679402374752009
 40
0.8309082955816489
 40
0.893876353689021
 40
0.9568444117967758
 40
1.0
 40
1.0
 40
1.0
 40
1.0
 10
630.6804727669888
 20
532.576401686389
 30
0.0
 10
631.3681744763114
 20
531.9793331688167
 30
0.0
 10
632.6727265091805
 20
530.8467099139925
 30
0.0
 10
634.110307353275
 20
528.8818871207352
 30
0.0
 10
635.1764095542236
 20
526.8780725927054
 30
0.0
 10
635.910265600398
 20
524.7872181085958
 30
0.0
 10
636.3251259472031
 20
522.5485032794054
 30
0.0
 10
636.3888992558822
 20
520.2721852221931
 30
0.0
 10
636.1010613648047
 20
518.0132393689049
 30
0.0
 10
635.4654596836333
 20
515.8263363250554
 30
0.0
 10
634.4971006941212
 20
513.7650581346758
 30
0.0
 10
633.2197450443136
 20
511.8796502830707
 30
0.0
 10
631.6644002322308
 20
510.2159138673726
 30
0.0
 10
629.8692989610083
 20
508.8150167643026
 30
0.0
 10
627.8766360157614
 20
507.7090599821829
 30
0.0
 10
625.7352856179665
 20
506.9431049693489
 30
0.0
 10
623.7338573118137
 20
506.5218336419956
 30
0.0
 10
622.4575212067436
 20
506.5149979376346
 30
0.0
 10
621.9384942294959
 20
506.5122181722125
 30
0.0
  0
SPLINE
  5
A4
330
1F
100
AcDbEntity
  8
0
  6
Continuous
 62
     7
370
    25
100
AcDbSpline
210
0.0
220
0.0
230
1.0
 70
     8
 71
     3
 72
    12
 73
     8
 74
     0
 42
0.00000001
 43
0.00000001
 40
0.0
 40
0.0
 40
0.0
 40
0.0
 40
0.0370745301879338
 40
0.1854268129299957
 40
0.4824853423318844
 40
0.739879653547053
 40
0.9999999999999999
 40
0.9999999999999999
 40
0.9999999999999999
 40
0.9999999999999999
 10
624.0508633090674
 20
535.5216669280372
 30
0.0
 10
624.1166548549128
 20
535.5109938008715
 30
0.0
 10
624.4457086986699
 20
535.4576125727261
 30
0.0
 10
625.2965240754801
 20
535.286008674299
 30
0.0
 10
626.5116509086181
 20
534.9317591463918
 30
0.0
 10
627.8741028712244
 20
534.3847172135436
 30
0.0
 10
628.6849509364146
 20
533.9267127573486
 30
0.0
 10
629.0925105610798
 20
533.6965042481652
 30
0.0
  0
SPLINE
  5
A5
330
1F
100
AcDbEntity
  8
0
  6
Continuous
 62
     7
370
    25
100
AcDbSpline
210
0.0
220
0.0
230
1.0
 70
     8
 71
     3
 72
    10
 73
     6
 74
     0
 42
0.00000001
 43
0.00000001
 40
0.0
 40
0.0
 40
0.0
 40
0.0
 40
0.3438709530842323
 40
0.6943967914132424
 40
1.0
 40
1.0
 40
1.0
 40
1.0
 10
624.0430747153714
 20
535.4722772751915
 30
0.0
 10
624.8764730861777
 20
535.2957165759259
 30
0.0
 10
626.5593984669538
 20
534.9391782235004
 30
0.0
 10
628.8491760098058
 20
533.9342574037588
 30
0.0
 10
630.1662814712314
 20
532.9811532362718
 30
0.0
 10
630.7797456319037
 20
532.5372288389742
 30
0.0
  0
LINE
  5
A6
330
1F
100
AcDbEntity
  8
0
  6
Continuous
 62
     7
370
    25
100
AcDbLine
 10
629.0925105611
 20
533.6965042482
 30
0.0
 11
631.0645609592
 21
532.3451827301
 31
0.0
  0
LINE
  5
A7
330
1F
100
AcDbEntity
  8
0
  6
Continuous
 62
     7
370
    25
100
AcDbLine
 10
624.0343924841
 20
535.4172208161
 30
0.0
 11
624.0508633091
 21
535.521666928
 31
0.0
  0
ARC
  5
A8
330
1F
100
AcDbEntity
  8
0
  6
Continuous
 62
     7
370
    25
100
AcDbCircle
 10
621.7367573437
 20
520.8472732265
 30
0.0
 40
16.20000000000006
100
AcDbArc
 50
92.0821003847
 51
249.9947693307
  0
LINE
  5
A9
330
1F
100
AcDbEntity
  8
0
  6
Continuous
 62
     7
370
    25
100
AcDbLine
 10
627.2788733886
 20
536.0697877936
 30
0.0
 11
621.1481868896
 21
537.0365778694
 31
0.0
  0
ARC
  5
AA
330
1F
100
AcDbEntity
  8
0
  6
Continuous
 62
     7
370
    25
100
AcDbCircle
 10
621.7367573437
 20
520.8472732265
 30
0.0
 40
16.20000000000008
100
AcDbArc
 50
272.0821003847
 51
69.9947693307
  0
LINE
  5
AB
330
1F
100
AcDbEntity
  8
0
  6
Continuous
 62
     7
370
    25
100
AcDbLine
 10
616.1946412988
 20
505.6247586595
 30
0.0
 11
622.3253277979
 21
504.6579685836
 31
0.0
  0
LINE
  5
AC
330
1F
100
AcDbEntity
  8
0
  6
Continuous
 62
     7
370
    25
100
AcDbLine
 10
629.0925105611
 20
533.6965042482
 30
0.0
 11
630.680472767
 21
532.5764016864
 31
0.0
  0
ARC
  5
AD
330
1F
100
AcDbEntity
  8
0
  6
Continuous
 62
     7
370
    25
100
AcDbCircle
 10
621.7367573437
 20
520.8472732265
 30
0.0
 40
16.70000000000007
100
AcDbArc
 50
98.8447284216
 51
243.2321412939
  0
LINE
  5
AE
330
1F
100
AcDbEntity
  8
0
  6
Continuous
 62
     7
370
    25
100
AcDbLine
 10
616.1946412988
 20
505.6247586595
 30
0.0
 11
614.215465541
 21
505.9368684829
 31
0.0
  0
SPLINE
  5
AF
330
1F
100
AcDbEntity
  8
0
  6
Continuous
 62
     7
370
    25
100
AcDbSpline
210
0.0
220
0.0
230
1.0
 70
    24
 71
     3
 72
     9
 73
     5
 74
     0
 42
0.00000001
 43
0.00000001
 40
0.0
 40
0.0
 40
0.0
 40
0.0
 40
0.9076164894784522
 40
1.0
 40
1.0
 40
1.0
 40
1.0
 10
619.1690111317193
 20
537.3486876929109
 30
0.0
 10
619.7637031491652
 20
537.2549066227615
 30
0.0
 10
620.4189270508238
 20
537.1515798638975
 30
0.0
 10
621.08651295972
 20
537.0463036551773
 30
0.0
 10
621.1481868895586
 20
537.0365778694413
 30
0.0
  0
ARC
  5
B0
330
1F
100
AcDbEntity
  8
0
  6
Continuous
 62
     7
370
    25
100
AcDbCircle
 10
621.7367573437
 20
520.8472732265
 30
0.0
 40
16.70000000000007
100
AcDbArc
 50
278.8447284216
 51
63.2321412939
  0
SPLINE
  5
B1
330
1F
100
AcDbEntity
  8
0
  6
Continuous
 62
     7
370
    25
100
AcDbSpline
210
0.0
220
0.0
230
1.0
 70
    24
 71
     3
 72
     9
 73
     5
 74
     0
 42
0.00000001
 43
0.00000001
 40
0.0
 40
0.0
 40
0.0
 40
0.0
 40
0.9076164894784293
 40
1.0
 40
1.0
 40
1.0
 40
1.0
 10
624.3045035557128
 20
504.3458587601799
 30
0.0
 10
623.709811538267
 20
504.4396398303293
 30
0.0
 10
623.0545876366083
 20
504.5429665891932
 30
0.0
 10
622.387001727712
 20
504.6482427979134
 30
0.0
 10
622.3253277978735
 20
504.6579685836494
 30
0.0
  0
LINE
  5
B2
330
1F
100
AcDbEntity
  8
0
  6
Continuous
 62
     7
370
    25
100
AcDbLine
 10
627.2788733886
 20
536.0697877936
 30
0.0
 11
629.2580491464
 21
535.7576779702
 31
0.0
  0
ARC
  5
B3
330
1F
100
AcDbEntity
  8
0
  6
Continuous
 62
     7
370
    25
100
AcDbCircle
 10
723.3367573437
 20
520.8472732265
 30
0.0
 40
16.70000000000003
100
AcDbArc
 50
199.7113763603
 51
223.5655922721
  0
ARC
  5
B4
330
1F
100
AcDbEntity
  8
0
  6
Continuous
 62
     7
370
    25
100
AcDbCircle
 10
723.3367573437
 20
520.8472732265
 30
0.0
 40
16.70000000000005
100
AcDbArc
 50
140.6190368107
 51
164.0351692547
  0
LINE
  5
B5
330
1F
100
AcDbEntity
  8
0
  6
Continuous
 62
     7
370
    25
100
AcDbLine
 10
718.899871827
 20
536.947088347
 30
0.0
 11
720.7690111317
 21
537.3486876929
 31
0.0
  0
LINE
  5
B6
330
1F
100
AcDbEntity
  8
0
  6
Continuous
 62
     7
370
    25
100
AcDbLine
 10
720.7690111317
 20
537.3486876929
 30
0.0
 11
722.4904462198
 21
537.0772227665
 31
0.0
  0
LWPOLYLINE
  5
B7
330
1F
100
AcDbEntity
  8
0
  6
Continuous
 62
     7
370
    25
100
AcDbPolyline
 90
        3
 70
   128
 43
0.0
 10
735.4373413188
 20
532.3566549415
 10
735.8300098685
 20
531.9291792609
 10
735.8688338003
 20
531.8852558179
  0
LWPOLYLINE
  5
B8
330
1F
100
AcDbEntity
  8
0
  6
Continuous
 62
     7
370
    25
100
AcDbPolyline
 90
        3
 70
   128
 43
0.0
 10
736.6385362419
 20
510.750111341
 10
736.5253673458
 20
510.6027348664
 10
736.2449292119
 20
510.2515618761
  0
LINE
  5
B9
330
1F
100
AcDbEntity
  8
0
  6
Continuous
 62
     7
370
    25
100
AcDbLine
 10
727.7736428604
 20
504.7474581061
 30
0.0
 11
725.9045035557
 21
504.3458587602
 31
0.0
  0
LINE
  5
BA
330
1F
100
AcDbEntity
  8
0
  6
Continuous
 62
     7
370
    25
100
AcDbLine
 10
725.9045035557
 20
504.3458587602
 30
0.0
 11
724.1830684677
 21
504.6173236866
 31
0.0
  0
LINE
  5
BB
330
1F
100
AcDbEntity
  8
0
  6
Continuous
 62
     7
370
    25
100
AcDbLine
 10
722.6425117708
 20
523.4237093473
 30
0.0
 11
723.8417164771
 21
523.4673908334
 31
0.0
  0
LINE
  5
BC
330
1F
100
AcDbEntity
  8
0
  6
Continuous
 62
     7
370
    25
100
AcDbLine
 10
722.6880133187
 20
522.1745377782
 30
0.0
 11
722.6425117708
 21
523.4237093473
 31
0.0
  0
LINE
  5
BD
330
1F
100
AcDbEntity
  8
0
  6
Continuous
 62
     7
370
    25
100
AcDbLine
 10
720.7166397369
 20
521.35223236
 30
0.0
 11
721.965811306
 21
521.3977339079
 31
0.0
  0
LINE
  5
BE
330
1F
100
AcDbEntity
  8
0
  6
Continuous
 62
     7
370
    25
100
AcDbLine
 10
720.7603212229
 20
520.1530276536
 30
0.0
 11
720.7166397369
 21
521.35223236
 31
0.0
  0
LINE
  5
BF
330
1F
100
AcDbEntity
  8
0
  6
Continuous
 62
     7
370
    25
100
AcDbLine
 10
722.0094927921
 20
520.1985292016
 30
0.0
 11
720.7603212229
 21
520.1530276536
 31
0.0
  0
LINE
  5
C0
330
1F
100
AcDbEntity
  8
0
  6
Continuous
 62
     7
370
    25
100
AcDbLine
 10
722.8317982103
 20
518.2271556197
 30
0.0
 11
722.7862966623
 21
519.4763271889
 31
0.0
  0
LINE
  5
C1
330
1F
100
AcDbEntity
  8
0
  6
Continuous
 62
     7
370
    25
100
AcDbLine
 10
724.0310029167
 20
518.2708371058
 30
0.0
 11
722.8317982103
 21
518.2271556197
 31
0.0
  0
LINE
  5
C2
330
1F
100
AcDbEntity
  8
0
  6
Continuous
 62
     7
370
    25
100
AcDbLine
 10
723.9855013687
 20
519.5200086749
 30
0.0
 11
724.0310029167
 21
518.2708371058
 31
0.0
  0
LINE
  5
C3
330
1F
100
AcDbEntity
  8
0
  6
Continuous
 62
     7
370
    25
100
AcDbLine
 10
725.9568749505
 20
520.3423140931
 30
0.0
 11
724.7077033814
 21
520.2968125452
 31
0.0
  0
LINE
  5
C4
330
1F
100
AcDbEntity
  8
0
  6
Continuous
 62
     7
370
    25
100
AcDbLine
 10
725.9131934645
 20
521.5415187995
 30
0.0
 11
725.9568749505
 21
520.3423140931
 31
0.0
  0
LINE
  5
C5
330
1F
100
AcDbEntity
  8
0
  6
Continuous
 62
     7
370
    25
100
AcDbLine
 10
724.6640218954
 20
521.4960172515
 30
0.0
 11
725.9131934645
 21
521.5415187995
 31
0.0
  0
LINE
  5
C6
330
1F
100
AcDbEntity
  8
0
  6
Continuous
 62
     7
370
    25
100
AcDbLine
 10
723.8417164771
 20
523.4673908334
 30
0.0
 11
723.8872180251
 21
522.2182192642
 31
0.0
  0
CIRCLE
  5
C7
330
1F
100
AcDbEntity
  8
0
  6
Continuous
 62
     7
370
    25
100
AcDbCircle
 10
723.3367573437
 20
520.8472732265
 30
0.0
 40
4.197433366238876
  0
SPLINE
  5
C8
330
1F
100
AcDbEntity
  8
0
  6
Continuous
 62
     7
370
    25
100
AcDbSpline
210
0.0
220
0.0
230
1.0
 70
     8
 71
     3
 72
    12
 73
     8
 74
     0
 42
0.00000001
 43
0.00000001
 40
0.0
 40
0.0
 40
0.0
 40
0.0
 40
0.2133534395475955
 40
0.4267919313634705
 40
0.6383539739092094
 40
0.8490950351927861
 40
1.0
 40
1.0
 40
1.0
 40
1.0
 10
724.7077033814021
 20
520.2968125451588
 30
0.0
 10
724.6245598351309
 20
520.2856770770237
 30
0.0
 10
724.4582395978347
 20
520.2634017016557
 30
0.0
 10
724.2391887415831
 20
520.1279370757445
 30
0.0
 10
724.0770364556118
 20
519.9345123245979
 30
0.0
 10
723.9921160689631
 20
519.7203031260603
 30
0.0
 10
723.9874488649052
 20
519.5789792507858
 30
0.0
 10
723.9855013686982
 20
519.5200086749018
 30
0.0
  0
SPLINE
  5
C9
330
1F
100
AcDbEntity
  8
0
  6
Continuous
 62
     7
370
    25
100
AcDbSpline
210
0.0
220
0.0
230
1.0
 70
     8
 71
     3
 72
    12
 73
     8
 74
     0
 42
0.00000001
 43
0.00000001
 40
0.0
 40
0.0
 40
0.0
 40
0.0
 40
0.2133534395476188
 40
0.4267919313634571
 40
0.6383539739091917
 40
0.849095035192764
 40
1.0
 40
1.0
 40
1.0
 40
1.0
 10
721.9658113060297
 20
521.3977339079319
 30
0.0
 10
722.0489548523009
 20
521.4088693760671
 30
0.0
 10
722.2152750895972
 20
521.431144751435
 30
0.0
 10
722.4343259458487
 20
521.5666093773461
 30
0.0
 10
722.5964782318199
 20
521.760034128493
 30
0.0
 10
722.6813986184688
 20
521.9742433270303
 30
0.0
 10
722.6860658225268
 20
522.115567202305
 30
0.0
 10
722.6880133187336
 20
522.174537778189
 30
0.0
  0
SPLINE
  5
CA
330
1F
100
AcDbEntity
  8
0
  6
Continuous
 62
     7
370
    25
100
AcDbSpline
210
0.0
220
0.0
230
1.0
 70
     8
 71
     3
 72
    12
 73
     8
 74
     0
 42
0.00000001
 43
0.00000001
 40
0.0
 40
0.0
 40
0.0
 40
0.0
 40
0.213353439547567
 40
0.4267919313634244
 40
0.6383539739091397
 40
0.8490950351927413
 40
1.0
 40
1.0
 40
1.0
 40
1.0
 10
723.8872180251025
 20
522.2182192642315
 30
0.0
 10
723.8983534932376
 20
522.1350757179604
 30
0.0
 10
723.9206288686056
 20
521.9687554806642
 30
0.0
 10
724.0560934945167
 20
521.7497046244125
 30
0.0
 10
724.2495182456635
 20
521.5875523384414
 30
0.0
 10
724.4637274442009
 20
521.5026319517924
 30
0.0
 10
724.6050513194756
 20
521.4979647477346
 30
0.0
 10
724.6640218953596
 20
521.4960172515275
 30
0.0
  0
SPLINE
  5
CB
330
1F
100
AcDbEntity
  8
0
  6
Continuous
 62
     7
370
    25
100
AcDbSpline
210
0.0
220
0.0
230
1.0
 70
     8
 71
     3
 72
    12
 73
     8
 74
     0
 42
0.00000001
 43
0.00000001
 40
0.0
 40
0.0
 40
0.0
 40
0.0
 40
0.2133534395475725
 40
0.4267919313634152
 40
0.6383539739091512
 40
0.8490950351927551
 40
1.0
 40
1.0
 40
1.0
 40
1.0
 10
722.7862966623293
 20
519.4763271888592
 30
0.0
 10
722.7751611941943
 20
519.5594707351304
 30
0.0
 10
722.7528858188263
 20
519.7257909724265
 30
0.0
 10
722.617421192915
 20
519.9448418286782
 30
0.0
 10
722.4239964417685
 20
520.1069941146494
 30
0.0
 10
722.2097872432308
 20
520.1919145012982
 30
0.0
 10
722.0684633679563
 20
520.1965817053562
 30
0.0
 10
722.0094927920723
 20
520.1985292015631
 30
0.0
  0
LINE
  5
CC
330
1F
100
AcDbEntity
  8
0
  6
Continuous
 62
     7
370
    25
100
AcDbLine
 10
520.7165022773
 20
518.2426819319
 30
0.0
 11
519.5165386268
 21
518.2520220358
 31
0.0
  0
LINE
  5
CD
330
1F
100
AcDbEntity
  8
0
  6
Continuous
 62
     7
370
    25
100
AcDbLine
 10
520.7262315521
 20
519.4926440678
 30
0.0
 11
520.7165022773
 21
518.2426819319
 31
0.0
  0
LINE
  5
CE
330
1F
100
AcDbEntity
  8
0
  6
Continuous
 62
     7
370
    25
100
AcDbLine
 10
522.7320085345
 20
520.2270545097
 30
0.0
 11
521.4820463986
 21
520.2367837845
 31
0.0
  0
LINE
  5
CF
330
1F
100
AcDbEntity
  8
0
  6
Continuous
 62
     7
370
    25
100
AcDbLine
 10
522.7413486383
 20
521.4270181601
 30
0.0
 11
522.7320085345
 21
520.2270545097
 31
0.0
  0
LINE
  5
D0
330
1F
100
AcDbEntity
  8
0
  6
Continuous
 62
     7
370
    25
100
AcDbLine
 10
521.4913865024
 20
521.436747435
 30
0.0
 11
522.7413486383
 21
521.4270181601
 31
0.0
  0
LINE
  5
D1
330
1F
100
AcDbEntity
  8
0
  6
Continuous
 62
     7
370
    25
100
AcDbLine
 10
520.7569760606
 20
523.4425244173
 30
0.0
 11
520.7472467858
 21
522.1925622814
 31
0.0
  0
LINE
  5
D2
330
1F
100
AcDbEntity
  8
0
  6
Continuous
 62
     7
370
    25
100
AcDbLine
 10
519.5570124101
 20
523.4518645212
 30
0.0
 11
520.7569760606
 21
523.4425244173
 31
0.0
  0
LINE
  5
D3
330
1F
100
AcDbEntity
  8
0
  6
Continuous
 62
     7
370
    25
100
AcDbLine
 10
519.5472831353
 20
522.2019023852
 30
0.0
 11
519.5570124101
 21
523.4518645212
 31
0.0
  0
LINE
  5
D4
330
1F
100
AcDbEntity
  8
0
  6
Continuous
 62
     7
370
    25
100
AcDbLine
 10
517.5415061529
 20
521.4674919434
 30
0.0
 11
518.7914682888
 21
521.4577626686
 31
0.0
  0
LINE
  5
D5
330
1F
100
AcDbEntity
  8
0
  6
Continuous
 62
     7
370
    25
100
AcDbLine
 10
517.5321660491
 20
520.2675282929
 30
0.0
 11
517.5415061529
 21
521.4674919434
 31
0.0
  0
LINE
  5
D6
330
1F
100
AcDbEntity
  8
0
  6
Continuous
 62
     7
370
    25
100
AcDbLine
 10
518.782128185
 20
520.2577990181
 30
0.0
 11
517.5321660491
 21
520.2675282929
 31
0.0
  0
SPLINE
  5
D7
330
1F
100
AcDbEntity
  8
0
  6
Continuous
 62
     7
370
    25
100
AcDbSpline
210
0.0
220
0.0
230
1.0
 70
     8
 71
     3
 72
    12
 73
     8
 74
     0
 42
0.00000001
 43
0.00000001
 40
0.0
 40
0.0
 40
0.0
 40
0.0
 40
0.2133534395475801
 40
0.426791931363425
 40
0.6383539739091328
 40
0.8490950351927269
 40
1.0
 40
1.0
 40
1.0
 40
1.0
 10
519.5262679016693
 20
519.5019841716766
 30
0.0
 10
519.5188164541686
 20
519.5855384885447
 30
0.0
 10
519.5039105886855
 20
519.7526804307861
 30
0.0
 10
519.3782555383069
 20
519.9775020285302
 30
0.0
 10
519.192183263962
 20
520.1480411938908
 30
0.0
 10
518.9819348534329
 20
520.2423420882486
 30
0.0
 10
518.8409551481892
 20
520.2532481978102
 30
0.0
 10
518.7821281850166
 20
520.2577990181176
 30
0.0
  0
LINE
  5
D8
330
1F
100
AcDbEntity
  8
0
  6
Continuous
 62
     7
370
    25
100
AcDbLine
 10
519.5165386268
 20
518.2520220358
 30
0.0
 11
519.5262679017
 21
519.5019841717
 31
0.0
  0
CIRCLE
  5
D9
330
1F
100
AcDbEntity
  8
0
  6
Continuous
 62
     7
370
    25
100
AcDbCircle
 10
520.1367573437
 20
520.8472732265
 30
0.0
 40
4.197433366238887
  0
SPLINE
  5
DA
330
1F
100
AcDbEntity
  8
0
  6
Continuous
 62
     7
370
    25
100
AcDbSpline
210
0.0
220
0.0
230
1.0
 70
     8
 71
     3
 72
    12
 73
     8
 74
     0
 42
0.00000001
 43
0.00000001
 40
0.0
 40
0.0
 40
0.0
 40
0.0
 40
0.213353439547597
 40
0.4267919313634591
 40
0.6383539739092016
 40
0.8490950351927811
 40
1.0
 40
1.0
 40
1.0
 40
1.0
 10
518.7914682888473
 20
521.4577626685921
 30
0.0
 10
518.8750226057153
 20
521.4652141160927
 30
0.0
 10
519.0421645479569
 20
521.4801199815759
 30
0.0
 10
519.2669861457009
 20
521.6057750319543
 30
0.0
 10
519.4375253110614
 20
521.7918473062995
 30
0.0
 10
519.5318262054194
 20
522.0020957168283
 30
0.0
 10
519.542732314981
 20
522.143075422072
 30
0.0
 10
519.5472831352882
 20
522.2019023852446
 30
0.0
  0
SPLINE
  5
DB
330
1F
100
AcDbEntity
  8
0
  6
Continuous
 62
     7
370
    25
100
AcDbSpline
210
0.0
220
0.0
230
1.0
 70
     8
 71
     3
 72
    12
 73
     8
 74
     0
 42
0.00000001
 43
0.00000001
 40
0.0
 40
0.0
 40
0.0
 40
0.0
 40
0.2133534395475843
 40
0.4267919313634125
 40
0.6383539739091403
 40
0.8490950351927413
 40
1.0
 40
1.0
 40
1.0
 40
1.0
 10
520.7472467857629
 20
522.1925622814139
 30
0.0
 10
520.7546982332635
 20
522.1090079645459
 30
0.0
 10
520.7696040987465
 20
521.9418660223046
 30
0.0
 10
520.8952591491251
 20
521.7170444245604
 30
0.0
 10
521.08133142347
 20
521.5465052591998
 30
0.0
 10
521.2915798339992
 20
521.452204364842
 30
0.0
 10
521.4325595392428
 20
521.4412982552805
 30
0.0
 10
521.4913865024154
 20
521.4367474349731
 30
0.0
  0
SPLINE
  5
DC
330
1F
100
AcDbEntity
  8
0
  6
Continuous
 62
     7
370
    25
100
AcDbSpline
210
0.0
220
0.0
230
1.0
 70
     8
 71
     3
 72
    12
 73
     8
 74
     0
 42
0.00000001
 43
0.00000001
 40
0.0
 40
0.0
 40
0.0
 40
0.0
 40
0.2133534395476194
 40
0.4267919313634451
 40
0.6383539739091831
 40
0.8490950351927581
 40
1.0
 40
1.0
 40
1.0
 40
1.0
 10
521.4820463985847
 20
520.2367837844985
 30
0.0
 10
521.3984920817167
 20
520.2293323369979
 30
0.0
 10
521.2313501394752
 20
520.2144264715147
 30
0.0
 10
521.0065285417311
 20
520.0887714211362
 30
0.0
 10
520.8359893763705
 20
519.9026991467912
 30
0.0
 10
520.7416884820127
 20
519.6924507362621
 30
0.0
 10
520.730782372451
 20
519.5514710310185
 30
0.0
 10
520.7262315521438
 20
519.492644067846
 30
0.0
  0
SPLINE
  5
DD
330
1F
100
AcDbEntity
  8
0
  6
Continuous
 62
     7
370
    25
100
AcDbSpline
210
0.0
220
0.0
230
1.0
 70
     8
 71
     3
 72
    11
 73
     7
 74
     0
 42
0.00000001
 43
0.00000001
 40
0.0
 40
0.0
 40
0.0
 40
0.0
 40
0.2200386424382254
 40
0.6637869905998103
 40
0.8890365590789634
 40
1.0
 40
1.0
 40
1.0
 40
1.0
 10
513.4144210236838
 20
515.124525625135
 30
0.0
 10
513.2122684979317
 20
515.3911257500339
 30
0.0
 10
512.6024382643685
 20
516.1953740067911
 30
0.0
 10
512.088736549112
 20
517.462580018732
 30
0.0
 10
511.8461948741709
 20
518.6310730308841
 30
0.0
 10
511.8708809469844
 20
519.1421761694378
 30
0.0
 10
511.879028316377
 20
519.3108601921667
 30
0.0
  0
SPLINE
  5
DE
330
1F
100
AcDbEntity
  8
0
  6
Continuous
 62
     7
370
    25
100
AcDbSpline
210
0.0
220
0.0
230
1.0
 70
     8
 71
     3
 72
     9
 73
     5
 74
     0
 42
0.00000001
 43
0.00000001
 40
0.0
 40
0.0
 40
0.0
 40
0.0
 40
0.9209630919903157
 40
0.9999999999999999
 40
0.9999999999999999
 40
0.9999999999999999
 40
0.9999999999999999
 10
511.7769215499491
 20
515.4576043360688
 30
0.0
 10
512.2908851964808
 20
515.3967750397003
 30
0.0
 10
512.8489571224914
 20
515.3307253826645
 30
0.0
 10
513.3730021268791
 20
515.1396292709385
 30
0.0
 10
513.4144210236838
 20
515.124525625135
 30
0.0
  0
SPLINE
  5
DF
330
1F
100
AcDbEntity
  8
0
  6
Continuous
 62
     7
370
    25
100
AcDbSpline
210
0.0
220
0.0
230
1.0
 70
     8
 71
     3
 72
    10
 73
     6
 74
     0
 42
0.00000001
 43
0.00000001
 40
0.0
 40
0.0
 40
0.0
 40
0.0
 40
0.2596150688488826
 40
0.6297606444810657
 40
1.0
 40
1.0
 40
1.0
 40
1.0
 10
464.623360772251
 20
518.4162674881003
 30
0.0
 10
468.6987243563127
 20
518.0847830440642
 30
0.0
 10
478.5845280139088
 20
517.2806854312518
 30
0.0
 10
494.3071963149036
 20
516.3324337089227
 30
0.0
 10
505.9531880968398
 20
515.7492387502285
 30
0.0
 10
511.7769215499491
 20
515.4576043360688
 30
0.0
  0
SPLINE
  5
E0
330
1F
100
AcDbEntity
  8
0
  6
Continuous
 62
     7
370
    25
100
AcDbSpline
210
0.0
220
0.0
230
1.0
 70
     8
 71
     3
 72
    11
 73
     7
 74
     0
 42
0.00000001
 43
0.00000001
 40
0.0
 40
0.0
 40
0.0
 40
0.0
 40
0.0614641195413897
 40
0.4999988937835386
 40
0.9375097801832794
 40
1.0
 40
1.0
 40
1.0
 40
1.0
 10
464.6679288861334
 20
524.1421263863039
 30
0.0
 10
464.6553536098937
 20
524.025763767735
 30
0.0
 10
464.5530561352734
 20
523.0791760512541
 30
0.0
 10
464.4553671372866
 20
521.282637787865
 30
0.0
 10
464.5249306157355
 20
519.4828438038172
 30
0.0
 10
464.612425630974
 20
518.5347592502586
 30
0.0
 10
464.623360772251
 20
518.4162674881003
 30
0.0
  0
SPLINE
  5
E1
330
1F
100
AcDbEntity
  8
0
  6
Continuous
 62
     7
370
    25
100
AcDbSpline
210
0.0
220
0.0
230
1.0
 70
     8
 71
     3
 72
    11
 73
     7
 74
     0
 42
0.00000001
 43
0.00000001
 40
0.0
 40
0.0
 40
0.0
 40
0.0
 40
0.2594589277291881
 40
0.6296002946237413
 40
0.8147836738016284
 40
1.0
 40
1.0
 40
1.0
 40
1.0
 10
511.8618320251273
 20
526.3664213691027
 30
0.0
 10
507.777666910078
 20
526.2327075041824
 30
0.0
 10
497.8670749630896
 20
525.9082388513364
 30
0.0
 10
485.0470470644792
 20
525.3297521719537
 30
0.0
 10
473.3978548668026
 20
524.7429840596812
 30
0.0
 10
467.5780767692693
 20
524.3424241540188
 30
0.0
 10
464.6679288861334
 20
524.1421263863039
 30
0.0
  0
SPLINE
  5
E2
330
1F
100
AcDbEntity
  8
0
  6
Continuous
 62
     7
370
    25
100
AcDbSpline
210
0.0
220
0.0
230
1.0
 70
     8
 71
     3
 72
     9
 73
     5
 74
     0
 42
0.00000001
 43
0.00000001
 40
0.0
 40
0.0
 40
0.0
 40
0.0
 40
0.0790369080192173
 40
1.0
 40
1.0
 40
1.0
 40
1.0
 10
513.5043179199507
 20
526.6739698034373
 30
0.0
 10
513.4626689326777
 20
526.6595127294361
 30
0.0
 10
512.9357127508531
 20
526.4765972490164
 30
0.0
 10
512.3766802893713
 20
526.4192427478426
 30
0.0
 10
511.8618320251273
 20
526.3664213691027
 30
0.0
  0
SPLINE
  5
E3
330
1F
100
AcDbEntity
  8
0
  6
Continuous
 62
     7
370
    25
100
AcDbSpline
210
0.0
220
0.0
230
1.0
 70
     8
 71
     3
 72
    11
 73
     7
 74
     0
 42
0.00000001
 43
0.00000001
 40
0.0
 40
0.0
 40
0.0
 40
0.0
 40
0.0728838064943184
 40
0.4140719411596051
 40
0.9209668754550653
 40
1.0
 40
1.0
 40
1.0
 40
1.0
 10
511.9039452206296
 20
522.5120429544704
 30
0.0
 10
511.8970899561633
 20
522.6225460933915
 30
0.0
 10
511.8581434082087
 20
523.2503432878324
 30
0.0
 10
512.2133890921895
 20
524.6306121020828
 30
0.0
 10
512.8629434748673
 20
525.8955261812341
 30
0.0
 10
513.428088167501
 20
526.5814488664533
 30
0.0
 10
513.5043179199507
 20
526.6739698034373
 30
0.0
  0
SPLINE
  5
E4
330
1F
100
AcDbEntity
  8
0
  6
Continuous
 62
     7
370
    25
100
AcDbSpline
210
0.0
220
0.0
230
1.0
 70
     8
 71
     3
 72
    10
 73
     6
 74
     0
 42
0.00000001
 43
0.00000001
 40
0.0
 40
0.0
 40
0.0
 40
0.0
 40
0.3880207377811392
 40
0.9790637766506751
 40
0.9999999999999999
 40
0.9999999999999999
 40
0.9999999999999999
 40
0.9999999999999999
 10
511.879028316377
 20
519.3108601921668
 30
0.0
 10
511.9555383654857
 20
519.7211169713862
 30
0.0
 10
512.1485904638356
 20
520.7562872923232
 30
0.0
 10
512.0613997029477
 20
521.8507684094194
 30
0.0
 10
511.909153660436
 20
522.4901686412546
 30
0.0
 10
511.9039452206296
 20
522.5120429544704
 30
0.0
  0
ARC
  5
E5
330
1F
100
AcDbEntity
  8
0
  6
Continuous
 62
     7
370
    25
100
AcDbCircle
 10
520.1367573437
 20
520.8472732265
 30
0.0
 40
8.399443654264557
100
AcDbArc
 50
190.539796382
 51
168.5682803961
  0
SPLINE
  5
E6
330
1F
100
AcDbEntity
  8
0
  6
Continuous
 62
     7
370
    25
100
AcDbSpline
210
0.0
220
0.0
230
1.0
 70
     8
 71
     3
 72
     9
 73
     5
 74
     0
 42
0.00000001
 43
0.00000001
 40
0.0
 40
0.0
 40
0.0
 40
0.0
 40
0.6817923421274763
 40
1.0
 40
1.0
 40
1.0
 40
1.0
 10
513.5043179199507
 20
526.6739698034373
 30
0.0
 10
513.6480553232792
 20
526.8627671088933
 30
0.0
 10
513.8588781713031
 20
527.139680318078
 30
0.0
 10
514.090109848105
 20
527.3707919184598
 30
0.0
 10
514.1636895384061
 20
527.4443333995246
 30
0.0
  0
ARC
  5
E7
330
1F
100
AcDbEntity
  8
0
  6
Continuous
 62
     7
370
    25
100
AcDbCircle
 10
520.1367573437
 20
520.8472732265
 30
0.0
 40
8.899367501836368
100
AcDbArc
 50
226.9499575851
 51
132.1581191929
  0
LINE
  5
E8
330
1F
100
AcDbEntity
  8
0
  6
Continuous
 62
     7
370
    25
100
AcDbLine
 10
514.0617209872
 20
514.3439913474
 30
0.0
 11
513.4144210237
 21
515.1245256251
 31
0.0
  0
SPLINE
  5
E9
330
1F
100
AcDbEntity
  8
0
  6
Continuous
 62
     7
370
    25
100
AcDbSpline
210
0.0
220
0.0
230
1.0
 70
     8
 71
     3
 72
    10
 73
     6
 74
     0
 42
0.00000001
 43
0.00000001
 40
0.0
 40
0.0
 40
0.0
 40
0.0
 40
0.3702896688583036
 40
0.7405318123903292
 40
0.9999999999999999
 40
0.9999999999999999
 40
0.9999999999999999
 40
0.9999999999999999
 10
464.6598567339504
 20
524.585062213176
 30
0.0
 10
470.4822364641379
 20
524.8599435281888
 30
0.0
 10
482.1262486433445
 20
525.4096708782017
 30
0.0
 10
497.8514065213753
 20
526.1565323273355
 30
0.0
 10
507.7525516210188
 20
526.6282228476557
 30
0.0
 10
511.8322562839661
 20
526.8225799645197
 30
0.0
  0
ARC
  5
EA
330
1F
100
AcDbEntity
  8
0
  6
Continuous
 62
     7
370
    25
100
AcDbCircle
 10
504.6115217086
 20
526.1253744875
 30
0.0
 40
7.254316183150055
100
AcDbArc
 50
1.9041783338
 51
5.5151561204
  0
ARC
  5
EB
330
1F
100
AcDbEntity
  8
0
  6
Continuous
 62
     7
370
    25
100
AcDbCircle
 10
468.9193881517
 20
524.4411473084
 30
0.0
 40
4.261961918954412
100
AcDbArc
 50
178.0649089277
 51
184.0231996954
  0
SPLINE
  5
EC
330
1F
100
AcDbEntity
  8
0
  6
Continuous
 62
     7
370
    25
100
AcDbSpline
210
0.0
220
0.0
230
1.0
 70
     8
 71
     3
 72
    10
 73
     6
 74
     0
 42
0.00000001
 43
0.00000001
 40
0.0
 40
0.0
 40
0.0
 40
0.0
 40
0.3702717503651153
 40
0.7405122151371744
 40
0.9999999999999999
 40
0.9999999999999999
 40
0.9999999999999999
 40
0.9999999999999999
 10
511.7402486596368
 20
515.0019613971857
 30
0.0
 10
505.9232632578524
 20
515.3697770641528
 30
0.0
 10
494.2897839523195
 20
516.1053773200175
 30
0.0
 10
478.5778828690194
 20
517.0965141532034
 30
0.0
 10
468.6849198608954
 20
517.7175889618564
 30
0.0
 10
464.608394695959
 20
517.973510982863
 30
0.0
  0
ARC
  5
ED
330
1F
100
AcDbEntity
  8
0
  6
Continuous
 62
     7
370
    25
100
AcDbCircle
 10
468.8696502503
 20
518.0511030161
 30
0.0
 40
4.261961921816318
100
AcDbArc
 50
175.084877085
 51
181.0431678488
  0
ARC
  5
EE
330
1F
100
AcDbEntity
  8
0
  6
Continuous
 62
     7
370
    25
100
AcDbCircle
 10
504.5312419289
 20
515.8114830115
 30
0.0
 40
7.254316183349224
100
AcDbArc
 50
353.5929206576
 51
357.2038984441
  0
SPLINE
  5
EF
330
1F
100
AcDbEntity
  8
0
  6
Continuous
 62
     7
370
    25
100
AcDbSpline
210
0.0
220
0.0
230
1.0
 70
     8
 71
     3
 72
    12
 73
     8
 74
     0
 42
0.00000001
 43
0.00000001
 40
0.0
 40
0.0
 40
0.0
 40
0.0
 40
0.1224290494151394
 40
0.3423522449770304
 40
0.5614228816909388
 40
0.7807229538533379
 40
1.0
 40
1.0
 40
1.0
 40
1.0
 10
462.6885534001346
 20
518.5420050846315
 30
0.0
 10
462.6975388446224
 20
518.5395763891352
 30
0.0
 10
462.7226651288436
 20
518.5327849506696
 30
0.0
 10
462.9385138897928
 20
518.5140963752971
 30
0.0
 10
463.3742002529907
 20
518.4851933957431
 30
0.0
 10
463.9578781615272
 20
518.4510971701412
 30
0.0
 10
464.4015409996845
 20
518.4278769757478
 30
0.0
 10
464.623360772251
 20
518.4162674881003
 30
0.0
  0
SPLINE
  5
F0
330
1F
100
AcDbEntity
  8
0
  6
Continuous
 62
     7
370
    25
100
AcDbSpline
210
0.0
220
0.0
230
1.0
 70
     8
 71
     3
 72
    11
 73
     7
 74
     0
 42
0.00000001
 43
0.00000001
 40
0.0
 40
0.0
 40
0.0
 40
0.0
 40
0.0800485240044391
 40
0.5000005853538871
 40
0.9209248322279625
 40
0.9999999999999999
 40
0.9999999999999999
 40
0.9999999999999999
 40
0.9999999999999999
 10
462.6885534001346
 20
518.5420050846315
 30
0.0
 10
462.6899779176405
 20
518.688242851842
 30
0.0
 10
462.6988757654861
 20
519.6016759240385
 30
0.0
 10
462.7132997261199
 20
521.2960245680295
 30
0.0
 10
462.7252364909688
 20
522.988609781589
 30
0.0
 10
462.730557192177
 20
523.902059413532
 30
0.0
 10
462.7313986638435
 20
524.0465219484498
 30
0.0
  0
SPLINE
  5
F1
330
1F
100
AcDbEntity
  8
0
  6
Continuous
 62
     7
370
    25
100
AcDbSpline
210
0.0
220
0.0
230
1.0
 70
     8
 71
     3
 72
    12
 73
     8
 74
     0
 42
0.00000001
 43
0.00000001
 40
0.0
 40
0.0
 40
0.0
 40
0.0
 40
0.1130367476169221
 40
0.3328594693547939
 40
0.554412793794485
 40
0.7774207483513251
 40
1.0
 40
1.0
 40
1.0
 40
1.0
 10
464.6679288861334
 20
524.1421263863039
 30
0.0
 10
464.5538224657343
 20
524.1379991537619
 30
0.0
 10
464.2178131294365
 20
524.1258456863029
 30
0.0
 10
463.6835622557663
 20
524.1044111317736
 30
0.0
 10
463.1668352992227
 20
524.0805570491872
 30
0.0
 10
462.8097689349185
 20
524.05989374711
 30
0.0
 10
462.7575053264608
 20
524.0509763548391
 30
0.0
 10
462.7313986638435
 20
524.0465219484498
 30
0.0
  0
SPLINE
  5
F2
330
1F
100
AcDbEntity
  8
0
  6
Continuous
 62
     7
370
    25
100
AcDbSpline
210
0.0
220
0.0
230
1.0
 70
     8
 71
     3
 72
     9
 73
     5
 74
     0
 42
0.00000001
 43
0.00000001
 40
0.0
 40
0.0
 40
0.0
 40
0.0
 40
0.5000106123815418
 40
0.9999999999999999
 40
0.9999999999999999
 40
0.9999999999999999
 40
0.9999999999999999
 10
514.5579525749027
 20
513.9082840812572
 30
0.0
 10
514.1304846086488
 20
514.1994606021151
 30
0.0
 10
513.2755668215681
 20
514.7818012837878
 30
0.0
 10
512.2520141387263
 20
514.9285757311372
 30
0.0
 10
511.7402486596368
 20
515.0019613971857
 30
0.0
  0
SPLINE
  5
F3
330
1F
100
AcDbEntity
  8
0
  6
Continuous
 62
     7
370
    25
100
AcDbSpline
210
0.0
220
0.0
230
1.0
 70
     8
 71
     3
 72
     9
 73
     5
 74
     0
 42
0.00000001
 43
0.00000001
 40
0.0
 40
0.0
 40
0.0
 40
0.0
 40
0.9838702326459285
 40
1.0
 40
1.0
 40
1.0
 40
1.0
 10
514.0617209871624
 20
514.3439913474251
 30
0.0
 10
514.2219296233989
 20
514.1979075382617
 30
0.0
 10
514.3847647523829
 20
514.0494288016193
 30
0.0
 10
514.5552034385468
 20
513.9105245741312
 30
0.0
 10
514.5579525749027
 20
513.9082840812572
 30
0.0
  0
SPLINE
  5
F4
330
1F
100
AcDbEntity
  8
0
  6
Continuous
 62
     7
370
    25
100
AcDbSpline
210
0.0
220
0.0
230
1.0
 70
     8
 71
     3
 72
     9
 73
     5
 74
     0
 42
0.00000001
 43
0.00000001
 40
0.0
 40
0.0
 40
0.0
 40
0.0
 40
0.505556105710722
 40
0.9999999999999999
 40
0.9999999999999999
 40
0.9999999999999999
 40
0.9999999999999999
 10
511.8322562839661
 20
526.8225799645197
 30
0.0
 10
512.3508500541982
 20
526.8892015837934
 30
0.0
 10
513.3766388130996
 20
527.0209804675237
 30
0.0
 10
514.2398392133741
 20
527.5906123460553
 30
0.0
 10
514.666643380838
 20
527.8722633503878
 30
0.0
  0
SPLINE
  5
F5
330
1F
100
AcDbEntity
  8
0
  6
Continuous
 62
     7
370
    25
100
AcDbSpline
210
0.0
220
0.0
230
1.0
 70
     8
 71
     3
 72
     9
 73
     5
 74
     0
 42
0.00000001
 43
0.00000001
 40
0.0
 40
0.0
 40
0.0
 40
0.0
 40
0.0161297673533594
 40
0.9999999999999999
 40
0.9999999999999999
 40
0.9999999999999999
 40
0.9999999999999999
 10
514.666643380838
 20
527.8722633503878
 30
0.0
 10
514.6638597012394
 20
527.8700659230481
 30
0.0
 10
514.4912794316298
 20
527.7338316369866
 30
0.0
 10
514.3261527576
 20
527.5879056420813
 30
0.0
 10
514.1636895384061
 20
527.4443333995246
 30
0.0
  0
SPLINE
  5
F6
330
1F
100
AcDbEntity
  8
0
  6
Continuous
 62
     7
370
    25
100
AcDbSpline
210
0.0
220
0.0
230
1.0
 70
     8
 71
     3
 72
    12
 73
     8
 74
     0
 42
0.00000001
 43
0.00000001
 40
0.0
 40
0.0
 40
0.0
 40
0.0
 40
0.2230315344150161
 40
0.4461337558340214
 40
0.6675099896777015
 40
0.8870667292264909
 40
1.0
 40
1.0
 40
1.0
 40
1.0
 10
463.2076238164769
 20
524.5419933676469
 30
0.0
 10
463.2271422983113
 20
524.5399511379513
 30
0.0
 10
463.2661854481142
 20
524.5358660313016
 30
0.0
 10
463.5338205635636
 20
524.5407258983112
 30
0.0
 10
463.9214592429907
 20
524.5532979470287
 30
0.0
 10
464.3223197272413
 20
524.5695156528942
 30
0.0
 10
464.5742771071267
 20
524.5811205155226
 30
0.0
 10
464.6598567339504
 20
524.5850622131759
 30
0.0
  0
ARC
  5
F7
330
1F
100
AcDbEntity
  8
0
  6
Continuous
 62
     7
370
    25
100
AcDbCircle
 10
463.2314821062
 20
524.0424628807
 30
0.0
 40
0.5000999153470148
100
AcDbArc
 50
92.7344503137
 51
179.5349529273
  0
SPLINE
  5
F8
330
1F
100
AcDbEntity
  8
0
  6
Continuous
 62
     7
370
    25
100
AcDbSpline
210
0.0
220
0.0
230
1.0
 70
     8
 71
     3
 72
    12
 73
     8
 74
     0
 42
0.00000001
 43
0.00000001
 40
0.0
 40
0.0
 40
0.0
 40
0.0
 40
0.2190444340109243
 40
0.4380981679380229
 40
0.6571027493691807
 40
0.8772791087290144
 40
1.0
 40
1.0
 40
1.0
 40
1.0
 10
464.608394695959
 20
517.973510982863
 30
0.0
 10
464.4420507145512
 20
517.9836348275252
 30
0.0
 10
464.1093556893096
 20
518.0038829466752
 30
0.0
 10
463.6713624396407
 20
518.0268112159682
 30
0.0
 10
463.3444945147525
 20
518.0406615694432
 30
0.0
 10
463.1826697361259
 20
518.0437450811188
 30
0.0
 10
463.163771667772
 20
518.0403836415724
 30
0.0
 10
463.157008161248
 20
518.0391806023051
 30
0.0
  0
ARC
  5
F9
330
1F
100
AcDbEntity
  8
0
  6
Continuous
 62
     7
370
    25
100
AcDbCircle
 10
463.1886394357
 20
518.5382791775
 30
0.0
 40
0.5000999153468446
100
AcDbArc
 50
179.5731238513
 51
266.3736264643
  0
LINE
  5
FA
330
1F
100
AcDbEntity
  8
0
  6
Continuous
 62
     7
370
    25
100
AcDbLine
 10
511.832256284
 20
526.8225799645
 30
0.0
 11
511.8058258019
 21
526.8940781252
 31
0.0
  0
LINE
  5
FB
330
1F
100
AcDbEntity
  8
0
  6
Continuous
 62
     7
370
    25
100
AcDbLine
 10
463.2029681442
 20
524.5464681933
 30
0.0
 11
463.2076238165
 21
524.5419933676
 31
0.0
  0
ELLIPSE
  5
FC
330
1F
100
AcDbEntity
  8
0
  6
Continuous
 62
     7
370
    25
100
AcDbEllipse
 10
464.7033425571
 20
524.6180847687
 30
0.0
 11
1.500598900238004
 21
0.07119499874534085
 31
0.0
210
0.0
220
0.0
230
1.0
 40
0.0174284859
 41
2.255125316697674
 42
3.158083049609798
  0
LINE
  5
FD
330
1F
100
AcDbEntity
  8
0
  6
Continuous
 62
     7
370
    25
100
AcDbLine
 10
467.2205058885
 20
524.8072579479
 30
0.0
 11
463.7537726792
 21
524.5933432293
 31
0.0
  0
LINE
  5
FE
330
1F
100
AcDbEntity
  8
0
  6
Continuous
 62
     7
370
    25
100
AcDbLine
 10
467.2205051226
 20
524.8071595597
 30
0.0
 11
467.2205058885
 21
524.8072579479
 31
0.0
  0
ELLIPSE
  5
FF
330
1F
100
AcDbEntity
  8
0
  6
Continuous
 62
     7
370
    25
100
AcDbEllipse
 10
476.6722710803
 20
525.0632463055
 30
0.0
 11
14.50578936896778
 21
0.6882183212051132
 31
0.0
210
0.0
220
0.0
230
1.0
 40
0.0174284859
 41
1.54351683885241
 42
2.279642175408306
  0
ELLIPSE
  5
100
330
1F
100
AcDbEntity
  8
0
  6
Continuous
 62
     7
370
    25
100
AcDbEllipse
 10
478.0006374366
 20
526.0032190947
 30
0.0
 11
35.7168964776294
 21
1.694566349148772
 31
0.0
210
0.0
220
0.0
230
1.0
 40
0.0174284859
 41
4.68510949244221
 42
5.167309992307962
  0
ELLIPSE
  5
101
330
1F
100
AcDbEntity
  8
0
  6
Continuous
 62
     7
370
    25
100
AcDbEllipse
 10
497.0231872767
 20
526.2275614578
 30
0.0
 11
7.502994501190187
 21
0.355974993726818
 31
0.0
210
0.0
220
0.0
230
1.0
 40
0.0174284859
 41
1.834826681007928
 42
2.025717338718011
  0
LINE
  5
102
330
1F
100
AcDbEntity
  8
0
  6
Continuous
 62
     7
370
    25
100
AcDbLine
 10
495.0775636892
 20
526.1103570616
 30
0.0
 11
495.0591165788
 21
526.2608957478
 31
0.0
  0
SPLINE
  5
103
330
1F
100
AcDbEntity
  8
0
  6
Continuous
 62
     7
370
    25
100
AcDbSpline
210
0.0
220
0.0
230
1.0
 70
     8
 71
     3
 72
    10
 73
     6
 74
     0
 42
0.00000001
 43
0.00000001
 40
0.0
 40
0.0
 40
0.0
 40
0.0
 40
0.0186368637458194
 40
0.3939469944633414
 40
1.0
 40
1.0
 40
1.0
 40
1.0
 10
495.2613331938085
 20
526.1094130450512
 30
0.0
 10
495.2588763779627
 20
526.1093444149221
 30
0.0
 10
495.2069440769266
 20
526.1078937076883
 30
0.0
 10
495.1029275192858
 20
526.1060232741934
 30
0.0
 10
495.0872472403676
 20
526.1087024829417
 30
0.0
 10
495.0775636891774
 20
526.1103570616135
 30
0.0
  0
LINE
  5
104
330
1F
100
AcDbEntity
  8
0
  6
Continuous
 62
     7
370
    25
100
AcDbLine
 10
511.8058258019
 20
526.8940781252
 30
0.0
 11
495.2613331938
 21
526.1094130451
 31
0.0
  0
LINE
  5
105
330
1F
100
AcDbEntity
  8
0
  6
Continuous
 62
     7
370
    25
100
AcDbLine
 10
495.1802429861
 20
515.9568039174
 30
0.0
 11
511.7065428005
 21
514.9149467658
 31
0.0
  0
SPLINE
  5
106
330
1F
100
AcDbEntity
  8
0
  6
Continuous
 62
     7
370
    25
100
AcDbSpline
210
0.0
220
0.0
230
1.0
 70
     8
 71
     3
 72
    11
 73
     7
 74
     0
 42
0.00000001
 43
0.00000001
 40
0.0
 40
0.0
 40
0.0
 40
0.0
 40
0.4177469294495257
 40
0.8392770662410828
 40
0.9817832068819232
 40
1.0
 40
1.0
 40
1.0
 40
1.0
 10
494.9965536133813
 20
515.9595831783554
 30
0.0
 10
495.0011989318834
 20
515.9606302447918
 30
0.0
 10
495.0105316379058
 20
515.9627338601267
 30
0.0
 10
495.0860164597244
 20
515.9609440989599
 30
0.0
 10
495.1562553028741
 20
515.9579267818151
 30
0.0
 10
495.1778009421908
 20
515.9569182295508
 30
0.0
 10
495.1802429860538
 20
515.9568039173769
 30
0.0
  0
LINE
  5
107
330
1F
100
AcDbEntity
  8
0
  6
Continuous
 62
     7
370
    25
100
AcDbLine
 10
494.9778846259
 20
515.8246744266
 30
0.0
 11
494.9965536134
 21
515.9595831784
 31
0.0
  0
ELLIPSE
  5
108
330
1F
100
AcDbEntity
  8
0
  6
Continuous
 62
     7
370
    25
100
AcDbEllipse
 10
496.9422362444
 20
515.8274312301
 30
0.0
 11
7.496544176181545
 21
-0.4727262374859721
 31
0.0
210
0.0
220
0.0
230
1.0
 40
0.0174284859
 41
4.257467968461437
 42
4.448358626171505
  0
ELLIPSE
  5
109
330
1F
100
AcDbEntity
  8
0
  6
Continuous
 62
     7
370
    25
100
AcDbEllipse
 10
477.9254834341
 20
516.3478584257
 30
0.0
 11
35.68619065870001
 21
-2.250343390744775
 31
0.0
210
0.0
220
0.0
230
1.0
 40
0.0174284859
 41
1.115875314871783
 42
1.598075814737367
  0
ELLIPSE
  5
10A
330
1F
100
AcDbEntity
  8
0
  6
Continuous
 62
     7
370
    25
100
AcDbEllipse
 10
476.6119099895
 20
517.3083951645
 30
0.0
 11
14.49331874061767
 21
-0.913937392473031
 31
0.0
210
0.0
220
0.0
230
1.0
 40
0.0174284859
 41
4.003543131771734
 42
4.739668468327185
  0
LINE
  5
10B
330
1F
100
AcDbEntity
  8
0
  6
Continuous
 62
     7
370
    25
100
AcDbLine
 10
467.1652748133
 20
517.7114821626
 30
0.0
 11
467.1652755791
 21
517.7115805508
 31
0.0
  0
LINE
  5
10C
330
1F
100
AcDbEntity
  8
0
  6
Continuous
 62
     7
370
    25
100
AcDbLine
 10
463.7022915199
 20
517.9793354081
 30
0.0
 11
467.1652748133
 21
517.7114821626
 31
0.0
  0
ELLIPSE
  5
10D
330
1F
100
AcDbEntity
  8
0
  6
Continuous
 62
     7
370
    25
100
AcDbEllipse
 10
464.651361209
 20
517.9398155122
 30
0.0
 11
1.499308835236264
 21
-0.09454524749719442
 31
0.0
210
0.0
220
0.0
230
1.0
 40
0.0174284859
 41
3.637788799607841
 42
4.028059990486327
  0
LINE
  5
10E
330
1F
100
AcDbEntity
  8
0
  6
Continuous
 62
     7
370
    25
100
AcDbLine
 10
463.1570081612
 20
518.0391806023
 30
0.0
 11
463.1522833963
 21
518.0347787907
 31
0.0
  0
LINE
  5
10F
330
1F
100
AcDbEntity
  8
0
  6
Continuous
 62
     7
370
    25
100
AcDbLine
 10
511.7065428005
 20
514.9149467658
 30
0.0
 11
511.7402486596
 21
515.0019613972
 31
0.0
  0
SPLINE
  5
110
330
1F
100
AcDbEntity
  8
0
  6
Continuous
 62
     7
370
    25
100
AcDbSpline
210
0.0
220
0.0
230
1.0
 70
     8
 71
     3
 72
     9
 73
     5
 74
     0
 42
0.00000001
 43
0.00000001
 40
0.0
 40
0.0
 40
0.0
 40
0.0
 40
0.5001021276704752
 40
1.0
 40
1.0
 40
1.0
 40
1.0
 10
514.633936825137
 20
527.9382113638522
 30
0.0
 10
514.2027718934926
 20
527.6550330896254
 30
0.0
 10
513.3406181297149
 20
527.0887921988976
 30
0.0
 10
512.317353575395
 20
526.9589739777374
 30
0.0
 10
511.8058258018603
 20
526.8940781251898
 30
0.0
  0
LINE
  5
111
330
1F
100
AcDbEntity
  8
0
  6
Continuous
 62
     7
370
    25
100
AcDbLine
 10
514.6339368251
 20
527.9382113639
 30
0.0
 11
514.6666433808
 21
527.8722633504
 31
0.0
  0
SPLINE
  5
112
330
1F
100
AcDbEntity
  8
0
  6
Continuous
 62
     7
370
    25
100
AcDbSpline
210
0.0
220
0.0
230
1.0
 70
     8
 71
     3
 72
     9
 73
     5
 74
     0
 42
0.00000001
 43
0.00000001
 40
0.0
 40
0.0
 40
0.0
 40
0.0
 40
0.4007227371565354
 40
1.0
 40
1.0
 40
1.0
 40
1.0
 10
511.7065428004855
 20
514.9149467658152
 30
0.0
 10
512.1148397702277
 20
514.863359994378
 30
0.0
 10
513.1337411997783
 20
514.7346256684868
 30
0.0
 10
513.9984313681116
 20
514.167770977756
 30
0.0
 10
514.5166205253981
 20
513.8280678502649
 30
0.0
  0
LINE
  5
113
330
1F
100
AcDbEntity
  8
0
  6
Continuous
 62
     7
370
    25
100
AcDbLine
 10
514.5579525749
 20
513.9082840813
 30
0.0
 11
514.5166205254
 21
513.8280678503
 31
0.0
  0
ARC
  5
114
330
1F
100
AcDbEntity
  8
0
  6
Continuous
 62
     7
370
    25
100
AcDbCircle
 10
520.1367573437
 20
520.8472732265
 30
0.0
 40
8.975658044222056
100
AcDbArc
 50
64.7189237837
 51
127.8127363719
  0
LWPOLYLINE
  5
115
330
1F
100
AcDbEntity
  8
0
  6
Continuous
 62
     7
370
    25
100
AcDbPolyline
 90
        3
 70
   128
 43
0.0
 10
524.1361699111
 20
529.0670528302
 10
524.0310758445
 20
529.0016164281
 10
523.969895025
 20
528.9632754964
  0
ARC
  5
116
330
1F
100
AcDbEntity
  8
0
  6
Continuous
 62
     7
370
    25
100
AcDbCircle
 10
520.1367573437
 20
520.8472732265
 30
0.0
 40
9.141120151092204
100
AcDbArc
 50
295.0537548066
 51
64.0543178179
  0
LWPOLYLINE
  5
117
330
1F
100
AcDbEntity
  8
0
  6
Continuous
 62
     7
370
    25
100
AcDbPolyline
 90
        3
 70
   128
 43
0.0
 10
523.8593053322
 20
512.6620537155
 10
523.9036704877
 20
512.6332976362
 10
524.0077332139
 20
512.5662332294
  0
ARC
  5
118
330
1F
100
AcDbEntity
  8
0
  6
Continuous
 62
     7
370
    25
100
AcDbCircle
 10
520.1367573437
 20
520.8472732265
 30
0.0
 40
8.99195095466078
100
AcDbArc
 50
231.316445536
 51
294.4555195556
  0
LINE
  5
119
330
1F
100
AcDbEntity
  8
0
  6
Continuous
 62
     7
370
    25
100
AcDbLine
 10
462.6838286352
 20
518.5376032731
 30
0.0
 11
462.6885534001
 21
518.5420050846
 31
0.0
  0
LINE
  5
11A
330
1F
100
AcDbEntity
  8
0
  6
Continuous
 62
     7
370
    25
100
AcDbLine
 10
462.7267429916
 20
524.0509967741
 30
0.0
 11
462.6838286352
 21
518.5376032731
 31
0.0
  0
LINE
  5
11B
330
1F
100
AcDbEntity
  8
0
  6
Continuous
 62
     7
370
    25
100
AcDbLine
 10
462.7313986638
 20
524.0465219484
 30
0.0
 11
462.7267429916
 21
524.0509967741
 31
0.0
  0
ARC
  5
11C
330
1F
100
AcDbEntity
  8
0
  6
Continuous
 62
     7
370
    25
100
AcDbCircle
 10
463.1839146707
 20
518.533877366
 30
0.0
 40
0.5000999153471687
100
AcDbArc
 50
179.5731238507
 51
266.3736264642
  0
ARC
  5
11D
330
1F
100
AcDbEntity
  8
0
  6
Continuous
 62
     7
370
    25
100
AcDbCircle
 10
463.2268264339
 20
524.0469377064
 30
0.0
 40
0.5000999153469619
100
AcDbArc
 50
92.7344503137
 51
179.5349529273
  0
LINE
  5
11E
330
1F
100
AcDbEntity
  8
0
  6
Continuous
 62
     7
370
    25
100
AcDbLine
 10
463.7537726792
 20
524.5933432293
 30
0.0
 11
463.7466623069
 21
524.5930315262
 31
0.0
  0
LINE
  5
11F
330
1F
100
AcDbEntity
  8
0
  6
Continuous
 62
     7
370
    25
100
AcDbLine
 10
463.7022915199
 20
517.9793354081
 30
0.0
 11
463.6951868613
 21
517.9797577561
 31
0.0
  0
SPLINE
  5
120
330
1F
100
AcDbEntity
  8
0
  6
Continuous
 62
     7
370
    25
100
AcDbSpline
210
0.0
220
0.0
230
1.0
 70
     8
 71
     3
 72
    12
 73
     8
 74
     0
 42
0.00000001
 43
0.00000001
 40
0.0
 40
0.0
 40
0.0
 40
0.0
 40
0.1345419440893859
 40
0.412522733404341
 40
0.6966514762099321
 40
0.8475579366075738
 40
1.0
 40
1.0
 40
1.0
 40
1.0
 10
523.970679886049
 20
528.9640760287866
 30
0.0
 10
523.5428207429717
 20
529.1582375641298
 30
0.0
 10
522.2309501259023
 20
529.7535615563897
 30
0.0
 10
519.8622583198114
 20
530.3969662175688
 30
0.0
 10
517.3397339490125
 20
530.7179654428182
 30
0.0
 10
515.1956830285064
 20
530.8402438649046
 30
0.0
 10
514.0594135869898
 20
530.8547213332783
 30
0.0
 10
513.4884028694482
 20
530.8619967111969
 30
0.0
  0
ARC
  5
121
330
1F
100
AcDbEntity
  8
0
  6
Continuous
 62
     7
370
    25
100
AcDbCircle
 10
517.9759734272
 20
530.2072241869
 30
0.0
 40
4.53508727252392
100
AcDbArc
 50
148.5825010297
 51
171.6986650873
  0
SPLINE
  5
122
330
1F
100
AcDbEntity
  8
0
  6
Continuous
 62
     7
370
    25
100
AcDbSpline
210
0.0
220
0.0
230
1.0
 70
     8
 71
     3
 72
    12
 73
     8
 74
     0
 42
0.00000001
 43
0.00000001
 40
0.0
 40
0.0
 40
0.0
 40
0.0
 40
0.1662426524176554
 40
0.3368059756191314
 40
0.6054181071254602
 40
0.8801435087136203
 40
1.0
 40
1.0
 40
1.0
 40
1.0
 10
514.1057678916621
 20
532.5712304648536
 30
0.0
 10
514.7422198896119
 20
532.4107866562035
 30
0.0
 10
516.0316653657683
 20
532.0857290809151
 30
0.0
 10
518.2106254505717
 20
531.4057836183085
 30
0.0
 10
520.5658952560872
 20
530.5352302775584
 30
0.0
 10
522.5248147465578
 20
529.6773285191476
 30
0.0
 10
523.6343696183333
 20
529.1308177405227
 30
0.0
 10
523.9714032131897
 20
528.9648119871948
 30
0.0
  0
LINE
  5
123
330
1F
100
AcDbEntity
  8
0
  6
Continuous
 62
     7
370
    25
100
AcDbLine
 10
523.9714032132
 20
528.9648119872
 30
0.0
 11
523.970679886
 21
528.9640760288
 31
0.0
  0
LINE
  5
124
330
1F
100
AcDbEntity
  8
0
  6
Continuous
 62
     7
370
    25
100
AcDbLine
 10
514.1057678917
 20
532.5712304649
 30
0.0
 11
514.1221662299
 21
532.6405784619
 31
0.0
  0
ARC
  5
125
330
1F
100
AcDbEntity
  8
0
  6
Continuous
 62
     7
370
    25
100
AcDbCircle
 10
503.0351128145
 20
485.7538185818
 30
0.0
 40
48.17977797259046
100
AcDbArc
 50
64.0258863013
 51
76.6959574571
  0
LWPOLYLINE
  5
126
330
1F
100
AcDbEntity
  8
0
  6
Continuous
 62
     7
370
    25
100
AcDbPolyline
 90
        3
 70
   128
 43
0.0
 10
523.9714032132
 20
528.9648119872
 10
524.0310813273
 20
529.0018723135
 10
524.1361699227
 20
529.0670543692
  0
LINE
  5
127
330
1F
100
AcDbEntity
  8
0
  6
Continuous
 62
     7
370
    25
100
AcDbLine
 10
514.6339368251
 20
527.9382113639
 30
0.0
 11
512.4578247821
 21
530.7423507728
 31
0.0
  0
ARC
  5
128
330
1F
100
AcDbEntity
  8
0
  6
Continuous
 62
     7
370
    25
100
AcDbCircle
 10
520.1367573437
 20
520.8472732265
 30
0.0
 40
12.52511736202723
100
AcDbArc
 50
127.4123452592
 51
127.8127363719
  0
LINE
  5
129
330
1F
100
AcDbEntity
  8
0
  6
Continuous
 62
     7
370
    25
100
AcDbLine
 10
513.4884028694
 20
530.8619967112
 30
0.0
 11
512.5271599346
 21
530.7957702087
 31
0.0
  0
LINE
  5
12A
330
1F
100
AcDbEntity
  8
0
  6
Continuous
 62
     7
370
    25
100
AcDbLine
 10
523.969895025
 20
528.9632754964
 30
0.0
 11
523.970679886
 21
528.9640760288
 31
0.0
  0
LINE
  5
12B
330
1F
100
AcDbEntity
  8
0
  6
Continuous
 62
     7
370
    25
100
AcDbLine
 10
509.5367508772
 20
530.3399105224
 30
0.0
 11
511.6376725854
 21
530.4395521336
 31
0.0
  0
LINE
  5
12C
330
1F
100
AcDbEntity
  8
0
  6
Continuous
 62
     7
370
    25
100
AcDbLine
 10
511.8058258019
 20
526.8940781252
 30
0.0
 11
511.6376725854
 21
530.4395521336
 31
0.0
  0
SPLINE
  5
12D
330
1F
100
AcDbEntity
  8
0
  6
Continuous
 62
     7
370
    25
100
AcDbSpline
210
0.0
220
0.0
230
1.0
 70
     8
 71
     3
 72
    17
 73
    13
 74
     0
 42
0.00000001
 43
0.00000001
 40
0.0
 40
0.0
 40
0.0
 40
0.0
 40
0.2859834379244693
 40
0.5215922644122228
 40
0.759239901680938
 40
0.8521492405060498
 40
0.9266708633836008
 40
0.9605058393195366
 40
0.9835417153308579
 40
0.993079099239082
 40
0.9972256067114855
 40
1.0
 40
1.0
 40
1.0
 40
1.0
 10
508.0920465244612
 20
529.8269960441341
 30
0.0
 10
506.8591658090481
 20
529.3047081275929
 30
0.0
 10
504.6105704051692
 20
528.3521308068886
 30
0.0
 10
501.2636107403667
 20
527.335920146113
 30
0.0
 10
498.7562224410159
 20
526.7375995171775
 30
0.0
 10
496.9832146433561
 20
526.3974139674086
 30
0.0
 10
496.1169159105235
 20
526.2494512175771
 30
0.0
 10
495.5906555693733
 20
526.165044775157
 30
0.0
 10
495.3566961103671
 20
526.1277528874152
 30
0.0
 10
495.2789368462426
 20
526.1140379382107
 30
0.0
 10
495.2628266178144
 20
526.1104294692599
 30
0.0
 10
495.2617605501649
 20
526.1097039037388
 30
0.0
 10
495.2613331938085
 20
526.1094130450512
 30
0.0
  0
LINE
  5
12E
330
1F
100
AcDbEntity
  8
0
  6
Continuous
 62
     7
370
    25
100
AcDbLine
 10
509.5367508772
 20
530.3399105224
 30
0.0
 11
508.0920465245
 21
529.8269960441
 31
0.0
  0
ARC
  5
12F
330
1F
100
AcDbEntity
  8
0
  6
Continuous
 62
     7
370
    25
100
AcDbCircle
 10
502.2606983675
 20
526.2631735416
 30
0.0
 40
6.834138728218602
100
AcDbArc
 50
31.4311455193
 51
46.5028391318
  0
SPLINE
  5
130
330
1F
100
AcDbEntity
  8
0
  6
Continuous
 62
     7
370
    25
100
AcDbSpline
210
0.0
220
0.0
230
1.0
 70
     8
 71
     3
 72
    10
 73
     6
 74
     0
 42
0.00000001
 43
0.00000001
 40
0.0
 40
0.0
 40
0.0
 40
0.0
 40
0.5975855365574464
 40
0.9790563563182221
 40
0.9999999999999999
 40
0.9999999999999999
 40
0.9999999999999999
 40
0.9999999999999999
 10
495.1513822454016
 20
526.1193960391835
 30
0.0
 10
495.148834077832
 20
526.1156764622446
 30
0.0
 10
495.1446592785716
 20
526.1095824803422
 30
0.0
 10
495.2190252214154
 20
526.1086270711884
 30
0.0
 10
495.2592402066097
 20
526.109374162705
 30
0.0
 10
495.2613331938085
 20
526.1094130450512
 30
0.0
  0
SPLINE
  5
131
330
1F
100
AcDbEntity
  8
0
  6
Continuous
 62
     7
370
    25
100
AcDbSpline
210
0.0
220
0.0
230
1.0
 70
     8
 71
     3
 72
    15
 73
    11
 74
     0
 42
0.00000001
 43
0.00000001
 40
0.0
 40
0.0
 40
0.0
 40
0.0
 40
0.0128981401598396
 40
0.0519443541565598
 40
0.1318327952014343
 40
0.2279057212361178
 40
0.4677439605522715
 40
0.7076088995728974
 40
0.8538517081976972
 40
1.0
 40
1.0
 40
1.0
 40
1.0
 10
495.1513822454016
 20
526.1193960391835
 30
0.0
 10
495.1849108952487
 20
526.1269801986459
 30
0.0
 10
495.3199399800986
 20
526.1575236925302
 30
0.0
 10
495.7599940041518
 20
526.2564923084943
 30
0.0
 10
496.5729997972602
 20
526.4524917756208
 30
0.0
 10
498.2298559572396
 20
526.9072584431722
 30
0.0
 10
500.5826166028457
 20
527.7205573331325
 30
0.0
 10
503.1354256126627
 20
528.8943138984429
 30
0.0
 10
505.2635328328535
 20
530.0847080496857
 30
0.0
 10
506.3978087514608
 20
530.842128113694
 30
0.0
 10
506.9647633807051
 20
531.2207157258679
 30
0.0
  0
LWPOLYLINE
  5
132
330
1F
100
AcDbEntity
  8
0
  6
Continuous
 62
     7
370
    25
100
AcDbPolyline
 90
        4
 70
   128
 43
0.0
 10
495.1330320631
 20
526.270639024
 10
495.135141525
 20
526.253263932
 10
495.1435758629
 20
526.1837634325
 10
495.1513822454
 20
526.1193960392
  0
LINE
  5
133
330
1F
100
AcDbEntity
  8
0
  6
Continuous
 62
     7
370
    25
100
AcDbLine
 10
496.9244453753
 20
526.6862357943
 30
0.0
 11
495.1330320631
 21
526.270639024
 31
0.0
  0
ARC
  5
134
330
1F
100
AcDbEntity
  8
0
  6
Continuous
 62
     7
370
    25
100
AcDbCircle
 10
488.9759508754
 20
557.174719393
 30
0.0
 40
31.50755777528338
100
AcDbArc
 50
284.6120356368
 51
304.7259678059
  0
LINE
  5
135
330
1F
100
AcDbEntity
  8
0
  6
Continuous
 62
     7
370
    25
100
AcDbLine
 10
506.9647633807
 20
531.2207157259
 30
0.0
 11
506.9242967017
 21
531.2791004766
 31
0.0
  0
SPLINE
  5
136
330
1F
100
AcDbEntity
  8
0
  6
Continuous
 62
     7
370
    25
100
AcDbSpline
210
0.0
220
0.0
230
1.0
 70
     8
 71
     3
 72
     9
 73
     5
 74
     0
 42
0.00000001
 43
0.00000001
 40
0.0
 40
0.0
 40
0.0
 40
0.0
 40
0.4998978730609572
 40
0.9999999999999999
 40
0.9999999999999999
 40
0.9999999999999999
 40
0.9999999999999999
 10
511.637672585387
 20
530.4395521336328
 30
0.0
 10
511.786018418662
 20
530.4583644035779
 30
0.0
 10
512.0827706980162
 20
530.4959966299963
 30
0.0
 10
512.3327897316444
 20
530.6602215440369
 30
0.0
 10
512.4578247821372
 20
530.7423507728448
 30
0.0
  0
ARC
  5
137
330
1F
100
AcDbEntity
  8
0
  6
Continuous
 62
     7
370
    25
100
AcDbCircle
 10
495.053861552
 20
526.6098713806
 30
0.0
 40
0.5000763403513777
100
AcDbArc
 50
272.7166680287
 51
281.2454019509
  0
SPLINE
  5
138
330
1F
100
AcDbEntity
  8
0
  6
Continuous
 62
     7
370
    25
100
AcDbSpline
210
0.0
220
0.0
230
1.0
 70
     8
 71
     3
 72
    13
 73
     9
 74
     0
 42
0.00000001
 43
0.00000001
 40
0.0
 40
0.0
 40
0.0
 40
0.0
 40
0.0460329529079886
 40
0.2492425848193738
 40
0.4775225570272909
 40
0.7051721168687874
 40
0.8526808263814681
 40
1.0
 40
1.0
 40
1.0
 40
1.0
 10
523.8605296226671
 20
512.660769803742
 30
0.0
 10
523.7317123245022
 20
512.5992616112608
 30
0.0
 10
523.0342390073276
 20
512.2662292960794
 30
0.0
 10
521.669806980924
 20
511.6588534211934
 30
0.0
 10
519.6555869417458
 20
510.864034538659
 30
0.0
 10
517.6357467122863
 20
510.1871104970585
 30
0.0
 10
515.7692371412694
 20
509.6513882953158
 30
0.0
 10
514.6748184770818
 20
509.3923826585648
 30
0.0
 10
514.1279609292525
 20
509.2629630936191
 30
0.0
  0
LINE
  5
139
330
1F
100
AcDbEntity
  8
0
  6
Continuous
 62
     7
370
    25
100
AcDbLine
 10
513.6896735955
 20
511.2140360977
 30
0.0
 11
514.1279609293
 21
509.2629630936
 31
0.0
  0
SPLINE
  5
13A
330
1F
100
AcDbEntity
  8
0
  6
Continuous
 62
     7
370
    25
100
AcDbSpline
210
0.0
220
0.0
230
1.0
 70
     8
 71
     3
 72
    13
 73
     9
 74
     0
 42
0.00000001
 43
0.00000001
 40
0.0
 40
0.0
 40
0.0
 40
0.0
 40
0.2574896950994356
 40
0.4890886589321006
 40
0.7206004760683451
 40
0.9447506334961266
 40
0.9460032291293279
 40
1.0
 40
1.0
 40
1.0
 40
1.0
 10
513.6896735954508
 20
511.2140360976522
 30
0.0
 10
514.608152916241
 20
511.1788231567074
 30
0.0
 10
516.3527579540801
 20
511.1119379555067
 30
0.0
 10
518.8485285080717
 20
511.2570808408142
 30
0.0
 10
521.1673256334592
 20
511.6524186395137
 30
0.0
 10
522.6482777548904
 20
512.1404637374329
 30
0.0
 10
523.5224256970855
 20
512.50791386244
 30
0.0
 10
523.693081692744
 20
512.5855683459126
 30
0.0
 10
523.8598686312808
 20
512.6614622722414
 30
0.0
  0
LINE
  5
13B
330
1F
100
AcDbEntity
  8
0
  6
Continuous
 62
     7
370
    25
100
AcDbLine
 10
523.8598686313
 20
512.6614622722
 30
0.0
 11
523.8605296227
 21
512.6607698037
 31
0.0
  0
ARC
  5
13C
330
1F
100
AcDbEntity
  8
0
  6
Continuous
 62
     7
370
    25
100
AcDbCircle
 10
503.583462541
 20
556.2026863295
 30
0.0
 40
48.10950076354636
100
AcDbArc
 50
282.4121193209
 51
282.6607017104
  0
LWPOLYLINE
  5
13D
330
1F
100
AcDbEntity
  8
0
  6
Continuous
 62
     7
370
    25
100
AcDbPolyline
 90
        3
 70
   128
 43
0.0
 10
523.8605296227
 20
512.6607698037
 10
523.9036719867
 20
512.6330416963
 10
524.0077332016
 20
512.5662316904
  0
ARC
  5
13E
330
1F
100
AcDbEntity
  8
0
  6
Continuous
 62
     7
370
    25
100
AcDbCircle
 10
503.583462541
 20
556.2026863295
 30
0.0
 40
48.1797779725906
100
AcDbArc
 50
282.4121193209
 51
295.0821896878
  0
LINE
  5
13F
330
1F
100
AcDbEntity
  8
0
  6
Continuous
 62
     7
370
    25
100
AcDbLine
 10
513.9242105284
 20
509.2176568543
 30
0.0
 11
513.939316046
 21
509.1490222461
 31
0.0
  0
LINE
  5
140
330
1F
100
AcDbEntity
  8
0
  6
Continuous
 62
     7
370
    25
100
AcDbLine
 10
507.594719031
 20
512.5694011513
 30
0.0
 11
506.4524338469
 21
510.9280705288
 31
0.0
  0
SPLINE
  5
141
330
1F
100
AcDbEntity
  8
0
  6
Continuous
 62
     7
370
    25
100
AcDbSpline
210
0.0
220
0.0
230
1.0
 70
     8
 71
     3
 72
    15
 73
    11
 74
     0
 42
0.00000001
 43
0.00000001
 40
0.0
 40
0.0
 40
0.0
 40
0.0
 40
0.2255198391625383
 40
0.4515645943751972
 40
0.6337799820516987
 40
0.8158790324473552
 40
0.8946729146060257
 40
0.9638048440471945
 40
0.9940832206369753
 40
0.9999999999999999
 40
0.9999999999999999
 40
0.9999999999999999
 40
0.9999999999999999
 10
506.4524338469032
 20
510.9280705288174
 30
0.0
 10
505.611252939277
 20
511.4796421701463
 30
0.0
 10
503.9269332059936
 20
512.5840692813506
 30
0.0
 10
501.4601652497722
 20
513.8204100119734
 30
0.0
 10
499.1390704496429
 20
514.7694046220232
 30
0.0
 10
497.4029696323205
 20
515.3387252138597
 30
0.0
 10
496.1479584042962
 20
515.6850568109637
 30
0.0
 10
495.5050541497405
 20
515.8454127684165
 30
0.0
 10
495.1777068573586
 20
515.9235164139586
 30
0.0
 10
495.0853397215176
 20
515.9457567278955
 30
0.0
 10
495.0702405749943
 20
515.9493923257281
 30
0.0
  0
SPLINE
  5
142
330
1F
100
AcDbEntity
  8
0
  6
Continuous
 62
     7
370
    25
100
AcDbSpline
210
0.0
220
0.0
230
1.0
 70
     8
 71
     3
 72
    11
 73
     7
 74
     0
 42
0.00000001
 43
0.00000001
 40
0.0
 40
0.0
 40
0.0
 40
0.0
 40
0.0195561212296344
 40
0.1681891996744871
 40
0.589887654079204
 40
1.0
 40
1.0
 40
1.0
 40
1.0
 10
495.1802429860538
 20
515.9568039173769
 30
0.0
 10
495.1782847845612
 20
515.9568772748191
 30
0.0
 10
495.161443595146
 20
515.9575081734185
 30
0.0
 10
495.1095511915432
 20
515.9587585290717
 30
0.0
 10
495.060251790484
 20
515.9570528968211
 30
0.0
 10
495.066942042504
 20
515.9519220271767
 30
0.0
 10
495.0702405749943
 20
515.9493923257281
 30
0.0
  0
SPLINE
  5
143
330
1F
100
AcDbEntity
  8
0
  6
Continuous
 62
     7
370
    25
100
AcDbSpline
210
0.0
220
0.0
230
1.0
 70
     8
 71
     3
 72
    17
 73
    13
 74
     0
 42
0.00000001
 43
0.00000001
 40
0.0
 40
0.0
 40
0.0
 40
0.0
 40
0.0068263121770667
 40
0.0088448507297253
 40
0.0223990310416097
 40
0.0309593028397545
 40
0.056321891214913
 40
0.1198824177066667
 40
0.195746055635707
 40
0.5558621944880032
 40
0.7780336097977195
 40
1.0
 40
1.0
 40
1.0
 40
1.0
 10
495.1802429860538
 20
515.9568039173769
 30
0.0
 10
495.1838549409421
 20
515.9557375886699
 30
0.0
 10
495.1885349498548
 20
515.9543559468702
 30
0.0
 10
495.232007267833
 20
515.9464273553251
 30
0.0
 10
495.3064454656873
 20
515.9340960912415
 30
0.0
 10
495.4730724766687
 20
515.9070794496633
 30
0.0
 10
495.854181591774
 20
515.8455966759951
 30
0.0
 10
496.5362119465916
 20
515.7310876941771
 30
0.0
 10
498.6382896447587
 20
515.3475424903803
 30
0.0
 10
501.4462029480014
 20
514.6914897655777
 30
0.0
 10
504.8370000694904
 20
513.6521259924164
 30
0.0
 10
506.6757623167126
 20
512.9301983450329
 30
0.0
 10
507.5947190310271
 20
512.5694011512604
 30
0.0
  0
LINE
  5
144
330
1F
100
AcDbEntity
  8
0
  6
Continuous
 62
     7
370
    25
100
AcDbLine
 10
511.7065428005
 20
514.9149467658
 30
0.0
 11
511.5429822962
 21
512.3204932671
 31
0.0
  0
LINE
  5
145
330
1F
100
AcDbEntity
  8
0
  6
Continuous
 62
     7
370
    25
100
AcDbLine
 10
511.5429822962
 20
512.3204932671
 30
0.0
 11
507.594719031
 21
512.5694011513
 31
0.0
  0
LINE
  5
146
330
1F
100
AcDbEntity
  8
0
  6
Continuous
 62
     7
370
    25
100
AcDbLine
 10
514.5166205254
 20
513.8280678503
 30
0.0
 11
512.8918196041
 21
511.7987913877
 31
0.0
  0
LINE
  5
147
330
1F
100
AcDbEntity
  8
0
  6
Continuous
 62
     7
370
    25
100
AcDbLine
 10
523.8598686313
 20
512.6614622722
 30
0.0
 11
523.8593053322
 21
512.6620537155
 31
0.0
  0
ARC
  5
148
330
1F
100
AcDbEntity
  8
0
  6
Continuous
 62
     7
370
    25
100
AcDbCircle
 10
520.1367573437
 20
520.8472732265
 30
0.0
 40
11.5915549620674
100
AcDbArc
 50
231.316445536
 51
236.2074198262
  0
LWPOLYLINE
  5
149
330
1F
100
AcDbEntity
  8
0
  6
Continuous
 62
     7
370
    25
100
AcDbPolyline
 90
        4
 70
   128
 43
0.0
 10
495.070240575
 20
515.9493923257
 10
495.06786329
 20
515.9320520489
 10
495.0583506538
 20
515.8626911271
 10
495.051639487
 20
515.8137817353
  0
ARC
  5
14A
330
1F
100
AcDbEntity
  8
0
  6
Continuous
 62
     7
370
    25
100
AcDbCircle
 10
488.414240018
 20
485.0092891978
 30
0.0
 40
31.57783498432751
100
AcDbArc
 50
54.382108972
 51
55.1639863994
  0
LINE
  5
14B
330
1F
100
AcDbEntity
  8
0
  6
Continuous
 62
     7
370
    25
100
AcDbLine
 10
506.8044397215
 20
510.6795096324
 30
0.0
 11
506.7635119027
 21
510.6223799575
 31
0.0
  0
ARC
  5
14C
330
1F
100
AcDbEntity
  8
0
  6
Continuous
 62
     7
370
    25
100
AcDbCircle
 10
488.414240018
 20
485.0092891978
 30
0.0
 40
31.50755777528336
100
AcDbArc
 50
54.382108972
 51
74.4960411411
  0
LINE
  5
14D
330
1F
100
AcDbEntity
  8
0
  6
Continuous
 62
     7
370
    25
100
AcDbLine
 10
495.051639487
 20
515.8137817353
 30
0.0
 11
496.8363664133
 21
515.3703495209
 31
0.0
  0
LINE
  5
14E
330
1F
100
AcDbEntity
  8
0
  6
Continuous
 62
     7
370
    25
100
AcDbLine
 10
495.0591165788
 20
526.2608957478
 30
0.0
 11
495.1330320631
 21
526.270639024
 31
0.0
  0
SPLINE
  5
14F
330
1F
100
AcDbEntity
  8
0
  6
Continuous
 62
     7
370
    25
100
AcDbSpline
210
0.0
220
0.0
230
1.0
 70
     8
 71
     3
 72
    10
 73
     6
 74
     0
 42
0.00000001
 43
0.00000001
 40
0.0
 40
0.0
 40
0.0
 40
0.0
 40
0.0490769085761538
 40
0.5995805843665278
 40
0.9999999999999999
 40
0.9999999999999999
 40
0.9999999999999999
 40
0.9999999999999999
 10
512.8918196041363
 20
511.7987913876825
 30
0.0
 10
512.8729864546029
 20
511.813561156989
 30
0.0
 10
512.6428987997303
 20
511.9940058338989
 30
0.0
 10
512.1988602559303
 20
512.2315211603812
 30
0.0
 10
511.7373270074552
 20
512.294129736944
 30
0.0
 10
511.5429822961778
 20
512.3204932671464
 30
0.0
  0
ARC
  5
150
330
1F
100
AcDbEntity
  8
0
  6
Continuous
 62
     7
370
    25
100
AcDbCircle
 10
494.9650787214
 20
515.4604983384
 30
0.0
 40
0.5000763404765394
100
AcDbArc
 50
77.8605587266
 51
86.3914084239
  0
SPLINE
  5
151
330
1F
100
AcDbEntity
  8
0
  6
Continuous
 62
     7
370
    25
100
AcDbSpline
210
0.0
220
0.0
230
1.0
 70
     8
 71
     3
 72
     9
 73
     5
 74
     0
 42
0.00000001
 43
0.00000001
 40
0.0
 40
0.0
 40
0.0
 40
0.0
 40
0.8458911907780439
 40
1.0
 40
1.0
 40
1.0
 40
1.0
 10
495.0516394869706
 20
515.8137817353025
 30
0.0
 10
495.0308292143921
 20
515.8177586378491
 30
0.0
 10
495.0062276192871
 20
515.8224600729628
 30
0.0
 10
494.9816692820197
 20
515.8243787426828
 30
0.0
 10
494.9778846259069
 20
515.8246744265887
 30
0.0
  0
LINE
  5
152
330
1F
100
AcDbEntity
  8
0
  6
Continuous
 62
     7
370
    25
100
AcDbLine
 10
476.9913086494
 20
517.0309638925
 30
0.0
 11
476.9917664601
 21
517.0309352419
 31
0.0
  0
LINE
  5
153
330
1F
100
AcDbEntity
  8
0
  6
Continuous
 62
     7
370
    25
100
AcDbLine
 10
506.9647633807
 20
531.2207157259
 30
0.0
 11
508.811208339
 21
532.2033400701
 31
0.0
  0
LINE
  5
154
330
1F
100
AcDbEntity
  8
0
  6
Continuous
 62
     7
370
    25
100
AcDbLine
 10
509.5367508772
 20
530.3399105224
 30
0.0
 11
508.811208339
 21
532.2033400701
 31
0.0
  0
LINE
  5
155
330
1F
100
AcDbEntity
  8
0
  6
Continuous
 62
     7
370
    25
100
AcDbLine
 10
512.5271599346
 20
530.7957702087
 30
0.0
 11
512.6645255451
 21
532.7907419737
 31
0.0
  0
LINE
  5
156
330
1F
100
AcDbEntity
  8
0
  6
Continuous
 62
     7
370
    25
100
AcDbLine
 10
512.6645255451
 20
532.7907419737
 30
0.0
 11
514.1057678917
 21
532.5712304649
 31
0.0
  0
ARC
  5
157
330
1F
100
AcDbEntity
  8
0
  6
Continuous
 62
     7
370
    25
100
AcDbCircle
 10
512.0511192734
 20
523.8821935499
 30
0.0
 40
6.929946387144248
100
AcDbArc
 50
86.0610637176
 51
111.2738846725
  0
ARC
  5
158
330
1F
100
AcDbEntity
  8
0
  6
Continuous
 62
     7
370
    25
100
AcDbCircle
 10
512.0511192734
 20
523.8821935499
 30
0.0
 40
8.929641777457013
100
AcDbArc
 50
86.0610637176
 51
111.2738846725
  0
ARC
  5
159
330
1F
100
AcDbEntity
  8
0
  6
Continuous
 62
     7
370
    25
100
AcDbCircle
 10
488.414240018
 20
485.0092891978
 30
0.0
 40
33.57753037464033
100
AcDbArc
 50
54.382108972
 51
55.1639863994
  0
LINE
  5
15A
330
1F
100
AcDbEntity
  8
0
  6
Continuous
 62
     7
370
    25
100
AcDbLine
 10
507.9690160008
 20
512.3050999079
 30
0.0
 11
506.8044397215
 21
510.6795096324
 31
0.0
  0
ARC
  5
15B
330
1F
100
AcDbEntity
  8
0
  6
Continuous
 62
     7
370
    25
100
AcDbCircle
 10
503.583462541
 20
556.2026863295
 30
0.0
 40
46.10980537323356
100
AcDbArc
 50
282.4121193209
 51
282.6607017104
  0
ARC
  5
15C
330
1F
100
AcDbEntity
  8
0
  6
Continuous
 62
     7
370
    25
100
AcDbCircle
 10
512.0048562684
 20
517.9385846432
 30
0.0
 40
6.929946387144337
100
AcDbArc
 50
234.382108972
 51
282.4121193209
  0
LINE
  5
15D
330
1F
100
AcDbEntity
  8
0
  6
Continuous
 62
     7
370
    25
100
AcDbLine
 10
513.4943921816
 20
511.1706130348
 30
0.0
 11
513.9242105284
 21
509.2176568543
 31
0.0
  0
ARC
  5
15E
330
1F
100
AcDbEntity
  8
0
  6
Continuous
 62
     7
370
    25
100
AcDbCircle
 10
512.0048562684
 20
517.9385846432
 30
0.0
 40
8.929641777457167
100
AcDbArc
 50
234.382108972
 51
282.4121193209
  0
ARC
  5
15F
330
1F
100
AcDbEntity
  8
0
  6
Continuous
 62
     7
370
    25
100
AcDbCircle
 10
512.0511192734
 20
523.8821935499
 30
0.0
 40
8.99991898650118
100
AcDbArc
 50
76.6959574571
 51
124.7259678059
  0
ARC
  5
160
330
1F
100
AcDbEntity
  8
0
  6
Continuous
 62
     7
370
    25
100
AcDbCircle
 10
512.0048562684
 20
517.9385846432
 30
0.0
 40
8.999918986501315
100
AcDbArc
 50
234.382108972
 51
282.4121193209
  0
SPLINE
  5
161
330
1F
100
AcDbEntity
  8
0
  6
Continuous
 62
     7
370
    25
100
AcDbSpline
210
0.0
220
0.0
230
1.0
 70
     8
 71
     3
 72
    11
 73
     7
 74
     0
 42
0.00000001
 43
0.00000001
 40
0.0
 40
0.0
 40
0.0
 40
0.0
 40
0.220038642438224
 40
0.6637869905998153
 40
0.889036559078961
 40
1.0
 40
1.0
 40
1.0
 40
1.0
 10
729.7997085479681
 20
526.8614155129007
 30
0.0
 10
730.0134416699194
 20
526.6040064554749
 30
0.0
 10
730.6582068995152
 20
525.8274847423403
 30
0.0
 10
731.2273901966952
 20
524.5842104752667
 30
0.0
 10
731.5213172163884
 20
523.427573414376
 30
0.0
 10
731.5192349630735
 20
522.9158786961585
 30
0.0
 10
731.5185477380518
 20
522.7469994290063
 30
0.0
  0
SPLINE
  5
162
330
1F
100
AcDbEntity
  8
0
  6
Continuous
 62
     7
370
    25
100
AcDbSpline
210
0.0
220
0.0
230
1.0
 70
     8
 71
     3
 72
     9
 73
     5
 74
     0
 42
0.00000001
 43
0.00000001
 40
0.0
 40
0.0
 40
0.0
 40
0.0
 40
0.9209630919903141
 40
0.9999999999999999
 40
0.9999999999999999
 40
0.9999999999999999
 40
0.9999999999999999
 10
731.4503241457548
 20
526.6010041028176
 30
0.0
 10
730.9341749627083
 20
526.6390679188822
 30
0.0
 10
730.3737299377822
 20
526.6803983656677
 30
0.0
 10
729.8417542606268
 20
526.8481564338945
 30
0.0
 10
729.7997085479681
 20
526.8614155129007
 30
0.0
  0
SPLINE
  5
163
330
1F
100
AcDbEntity
  8
0
  6
Continuous
 62
     7
370
    25
100
AcDbSpline
210
0.0
220
0.0
230
1.0
 70
     8
 71
     3
 72
    10
 73
     6
 74
     0
 42
0.00000001
 43
0.00000001
 40
0.0
 40
0.0
 40
0.0
 40
0.0
 40
0.2596150688488831
 40
0.6297606444810658
 40
1.0
 40
1.0
 40
1.0
 40
1.0
 10
778.6885559169599
 20
525.728398353822
 30
0.0
 10
774.6025268301478
 20
525.8795161246501
 30
0.0
 10
764.690851354265
 20
526.2460897028764
 30
0.0
 10
748.9416415136378
 20
526.4988133224758
 30
0.0
 10
737.2812555842152
 20
526.5669376330782
 30
0.0
 10
731.4503241457548
 20
526.6010041028176
 30
0.0
  0
SPLINE
  5
164
330
1F
100
AcDbEntity
  8
0
  6
Continuous
 62
     7
370
    25
100
AcDbSpline
210
0.0
220
0.0
230
1.0
 70
     8
 71
     3
 72
    11
 73
     7
 74
     0
 42
0.00000001
 43
0.00000001
 40
0.0
 40
0.0
 40
0.0
 40
0.0
 40
0.0614641195413884
 40
0.4999988937835356
 40
0.9375097801832781
 40
1.0
 40
1.0
 40
1.0
 40
1.0
 10
778.8969905853303
 20
520.0061609043679
 30
0.0
 10
778.9044128698208
 20
520.1229654687721
 30
0.0
 10
778.9647917390265
 20
521.0731483303622
 30
0.0
 10
778.9830171782135
 20
522.872248301324
 30
0.0
 10
778.8340096040639
 20
524.6672118679169
 30
0.0
 10
778.7047151579287
 20
525.6105053771632
 30
0.0
 10
778.6885559169599
 20
525.728398353822
 30
0.0
  0
SPLINE
  5
165
330
1F
100
AcDbEntity
  8
0
  6
Continuous
 62
     7
370
    25
100
AcDbSpline
210
0.0
220
0.0
230
1.0
 70
     8
 71
     3
 72
    11
 73
     7
 74
     0
 42
0.00000001
 43
0.00000001
 40
0.0
 40
0.0
 40
0.0
 40
0.0
 40
0.2594589277291884
 40
0.6296002946237417
 40
0.8147836738016281
 40
0.9999999999999999
 40
0.9999999999999999
 40
0.9999999999999999
 40
0.9999999999999999
 10
731.8474306237555
 20
515.6990865974365
 30
0.0
 10
735.921700932596
 20
516.0131017804441
 30
0.0
 10
745.8082822473084
 20
516.7750877081141
 30
0.0
 10
758.5902367998341
 20
517.9193778708549
 30
0.0
 10
770.2021329270758
 20
519.0202157363608
 30
0.0
 10
775.9985328361619
 20
519.6774930267802
 30
0.0
 10
778.8969905853303
 20
520.0061609043679
 30
0.0
  0
SPLINE
  5
166
330
1F
100
AcDbEntity
  8
0
  6
Continuous
 62
     7
370
    25
100
AcDbSpline
210
0.0
220
0.0
230
1.0
 70
     8
 71
     3
 72
     9
 73
     5
 74
     0
 42
0.00000001
 43
0.00000001
 40
0.0
 40
0.0
 40
0.0
 40
0.0
 40
0.0790369080192268
 40
1.0
 40
1.0
 40
1.0
 40
1.0
 10
730.2201353537922
 20
515.3192760413546
 30
0.0
 10
730.2611049870522
 20
515.3355589858085
 30
0.0
 10
730.7794657666768
 20
515.541575957651
 30
0.0
 10
731.3354185913495
 20
515.6235716193287
 30
0.0
 10
731.8474306237555
 20
515.6990865974365
 30
0.0
  0
SPLINE
  5
167
330
1F
100
AcDbEntity
  8
0
  6
Continuous
 62
     7
370
    25
100
AcDbSpline
210
0.0
220
0.0
230
1.0
 70
     8
 71
     3
 72
    11
 73
     7
 74
     0
 42
0.00000001
 43
0.00000001
 40
0.0
 40
0.0
 40
0.0
 40
0.0
 40
0.0728838064943207
 40
0.414071941159601
 40
0.9209668754550627
 40
1.0
 40
1.0
 40
1.0
 40
1.0
 10
731.6350782846991
 20
519.5478413270231
 30
0.0
 10
731.6468087076423
 20
519.437748931555
 30
0.0
 10
731.7134523042425
 20
518.8122852779529
 30
0.0
 10
731.419531525421
 20
517.4176698932118
 30
0.0
 10
730.8264932065465
 20
516.125294531315
 30
0.0
 10
730.292203253232
 20
515.4150743545407
 30
0.0
 10
730.2201353537922
 20
515.3192760413546
 30
0.0
  0
SPLINE
  5
168
330
1F
100
AcDbEntity
  8
0
  6
Continuous
 62
     7
370
    25
100
AcDbSpline
210
0.0
220
0.0
230
1.0
 70
     8
 71
     3
 72
    10
 73
     6
 74
     0
 42
0.00000001
 43
0.00000001
 40
0.0
 40
0.0
 40
0.0
 40
0.0
 40
0.3880207377811383
 40
0.9790637766506785
 40
1.0
 40
1.0
 40
1.0
 40
1.0
 10
731.5185477380518
 20
522.7469994290063
 30
0.0
 10
731.4602368758514
 20
522.3337631093787
 30
0.0
 10
731.3131054279496
 20
521.2910747364385
 30
0.0
 10
731.4485634823186
 20
520.2015141553001
 30
0.0
 10
731.6289085580142
 20
519.5694641829056
 30
0.0
 10
731.6350782846991
 20
519.5478413270231
 30
0.0
  0
ARC
  5
169
330
1F
100
AcDbEntity
  8
0
  6
Continuous
 62
     7
370
    25
100
AcDbCircle
 10
723.3367573437
 20
520.8472732265
 30
0.0
 40
8.399443654264447
100
AcDbArc
 50
13.0718561911
 51
351.1003402052
  0
SPLINE
  5
16A
330
1F
100
AcDbEntity
  8
0
  6
Continuous
 62
     7
370
    25
100
AcDbSpline
210
0.0
220
0.0
230
1.0
 70
     8
 71
     3
 72
     9
 73
     5
 74
     0
 42
0.00000001
 43
0.00000001
 40
0.0
 40
0.0
 40
0.0
 40
0.0
 40
0.6817923421274682
 40
1.0
 40
1.0
 40
1.0
 40
1.0
 10
730.2201353537922
 20
515.3192760413546
 30
0.0
 10
730.0848790496739
 20
515.1243129785471
 30
0.0
 10
729.8864956185893
 20
514.8383563158499
 30
0.0
 10
729.6656998430593
 20
514.5972549145769
 30
0.0
 10
729.5954409364598
 20
514.520534602368
 30
0.0
  0
ARC
  5
16B
330
1F
100
AcDbEntity
  8
0
  6
Continuous
 62
     7
370
    25
100
AcDbCircle
 10
723.3367573437
 20
520.8472732265
 30
0.0
 40
8.899367501836489
100
AcDbArc
 50
49.4820173942
 51
314.690179002
  0
LINE
  5
16C
330
1F
100
AcDbEntity
  8
0
  6
Continuous
 62
     7
370
    25
100
AcDbLine
 10
729.1185578173
 20
527.6125910473
 30
0.0
 11
729.799708548
 21
526.8614155129
 31
0.0
  0
SPLINE
  5
16D
330
1F
100
AcDbEntity
  8
0
  6
Continuous
 62
     7
370
    25
100
AcDbSpline
210
0.0
220
0.0
230
1.0
 70
     8
 71
     3
 72
    10
 73
     6
 74
     0
 42
0.00000001
 43
0.00000001
 40
0.0
 40
0.0
 40
0.0
 40
0.0
 40
0.3702896688583036
 40
0.7405318123903291
 40
1.0
 40
1.0
 40
1.0
 40
1.0
 10
778.9246230512113
 20
519.5640141490965
 30
0.0
 10
773.1200717708612
 20
519.0321778080781
 30
0.0
 10
761.5117142031129
 20
517.9685733852929
 30
0.0
 10
745.8349045990619
 20
516.5277288581075
 30
0.0
 10
735.9642649344731
 20
515.6190821484312
 30
0.0
 10
731.8971298444778
 20
515.2446799776588
 30
0.0
  0
ARC
  5
16E
330
1F
100
AcDbEntity
  8
0
  6
Continuous
 62
     7
370
    25
100
AcDbCircle
 10
739.080013093
 20
516.2602052236
 30
0.0
 40
7.254316183291094
100
AcDbArc
 50
184.4362381429
 51
188.0472159295
  0
ARC
  5
16F
330
1F
100
AcDbEntity
  8
0
  6
Continuous
 62
     7
370
    25
100
AcDbCircle
 10
774.6628924631
 20
519.519609273
 30
0.0
 40
4.261961918950617
100
AcDbArc
 50
0.5969687368
 51
6.5552595045
  0
SPLINE
  5
170
330
1F
100
AcDbEntity
  8
0
  6
Continuous
 62
     7
370
    25
100
AcDbSpline
210
0.0
220
0.0
230
1.0
 70
     8
 71
     3
 72
    10
 73
     6
 74
     0
 42
0.00000001
 43
0.00000001
 40
0.0
 40
0.0
 40
0.0
 40
0.0
 40
0.3702717503651151
 40
0.7405122151371745
 40
0.9999999999999999
 40
0.9999999999999999
 40
0.9999999999999999
 40
0.9999999999999999
 10
731.466831656063
 20
527.0578223278715
 30
0.0
 10
737.2943871972479
 20
526.9473508661904
 30
0.0
 10
748.9490058884725
 20
526.72641727696
 30
0.0
 10
764.6893536193516
 20
526.4303747386189
 30
0.0
 10
774.6000958016548
 20
526.2469615603309
 30
0.0
 10
778.6839471085059
 20
526.1713837545454
 30
0.0
  0
ARC
  5
171
330
1F
100
AcDbEntity
  8
0
  6
Continuous
 62
     7
370
    25
100
AcDbCircle
 10
774.4302798885
 20
525.9056120374
 30
0.0
 40
4.261961921916278
100
AcDbArc
 50
357.6169368942
 51
3.5752276578
  0
ARC
  5
172
330
1F
100
AcDbEntity
  8
0
  6
Continuous
 62
     7
370
    25
100
AcDbCircle
 10
738.7045632981
 20
526.5675734461
 30
0.0
 40
7.254316183346197
100
AcDbArc
 50
176.1249804668
 51
179.7359582533
  0
SPLINE
  5
173
330
1F
100
AcDbEntity
  8
0
  6
Continuous
 62
     7
370
    25
100
AcDbSpline
210
0.0
220
0.0
230
1.0
 70
     8
 71
     3
 72
    12
 73
     8
 74
     0
 42
0.00000001
 43
0.00000001
 40
0.0
 40
0.0
 40
0.0
 40
0.0
 40
0.1224290494151404
 40
0.3423522449770314
 40
0.561422881690942
 40
0.7807229538533451
 40
0.9999999999999999
 40
0.9999999999999999
 40
0.9999999999999999
 40
0.9999999999999999
 10
780.627029140836
 20
525.6882602087168
 30
0.0
 10
780.6179451733408
 20
525.6902895704403
 30
0.0
 10
780.5925433861007
 20
525.6959643391757
 30
0.0
 10
780.3760797360593
 20
525.7050988158175
 30
0.0
 10
779.9395418644508
 20
525.7147256509844
 30
0.0
 10
779.3549275085803
 20
525.7230026325475
 30
0.0
 10
778.91067200612
 20
525.726599843017
 30
0.0
 10
778.6885559169599
 20
525.728398353822
 30
0.0
  0
SPLINE
  5
174
330
1F
100
AcDbEntity
  8
0
  6
Continuous
 62
     7
370
    25
100
AcDbSpline
210
0.0
220
0.0
230
1.0
 70
     8
 71
     3
 72
    11
 73
     7
 74
     0
 42
0.00000001
 43
0.00000001
 40
0.0
 40
0.0
 40
0.0
 40
0.0
 40
0.0800485240044365
 40
0.5000005853538845
 40
0.9209248322279636
 40
1.0
 40
1.0
 40
1.0
 40
1.0
 10
780.627029140836
 20
525.6882602087168
 30
0.0
 10
780.632066564307
 20
525.5421022866816
 30
0.0
 10
780.6635314128537
 20
524.6291679449109
 30
0.0
 10
780.7239751422734
 20
522.935836337219
 30
0.0
 10
780.7868257335944
 20
521.2443763185704
 30
0.0
 10
780.8218649678429
 20
520.331583465826
 30
0.0
 10
780.827406440984
 20
520.1872248008806
 30
0.0
  0
SPLINE
  5
175
330
1F
100
AcDbEntity
  8
0
  6
Continuous
 62
     7
370
    25
100
AcDbSpline
210
0.0
220
0.0
230
1.0
 70
     8
 71
     3
 72
    12
 73
     8
 74
     0
 42
0.00000001
 43
0.00000001
 40
0.0
 40
0.0
 40
0.0
 40
0.0
 40
0.1130367476169236
 40
0.3328594693547968
 40
0.5544127937944889
 40
0.7774207483513275
 40
1.0
 40
1.0
 40
1.0
 40
1.0
 10
778.8969905853303
 20
520.0061609043679
 30
0.0
 10
779.0108032643191
 20
520.0153251460791
 30
0.0
 10
779.3459476198738
 20
520.0423111015082
 30
0.0
 10
779.8787299377088
 20
520.0873270758657
 30
0.0
 10
780.3938985568826
 20
520.1339860374226
 30
0.0
 10
780.7497034307289
 20
520.1704037847074
 30
0.0
 10
780.8015220559327
 20
520.1816213930055
 30
0.0
 10
780.827406440984
 20
520.1872248008806
 30
0.0
  0
SPLINE
  5
176
330
1F
100
AcDbEntity
  8
0
  6
Continuous
 62
     7
370
    25
100
AcDbSpline
210
0.0
220
0.0
230
1.0
 70
     8
 71
     3
 72
     9
 73
     5
 74
     0
 42
0.00000001
 43
0.00000001
 40
0.0
 40
0.0
 40
0.0
 40
0.0
 40
0.5000106123815415
 40
1.0
 40
1.0
 40
1.0
 40
1.0
 10
728.6035618726651
 20
528.0259501980213
 30
0.0
 10
729.0434761959701
 20
527.7539428146229
 30
0.0
 10
729.9232861688218
 20
527.2099395941652
 30
0.0
 10
730.9523237740092
 20
527.1085273658191
 30
0.0
 10
731.466831656063
 20
527.0578223278715
 30
0.0
  0
SPLINE
  5
177
330
1F
100
AcDbEntity
  8
0
  6
Continuous
 62
     7
370
    25
100
AcDbSpline
210
0.0
220
0.0
230
1.0
 70
     8
 71
     3
 72
     9
 73
     5
 74
     0
 42
0.00000001
 43
0.00000001
 40
0.0
 40
0.0
 40
0.0
 40
0.0
 40
0.98387023264592
 40
1.0
 40
1.0
 40
1.0
 40
1.0
 10
729.1185578173132
 20
527.6125910473319
 30
0.0
 10
728.9520518509582
 20
527.7514544679744
 30
0.0
 10
728.7828161521534
 20
527.8925944435881
 30
0.0
 10
728.6064073063077
 20
528.0238333450726
 30
0.0
 10
728.6035618726651
 20
528.0259501980213
 30
0.0
  0
SPLINE
  5
178
330
1F
100
AcDbEntity
  8
0
  6
Continuous
 62
     7
370
    25
100
AcDbSpline
210
0.0
220
0.0
230
1.0
 70
     8
 71
     3
 72
     9
 73
     5
 74
     0
 42
0.00000001
 43
0.00000001
 40
0.0
 40
0.0
 40
0.0
 40
0.0
 40
0.5055561057107233
 40
1.0
 40
1.0
 40
1.0
 40
1.0
 10
731.8971298444778
 20
515.2446799776588
 30
0.0
 10
731.3819856354861
 20
515.155212762321
 30
0.0
 10
730.363020177107
 20
514.9782448366501
 30
0.0
 10
729.5258279790155
 20
514.371034303533
 30
0.0
 10
729.1118834083226
 20
514.0708027628851
 30
0.0
  0
SPLINE
  5
179
330
1F
100
AcDbEntity
  8
0
  6
Continuous
 62
     7
370
    25
100
AcDbSpline
210
0.0
220
0.0
230
1.0
 70
     8
 71
     3
 72
     9
 73
     5
 74
     0
 42
0.00000001
 43
0.00000001
 40
0.0
 40
0.0
 40
0.0
 40
0.0
 40
0.016129767353355
 40
1.0
 40
1.0
 40
1.0
 40
1.0
 10
729.1118834083226
 20
514.0708027628851
 30
0.0
 10
729.11456729128
 20
514.0731210232872
 30
0.0
 10
729.2809604511249
 20
514.2168466177867
 30
0.0
 10
729.4394791284859
 20
514.3699251708007
 30
0.0
 10
729.5954409364598
 20
514.5205346023679
 30
0.0
  0
SPLINE
  5
17A
330
1F
100
AcDbEntity
  8
0
  6
Continuous
 62
     7
370
    25
100
AcDbSpline
210
0.0
220
0.0
230
1.0
 70
     8
 71
     3
 72
    12
 73
     8
 74
     0
 42
0.00000001
 43
0.00000001
 40
0.0
 40
0.0
 40
0.0
 40
0.0
 40
0.2230315344150147
 40
0.4461337558340165
 40
0.667509989677705
 40
0.887066729226497
 40
1.0
 40
1.0
 40
1.0
 40
1.0
 10
780.3735353801156
 20
519.6711982673104
 30
0.0
 10
780.3539457325605
 20
519.6723762078487
 30
0.0
 10
780.3147602287609
 20
519.6747324622588
 30
0.0
 10
780.0476011178532
 20
519.658053649715
 30
0.0
 10
779.6608963193148
 20
519.6283686200795
 30
0.0
 10
779.261143684246
 20
519.5944573745594
 30
0.0
 10
779.0099449851655
 20
519.5717327690484
 30
0.0
 10
778.9246230512113
 20
519.5640141490965
 30
0.0
  0
ARC
  5
17B
330
1F
100
AcDbEntity
  8
0
  6
Continuous
 62
     7
370
    25
100
AcDbCircle
 10
780.327631928
 20
520.1691870206
 30
0.0
 40
0.5000999153471017
100
AcDbArc
 50
275.2665101228
 51
2.0670127364
  0
SPLINE
  5
17C
330
1F
100
AcDbEntity
  8
0
  6
Continuous
 62
     7
370
    25
100
AcDbSpline
210
0.0
220
0.0
230
1.0
 70
     8
 71
     3
 72
    12
 73
     8
 74
     0
 42
0.00000001
 43
0.00000001
 40
0.0
 40
0.0
 40
0.0
 40
0.0
 40
0.2190444340109149
 40
0.4380981679380291
 40
0.657102749369184
 40
0.8772791087290126
 40
1.0
 40
1.0
 40
1.0
 40
1.0
 10
778.6839471085059
 20
526.1713837545453
 30
0.0
 10
778.850575936527
 20
526.1686186046951
 30
0.0
 10
779.1838406670887
 20
526.1630881875952
 30
0.0
 10
779.6224192197348
 20
526.1595321438756
 30
0.0
 10
779.9495798961531
 20
526.1601358140896
 30
0.0
 10
780.1113829030534
 20
526.1642044723176
 30
0.0
 10
780.1301140174179
 20
526.1683975163189
 30
0.0
 10
780.1368177720998
 20
526.1698981818857
 30
0.0
  0
ARC
  5
17D
330
1F
100
AcDbEntity
  8
0
  6
Continuous
 62
     7
370
    25
100
AcDbCircle
 10
780.1272667557
 20
525.6698894785
 30
0.0
 40
0.5000999153473773
100
AcDbArc
 50
2.1051836605
 51
88.9056862734
  0
LINE
  5
17E
330
1F
100
AcDbEntity
  8
0
  6
Continuous
 62
     7
370
    25
100
AcDbLine
 10
731.8971298445
 20
515.2446799777
 30
0.0
 11
731.9266931955
 21
515.17441928
 31
0.0
  0
LINE
  5
17F
330
1F
100
AcDbEntity
  8
0
  6
Continuous
 62
     7
370
    25
100
AcDbLine
 10
780.3783841975
 20
519.6669334907
 30
0.0
 11
780.3735353801
 21
519.6711982673
 31
0.0
  0
ELLIPSE
  5
180
330
1F
100
AcDbEntity
  8
0
  6
Continuous
 62
     7
370
    25
100
AcDbEllipse
 10
778.8826385687
 20
519.5291027009
 30
0.0
 11
1.495988521560548
 21
0.1374195422812363
 31
0.0
210
0.0
220
0.0
230
1.0
 40
0.0174284859
 41
5.396717970283366
 42
6.299675703197166
  0
LINE
  5
181
330
1F
100
AcDbEntity
  8
0
  6
Continuous
 62
     7
370
    25
100
AcDbLine
 10
776.3762902175
 20
519.228909978
 30
0.0
 11
779.8301883001
 21
519.5957705593
 31
0.0
  0
LINE
  5
182
330
1F
100
AcDbEntity
  8
0
  6
Continuous
 62
     7
370
    25
100
AcDbLine
 10
776.3762866359
 20
519.229008304
 30
0.0
 11
776.3762902175
 21
519.228909978
 31
0.0
  0
ELLIPSE
  5
183
330
1F
100
AcDbEntity
  8
0
  6
Continuous
 62
     7
370
    25
100
AcDbEllipse
 10
766.9450623364
 20
518.5556077161
 30
0.0
 11
14.46122237508609
 21
1.328388908719035
 31
0.0
210
0.0
220
0.0
230
1.0
 40
0.0174284859
 41
4.685109492442187
 42
5.421234828998396
  0
ELLIPSE
  5
184
330
1F
100
AcDbEntity
  8
0
  6
Continuous
 62
     7
370
    25
100
AcDbEllipse
 10
765.6595194112
 20
517.5578675654
 30
0.0
 11
35.60716134593133
 21
3.270827111018435
 31
0.0
210
0.0
220
0.0
230
1.0
 40
0.0174284859
 41
1.543516838852413
 42
2.025717338718086
  0
ELLIPSE
  5
185
330
1F
100
AcDbEntity
  8
0
  6
Continuous
 62
     7
370
    25
100
AcDbEllipse
 10
746.6654531717
 20
516.4933584751
 30
0.0
 11
7.479942607803196
 21
0.687097711406409
 31
0.0
210
0.0
220
0.0
230
1.0
 40
0.0174284859
 41
4.976419334598027
 42
5.167309992308113
  0
LINE
  5
186
330
1F
100
AcDbEntity
  8
0
  6
Continuous
 62
     7
370
    25
100
AcDbLine
 10
748.6039992627
 20
516.6964029713
 30
0.0
 11
748.6290789203
 21
516.5468262261
 31
0.0
  0
SPLINE
  5
187
330
1F
100
AcDbEntity
  8
0
  6
Continuous
 62
     7
370
    25
100
AcDbSpline
210
0.0
220
0.0
230
1.0
 70
     8
 71
     3
 72
    10
 73
     6
 74
     0
 42
0.00000001
 43
0.00000001
 40
0.0
 40
0.0
 40
0.0
 40
0.0
 40
0.0186368637458517
 40
0.3939469944633582
 40
1.0
 40
1.0
 40
1.0
 40
1.0
 10
748.4203674748627
 20
516.6892274240157
 30
0.0
 10
748.4228188600471
 20
516.6894045253244
 30
0.0
 10
748.4746363674751
 20
516.6931481019932
 30
0.0
 10
748.5784687366278
 20
516.6996119941003
 30
0.0
 10
748.594252069379
 20
516.6976281307658
 30
0.0
 10
748.6039992627449
 20
516.6964029712993
 30
0.0
  0
LINE
  5
188
330
1F
100
AcDbEntity
  8
0
  6
Continuous
 62
     7
370
    25
100
AcDbLine
 10
731.9266931955
 20
515.17441928
 30
0.0
 11
748.4203674749
 21
516.689227424
 31
0.0
  0
LINE
  5
189
330
1F
100
AcDbEntity
  8
0
  6
Continuous
 62
     7
370
    25
100
AcDbLine
 10
748.0528525125
 20
526.8355065683
 30
0.0
 11
731.4966604398
 21
527.146241074
 31
0.0
  0
SPLINE
  5
18A
330
1F
100
AcDbEntity
  8
0
  6
Continuous
 62
     7
370
    25
100
AcDbSpline
210
0.0
220
0.0
230
1.0
 70
     8
 71
     3
 72
    11
 73
     7
 74
     0
 42
0.00000001
 43
0.00000001
 40
0.0
 40
0.0
 40
0.0
 40
0.0
 40
0.4177469294495273
 40
0.8392770662410969
 40
0.9817832068819233
 40
1.0
 40
1.0
 40
1.0
 40
1.0
 10
748.236485324827
 20
526.840845122884
 30
0.0
 10
748.2318907994614
 20
526.8395938560169
 30
0.0
 10
748.2226601397058
 20
526.8370799905368
 30
0.0
 10
748.1471699481101
 20
526.8355332058461
 30
0.0
 10
748.0768663818584
 20
526.8354445375484
 30
0.0
 10
748.0552972222321
 20
526.8355002533096
 30
0.0
 10
748.0528525125105
 20
526.8355065682921
 30
0.0
  0
LINE
  5
18B
330
1F
100
AcDbEntity
  8
0
  6
Continuous
 62
     7
370
    25
100
AcDbLine
 10
748.2491760326
 20
526.9764469235
 30
0.0
 11
748.2364853248
 21
526.8408451229
 31
0.0
  0
ELLIPSE
  5
18C
330
1F
100
AcDbEntity
  8
0
  6
Continuous
 62
     7
370
    25
100
AcDbEllipse
 10
746.2868640842
 20
526.8869109056
 30
0.0
 11
7.510109272643604
 21
-0.141079389000879
 31
0.0
210
0.0
220
0.0
230
1.0
 40
0.0174284859
 41
1.115875314872032
 42
1.306765972581958
  0
ELLIPSE
  5
18D
330
1F
100
AcDbEntity
  8
0
  6
Continuous
 62
     7
370
    25
100
AcDbEllipse
 10
765.3080416792
 20
527.2071214835
 30
0.0
 11
35.75076529566275
 21
-0.6715875816342987
 31
0.0
210
0.0
220
0.0
230
1.0
 40
0.0174284859
 41
4.257467968461741
 42
4.739668468327165
  0
ELLIPSE
  5
18E
330
1F
100
AcDbEntity
  8
0
  6
Continuous
 62
     7
370
    25
100
AcDbEllipse
 10
766.6627676005
 20
526.3055541264
 30
0.0
 11
14.51954459377771
 21
-0.2727534854016085
 31
0.0
210
0.0
220
0.0
230
1.0
 40
0.0174284859
 41
0.8619504781819016
 42
1.598075814737382
  0
LINE
  5
18F
330
1F
100
AcDbEntity
  8
0
  6
Continuous
 62
     7
370
    25
100
AcDbLine
 10
776.1179873674
 20
526.3201978798
 30
0.0
 11
776.1179909489
 21
526.3200995538
 31
0.0
  0
LINE
  5
190
330
1F
100
AcDbEntity
  8
0
  6
Continuous
 62
     7
370
    25
100
AcDbLine
 10
779.5894229317
 20
526.2055952019
 30
0.0
 11
776.1179873674
 21
526.3201978798
 31
0.0
  0
ELLIPSE
  5
191
330
1F
100
AcDbEntity
  8
0
  6
Continuous
 62
     7
370
    25
100
AcDbEllipse
 10
778.6395339336
 20
526.2031481353
 30
0.0
 11
1.502021854528721
 21
-0.02821587780010759
 31
0.0
210
0.0
220
0.0
230
1.0
 40
0.0174284859
 41
0.4961961460180734
 42
0.8864673368924687
  0
LINE
  5
192
330
1F
100
AcDbEntity
  8
0
  6
Continuous
 62
     7
370
    25
100
AcDbLine
 10
780.1368177721
 20
526.1698981819
 30
0.0
 11
780.1413434591
 21
526.1745044283
 31
0.0
  0
LINE
  5
193
330
1F
100
AcDbEntity
  8
0
  6
Continuous
 62
     7
370
    25
100
AcDbLine
 10
731.4966604398
 20
527.146241074
 30
0.0
 11
731.4668316561
 21
527.0578223279
 31
0.0
  0
SPLINE
  5
194
330
1F
100
AcDbEntity
  8
0
  6
Continuous
 62
     7
370
    25
100
AcDbSpline
210
0.0
220
0.0
230
1.0
 70
     8
 71
     3
 72
     9
 73
     5
 74
     0
 42
0.00000001
 43
0.00000001
 40
0.0
 40
0.0
 40
0.0
 40
0.0
 40
0.5001021276704734
 40
1.0
 40
1.0
 40
1.0
 40
1.0
 10
729.1474715087704
 20
514.0063640604444
 30
0.0
 10
729.5657051137108
 20
514.3083140314209
 30
0.0
 10
730.4020015055867
 20
514.9120906487751
 30
0.0
 10
731.4185318428008
 20
515.0869883108404
 30
0.0
 10
731.9266931955325
 20
515.1744192799824
 30
0.0
  0
LINE
  5
195
330
1F
100
AcDbEntity
  8
0
  6
Continuous
 62
     7
370
    25
100
AcDbLine
 10
729.1474715088
 20
514.0063640604
 30
0.0
 11
729.1118834083
 21
514.0708027629
 31
0.0
  0
SPLINE
  5
196
330
1F
100
AcDbEntity
  8
0
  6
Continuous
 62
     7
370
    25
100
AcDbSpline
210
0.0
220
0.0
230
1.0
 70
     8
 71
     3
 72
     9
 73
     5
 74
     0
 42
0.00000001
 43
0.00000001
 40
0.0
 40
0.0
 40
0.0
 40
0.0
 40
0.4007227371565328
 40
1.0
 40
1.0
 40
1.0
 40
1.0
 10
731.496660439824
 20
527.1462410740343
 30
0.0
 10
731.0864830866888
 20
527.1797395734477
 30
0.0
 10
730.0628891772295
 20
527.263334778579
 30
0.0
 10
729.1740005105698
 20
527.7914353995781
 30
0.0
 10
728.6413097434413
 20
528.1079140942363
 30
0.0
  0
LINE
  5
197
330
1F
100
AcDbEntity
  8
0
  6
Continuous
 62
     7
370
    25
100
AcDbLine
 10
728.6035618727
 20
528.025950198
 30
0.0
 11
728.6413097434
 21
528.1079140942
 31
0.0
  0
ARC
  5
198
330
1F
100
AcDbEntity
  8
0
  6
Continuous
 62
     7
370
    25
100
AcDbCircle
 10
723.3367573437
 20
520.8472732265
 30
0.0
 40
8.97565804422211
100
AcDbArc
 50
247.2509835928
 51
310.344796181
  0
LWPOLYLINE
  5
199
330
1F
100
AcDbEntity
  8
0
  6
Continuous
 62
     7
370
    25
100
AcDbPolyline
 90
        3
 70
   128
 43
0.0
 10
719.7043862588
 20
512.4588313022
 10
719.8064868423
 20
512.5288467034
 10
719.8659140875
 20
512.5698530718
  0
ARC
  5
19A
330
1F
100
AcDbEntity
  8
0
  6
Continuous
 62
     7
370
    25
100
AcDbCircle
 10
723.3367573437
 20
520.8472732265
 30
0.0
 40
9.141120151092116
100
AcDbArc
 50
117.5858146157
 51
246.5863776271
  0
LWPOLYLINE
  5
19B
330
1F
100
AcDbEntity
  8
0
  6
Continuous
 62
     7
370
    25
100
AcDbPolyline
 90
        3
 70
   128
 43
0.0
 10
719.2562339568
 20
528.8600449605
 10
719.2106417193
 20
528.8868129825
 10
719.103717796
 20
528.9492145871
  0
ARC
  5
19C
330
1F
100
AcDbEntity
  8
0
  6
Continuous
 62
     7
370
    25
100
AcDbCircle
 10
723.3367573437
 20
520.8472732265
 30
0.0
 40
8.991950954660808
100
AcDbArc
 50
53.8485053452
 51
116.9875793647
  0
LINE
  5
19D
330
1F
100
AcDbEntity
  8
0
  6
Continuous
 62
     7
370
    25
100
AcDbLine
 10
780.6315548278
 20
525.6928664552
 30
0.0
 11
780.6270291408
 21
525.6882602087
 31
0.0
  0
LINE
  5
19E
330
1F
100
AcDbEntity
  8
0
  6
Continuous
 62
     7
370
    25
100
AcDbLine
 10
780.8322552583
 20
520.1829600243
 30
0.0
 11
780.6315548278
 21
525.6928664552
 31
0.0
  0
LINE
  5
19F
330
1F
100
AcDbEntity
  8
0
  6
Continuous
 62
     7
370
    25
100
AcDbLine
 10
780.827406441
 20
520.1872248009
 30
0.0
 11
780.8322552583
 21
520.1829600243
 31
0.0
  0
ARC
  5
1A0
330
1F
100
AcDbEntity
  8
0
  6
Continuous
 62
     7
370
    25
100
AcDbCircle
 10
780.1317924427
 20
525.674495725
 30
0.0
 40
0.5000999153470499
100
AcDbArc
 50
2.1051836598
 51
88.9056862734
  0
ARC
  5
1A1
330
1F
100
AcDbEntity
  8
0
  6
Continuous
 62
     7
370
    25
100
AcDbCircle
 10
780.3324807454
 20
520.164922244
 30
0.0
 40
0.5000999153466555
100
AcDbArc
 50
275.2665101229
 51
2.0670127364
  0
LINE
  5
1A2
330
1F
100
AcDbEntity
  8
0
  6
Continuous
 62
     7
370
    25
100
AcDbLine
 10
779.8301883001
 20
519.5957705593
 30
0.0
 11
779.8372779596
 21
519.5963960829
 31
0.0
  0
LINE
  5
1A3
330
1F
100
AcDbEntity
  8
0
  6
Continuous
 62
     7
370
    25
100
AcDbLine
 10
779.5894229317
 20
526.2055952019
 30
0.0
 11
779.5965393125
 21
526.2054871387
 31
0.0
  0
SPLINE
  5
1A4
330
1F
100
AcDbEntity
  8
0
  6
Continuous
 62
     7
370
    25
100
AcDbSpline
210
0.0
220
0.0
230
1.0
 70
     8
 71
     3
 72
    12
 73
     8
 74
     0
 42
0.00000001
 43
0.00000001
 40
0.0
 40
0.0
 40
0.0
 40
0.0
 40
0.1345419440893856
 40
0.4125227334043408
 40
0.6966514762099323
 40
0.8475579366075736
 40
1.0
 40
1.0
 40
1.0
 40
1.0
 10
719.8651653589533
 20
512.5690186470816
 30
0.0
 10
720.3011845105979
 20
512.3939488109569
 30
0.0
 10
721.6380747530458
 20
511.8571623996735
 30
0.0
 10
724.0328784924785
 20
511.3190309288719
 30
0.0
 10
726.5671212480266
 20
511.1097861921696
 30
0.0
 10
728.7144809062431
 20
511.0823478887574
 30
0.0
 10
729.8502805515172
 20
511.1180831180211
 30
0.0
 10
730.4210551818425
 20
511.1360411816262
 30
0.0
  0
ARC
  5
1A5
330
1F
100
AcDbEntity
  8
0
  6
Continuous
 62
     7
370
    25
100
AcDbCircle
 10
725.9089392271
 20
511.5919207495
 30
0.0
 40
4.535087272524241
100
AcDbArc
 50
331.1145608389
 51
354.2307248964
  0
SPLINE
  5
1A6
330
1F
100
AcDbEntity
  8
0
  6
Continuous
 62
     7
370
    25
100
AcDbSpline
210
0.0
220
0.0
230
1.0
 70
     8
 71
     3
 72
    12
 73
     8
 74
     0
 42
0.00000001
 43
0.00000001
 40
0.0
 40
0.0
 40
0.0
 40
0.0
 40
0.1662426524176561
 40
0.3368059756191312
 40
0.6054181071254583
 40
0.8801435087136187
 40
1.0
 40
1.0
 40
1.0
 40
1.0
 10
729.8798041266565
 20
509.4012020275393
 30
0.0
 10
729.236885373228
 20
509.533371759015
 30
0.0
 10
727.9343383141963
 20
509.8011463325653
 30
0.0
 10
725.7274667389623
 20
510.3841649718135
 30
0.0
 10
723.3360368310595
 20
511.1498163098599
 30
0.0
 10
721.341129191368
 20
511.920338539474
 30
0.0
 10
720.2085136543916
 20
512.4172973808622
 30
0.0
 10
719.86447525149
 20
512.5682514517869
 30
0.0
  0
LINE
  5
1A7
330
1F
100
AcDbEntity
  8
0
  6
Continuous
 62
     7
370
    25
100
AcDbLine
 10
719.8644752515
 20
512.5682514518
 30
0.0
 11
719.865165359
 21
512.5690186471
 31
0.0
  0
LINE
  5
1A8
330
1F
100
AcDbEntity
  8
0
  6
Continuous
 62
     7
370
    25
100
AcDbLine
 10
729.8798041267
 20
509.4012020275
 30
0.0
 11
729.8664854822
 21
509.3311972855
 31
0.0
  0
ARC
  5
1A9
330
1F
100
AcDbEntity
  8
0
  6
Continuous
 62
     7
370
    25
100
AcDbCircle
 10
738.8713322416
 20
556.6619879014
 30
0.0
 40
48.17977797259047
100
AcDbArc
 50
246.5579461104
 51
259.2280172662
  0
LWPOLYLINE
  5
1AA
330
1F
100
AcDbEntity
  8
0
  6
Continuous
 62
     7
370
    25
100
AcDbPolyline
 90
        3
 70
   128
 43
0.0
 10
719.8644752515
 20
512.5682514518
 10
719.8064926694
 20
512.5285908256
 10
719.7043863152
 20
512.4588297642
  0
LINE
  5
1AB
330
1F
100
AcDbEntity
  8
0
  6
Continuous
 62
     7
370
    25
100
AcDbLine
 10
729.1474715088
 20
514.0063640604
 30
0.0
 11
731.4453413067
 21
511.3010995927
 31
0.0
  0
ARC
  5
1AC
330
1F
100
AcDbEntity
  8
0
  6
Continuous
 62
     7
370
    25
100
AcDbCircle
 10
723.3367573437
 20
520.8472732265
 30
0.0
 40
12.52511736202728
100
AcDbArc
 50
309.9444050683
 51
310.344796181
  0
LINE
  5
1AD
330
1F
100
AcDbEntity
  8
0
  6
Continuous
 62
     7
370
    25
100
AcDbLine
 10
730.4210551818
 20
511.1360411816
 30
0.0
 11
731.3784338341
 21
511.2446691965
 31
0.0
  0
LINE
  5
1AE
330
1F
100
AcDbEntity
  8
0
  6
Continuous
 62
     7
370
    25
100
AcDbLine
 10
719.8659140875
 20
512.5698530718
 30
0.0
 11
719.865165359
 21
512.5690186471
 31
0.0
  0
ARC
  5
1AF
330
1F
100
AcDbEntity
  8
0
  6
Continuous
 62
     7
370
    25
100
AcDbCircle
 10
741.4346289677
 20
516.2263963157
 30
0.0
 40
6.834138728220782
100
AcDbArc
 50
213.9632053284
 51
229.0348989409
  0
SPLINE
  5
1B0
330
1F
100
AcDbEntity
  8
0
  6
Continuous
 62
     7
370
    25
100
AcDbSpline
210
0.0
220
0.0
230
1.0
 70
     8
 71
     3
 72
    17
 73
    13
 74
     0
 42
0.00000001
 43
0.00000001
 40
0.0
 40
0.0
 40
0.0
 40
0.0
 40
0.2859834379244687
 40
0.521592264412223
 40
0.7592399016809381
 40
0.8521492405060495
 40
0.9266708633836008
 40
0.9605058393195367
 40
0.9835417153308584
 40
0.9930790992390821
 40
0.9972256067114856
 40
1.0
 40
1.0
 40
1.0
 40
1.0
 10
735.7664181668906
 20
512.4084337079244
 30
0.0
 10
736.9750213260548
 20
512.9846783867372
 30
0.0
 10
739.1793379925704
 20
514.0356650070075
 30
0.0
 10
742.4781353218685
 20
515.1987468119996
 30
0.0
 10
744.9566427063088
 20
515.9072556715123
 30
0.0
 10
746.7128905896432
 20
516.3254377265039
 30
0.0
 10
747.5718067615015
 20
516.511527703572
 30
0.0
 10
748.0938243512359
 20
516.6191010748012
 30
0.0
 10
748.3259078899658
 20
516.6666925068075
 30
0.0
 10
748.4029853299809
 20
516.6838293451849
 30
0.0
 10
748.4189204129419
 20
516.6881460151059
 30
0.0
 10
748.419953385423
 20
516.6889179693868
 30
0.0
 10
748.4203674748627
 20
516.6892274240157
 30
0.0
  0
SPLINE
  5
1B1
330
1F
100
AcDbEntity
  8
0
  6
Continuous
 62
     7
370
    25
100
AcDbSpline
210
0.0
220
0.0
230
1.0
 70
     8
 71
     3
 72
    10
 73
     6
 74
     0
 42
0.00000001
 43
0.00000001
 40
0.0
 40
0.0
 40
0.0
 40
0.0
 40
0.59758553655744
 40
0.9790563563181977
 40
1.0
 40
1.0
 40
1.0
 40
1.0
 10
748.5306521062193
 20
516.6841116333677
 30
0.0
 10
748.5330334609586
 20
516.6879401526865
 30
0.0
 10
748.5369349618342
 20
516.6942126207181
 30
0.0
 10
748.4625994171399
 20
516.6918817289069
 30
0.0
 10
748.4224567008304
 20
516.6893587332193
 30
0.0
 10
748.4203674748627
 20
516.6892274240157
 30
0.0
  0
SPLINE
  5
1B2
330
1F
100
AcDbEntity
  8
0
  6
Continuous
 62
     7
370
    25
100
AcDbSpline
210
0.0
220
0.0
230
1.0
 70
     8
 71
     3
 72
    15
 73
    11
 74
     0
 42
0.00000001
 43
0.00000001
 40
0.0
 40
0.0
 40
0.0
 40
0.0
 40
0.0128981401598393
 40
0.0519443541565603
 40
0.1318327952014351
 40
0.2279057212361172
 40
0.4677439605522715
 40
0.7076088995728982
 40
0.8538517081976983
 40
1.0
 40
1.0
 40
1.0
 40
1.0
 10
748.5306521062193
 20
516.6841116333677
 30
0.0
 10
748.4974912478107
 20
516.6750536366294
 30
0.0
 10
748.3639433601325
 20
516.6385745951017
 30
0.0
 10
747.9286912541329
 20
516.5202617249048
 30
0.0
 10
747.125138175038
 20
516.2885363274647
 30
0.0
 10
745.4899905357901
 20
515.76101641823
 30
0.0
 10
743.1754572306181
 20
514.8445703919008
 30
0.0
 10
740.6769953192015
 20
513.559180804106
 30
0.0
 10
738.6035555650913
 20
512.2759325186923
 30
0.0
 10
737.5038486921248
 20
511.4691414636818
 30
0.0
 10
736.9541729983963
 20
511.0658763357113
 30
0.0
  0
LINE
  5
1B3
330
1F
100
AcDbEntity
  8
0
  6
Continuous
 62
     7
370
    25
100
AcDbLine
 10
734.3457840792
 20
511.8321952869
 30
0.0
 11
732.2513155958
 21
511.6398356063
 31
0.0
  0
LINE
  5
1B4
330
1F
100
AcDbEntity
  8
0
  6
Continuous
 62
     7
370
    25
100
AcDbLine
 10
731.9266931955
 20
515.17441928
 30
0.0
 11
732.2513155958
 21
511.6398356063
 31
0.0
  0
LINE
  5
1B5
330
1F
100
AcDbEntity
  8
0
  6
Continuous
 62
     7
370
    25
100
AcDbLine
 10
734.3457840792
 20
511.8321952869
 30
0.0
 11
735.7664181669
 21
512.4084337079
 31
0.0
  0
LWPOLYLINE
  5
1B6
330
1F
100
AcDbEntity
  8
0
  6
Continuous
 62
     7
370
    25
100
AcDbPolyline
 90
        4
 70
   128
 43
0.0
 10
748.5556660451
 20
516.5338269951
 10
748.552791039
 20
516.5510919304
 10
748.5412945153
 20
516.6201519581
 10
748.5306521062
 20
516.6841116334
  0
LINE
  5
1B7
330
1F
100
AcDbEntity
  8
0
  6
Continuous
 62
     7
370
    25
100
AcDbLine
 10
746.7843621642
 20
516.0394942206
 30
0.0
 11
748.5556660451
 21
516.5338269951
 31
0.0
  0
ARC
  5
1B8
330
1F
100
AcDbEntity
  8
0
  6
Continuous
 62
     7
370
    25
100
AcDbCircle
 10
756.0720285524
 20
485.9319295562
 30
0.0
 40
31.50755777528342
100
AcDbArc
 50
107.144095446
 51
127.2580276151
  0
LINE
  5
1B9
330
1F
100
AcDbEntity
  8
0
  6
Continuous
 62
     7
370
    25
100
AcDbLine
 10
736.9541729984
 20
511.0658763357
 30
0.0
 11
736.9971795128
 21
511.0093363415
 31
0.0
  0
SPLINE
  5
1BA
330
1F
100
AcDbEntity
  8
0
  6
Continuous
 62
     7
370
    25
100
AcDbSpline
210
0.0
220
0.0
230
1.0
 70
     8
 71
     3
 72
     9
 73
     5
 74
     0
 42
0.00000001
 43
0.00000001
 40
0.0
 40
0.0
 40
0.0
 40
0.0
 40
0.4998978730609642
 40
0.9999999999999999
 40
0.9999999999999999
 40
0.9999999999999999
 40
0.9999999999999999
 10
732.2513155958492
 20
511.6398356063419
 30
0.0
 10
732.1039456947764
 20
511.6144880224655
 30
0.0
 10
731.8091456785841
 20
511.5637824979131
 30
0.0
 10
731.566625942519
 20
511.3886724833881
 30
0.0
 10
731.4453413066882
 20
511.3010995926758
 30
0.0
  0
ARC
  5
1BB
330
1F
100
AcDbEntity
  8
0
  6
Continuous
 62
     7
370
    25
100
AcDbCircle
 10
748.6497460005
 20
516.1984234715
 30
0.0
 40
0.5000763403711768
100
AcDbArc
 50
95.2487278379
 51
103.7774617599
  0
ARC
  5
1BC
330
1F
100
AcDbEntity
  8
0
  6
Continuous
 62
     7
370
    25
100
AcDbCircle
 10
741.4358359514
 20
486.257677131
 30
0.0
 40
48.10950076354634
100
AcDbArc
 50
104.94417913
 51
105.1927615195
  0
SPLINE
  5
1BD
330
1F
100
AcDbEntity
  8
0
  6
Continuous
 62
     7
370
    25
100
AcDbSpline
210
0.0
220
0.0
230
1.0
 70
     8
 71
     3
 72
    13
 73
     9
 74
     0
 42
0.00000001
 43
0.00000001
 40
0.0
 40
0.0
 40
0.0
 40
0.0
 40
0.0460329529079897
 40
0.2492425848193742
 40
0.4775225570272921
 40
0.7051721168687893
 40
0.8526808263814682
 40
1.0
 40
1.0
 40
1.0
 40
1.0
 10
719.2549541404495
 20
528.8612735314404
 30
0.0
 10
719.3809283355181
 20
528.9284126126497
 30
0.0
 10
720.0630078463025
 20
529.2919330276111
 30
0.0
 10
721.399274827768
 20
529.9589943158853
 30
0.0
 10
723.3764144750356
 20
530.8420221962282
 30
0.0
 10
725.3643772304633
 20
531.6075186323217
 30
0.0
 10
727.2053971015738
 20
532.2251771871187
 30
0.0
 10
728.287304784954
 20
532.5322796081999
 30
0.0
 10
728.8279108638444
 20
532.6857321053296
 30
0.0
  0
LWPOLYLINE
  5
1BE
330
1F
100
AcDbEntity
  8
0
  6
Continuous
 62
     7
370
    25
100
AcDbPolyline
 90
        3
 70
   128
 43
0.0
 10
719.2549541404
 20
528.8612735314
 10
719.2106289148
 20
528.8870686062
 10
719.1037177402
 20
528.9492161251
  0
ARC
  5
1BF
330
1F
100
AcDbEntity
  8
0
  6
Continuous
 62
     7
370
    25
100
AcDbCircle
 10
741.4358359514
 20
486.257677131
 30
0.0
 40
48.17977797259059
100
AcDbArc
 50
104.94417913
 51
117.6142494969
  0
LINE
  5
1C0
330
1F
100
AcDbEntity
  8
0
  6
Continuous
 62
     7
370
    25
100
AcDbLine
 10
729.0294607776
 20
532.7399954764
 30
0.0
 11
729.0113378412
 21
532.8078957362
 31
0.0
  0
LINE
  5
1C1
330
1F
100
AcDbEntity
  8
0
  6
Continuous
 62
     7
370
    25
100
AcDbLine
 10
729.3519655574
 20
530.7559268477
 30
0.0
 11
728.8279108638
 21
532.6857321053
 31
0.0
  0
SPLINE
  5
1C2
330
1F
100
AcDbEntity
  8
0
  6
Continuous
 62
     7
370
    25
100
AcDbSpline
210
0.0
220
0.0
230
1.0
 70
     8
 71
     3
 72
    13
 73
     9
 74
     0
 42
0.00000001
 43
0.00000001
 40
0.0
 40
0.0
 40
0.0
 40
0.0
 40
0.2574896950994361
 40
0.4890886589321023
 40
0.7206004760683454
 40
0.9447506334961285
 40
0.946003229129331
 40
1.0
 40
1.0
 40
1.0
 40
1.0
 10
729.351965557385
 20
530.7559268477412
 30
0.0
 10
728.4328273352506
 20
530.7505284645883
 30
0.0
 10
726.6869707476177
 20
530.7402745086947
 30
0.0
 10
724.200049099298
 20
530.4850141897101
 30
0.0
 10
721.9009813032438
 20
529.9876216355548
 30
0.0
 10
720.4430361477534
 20
529.4346269455611
 30
0.0
 10
719.5859750304808
 20
529.0289171225736
 30
0.0
 10
719.4189163040526
 20
528.9437991480802
 30
0.0
 10
719.2556450786303
 20
528.8606109405671
 30
0.0
  0
LINE
  5
1C3
330
1F
100
AcDbEntity
  8
0
  6
Continuous
 62
     7
370
    25
100
AcDbLine
 10
719.2556450786
 20
528.8606109406
 30
0.0
 11
719.2549541404
 21
528.8612735314
 31
0.0
  0
LINE
  5
1C4
330
1F
100
AcDbEntity
  8
0
  6
Continuous
 62
     7
370
    25
100
AcDbLine
 10
731.4966604398
 20
527.146241074
 30
0.0
 11
731.545442456
 21
529.7453873397
 31
0.0
  0
LINE
  5
1C5
330
1F
100
AcDbEntity
  8
0
  6
Continuous
 62
     7
370
    25
100
AcDbLine
 10
731.545442456
 20
529.7453873397
 30
0.0
 11
735.5008472173
 21
529.6711504174
 31
0.0
  0
SPLINE
  5
1C6
330
1F
100
AcDbEntity
  8
0
  6
Continuous
 62
     7
370
    25
100
AcDbSpline
210
0.0
220
0.0
230
1.0
 70
     8
 71
     3
 72
    17
 73
    13
 74
     0
 42
0.00000001
 43
0.00000001
 40
0.0
 40
0.0
 40
0.0
 40
0.0
 40
0.0068263121770666
 40
0.0088448507297262
 40
0.0223990310416093
 40
0.030959302839755
 40
0.0563218912149123
 40
0.1198824177066667
 40
0.1957460556357068
 40
0.5558621944880029
 40
0.77803360979772
 40
0.9999999999999999
 40
0.9999999999999999
 40
0.9999999999999999
 40
0.9999999999999999
 10
748.0528525125105
 20
526.8355065682921
 30
0.0
 10
748.0491969754323
 20
526.8364122855199
 30
0.0
 10
748.0444604970888
 20
526.8375858230722
 30
0.0
 10
748.0006803504946
 20
526.8435861362708
 30
0.0
 10
747.925770054298
 20
526.8526168005541
 30
0.0
 10
747.7581121763454
 20
526.8722457503801
 30
0.0
 10
747.3746589436856
 20
526.9168317059822
 30
0.0
 10
746.6882356604775
 20
527.0010978799752
 30
0.0
 10
744.5712658967304
 20
527.2914021890496
 30
0.0
 10
741.7371107193668
 20
527.8227652728934
 30
0.0
 10
738.3037067499826
 20
528.711314289591
 30
0.0
 10
736.4348461572563
 20
529.3513035198296
 30
0.0
 10
735.5008472172639
 20
529.6711504174399
 30
0.0
  0
LINE
  5
1C7
330
1F
100
AcDbEntity
  8
0
  6
Continuous
 62
     7
370
    25
100
AcDbLine
 10
735.5008472173
 20
529.6711504174
 30
0.0
 11
736.5695057843
 21
531.3613428684
 31
0.0
  0
SPLINE
  5
1C8
330
1F
100
AcDbEntity
  8
0
  6
Continuous
 62
     7
370
    25
100
AcDbSpline
210
0.0
220
0.0
230
1.0
 70
     8
 71
     3
 72
    15
 73
    11
 74
     0
 42
0.00000001
 43
0.00000001
 40
0.0
 40
0.0
 40
0.0
 40
0.0
 40
0.2255198391625389
 40
0.4515645943751971
 40
0.6337799820516979
 40
0.8158790324473562
 40
0.8946729146060257
 40
0.9638048440471939
 40
0.9940832206369754
 40
1.0
 40
1.0
 40
1.0
 40
1.0
 10
736.5695057842534
 20
531.3613428683867
 30
0.0
 10
737.4342329626584
 20
530.8474717738499
 30
0.0
 10
739.1657000433895
 20
529.8185335073654
 30
0.0
 10
741.6846791422585
 20
528.6923777226272
 30
0.0
 10
744.0454328208177
 20
527.8468519038262
 30
0.0
 10
745.8049902812005
 20
527.3547853150316
 30
0.0
 10
747.0740765638884
 20
527.0642362404967
 30
0.0
 10
747.7234373931885
 20
526.9324393248005
 30
0.0
 10
748.05391557653
 20
526.8688736138229
 30
0.0
 10
748.1471750718781
 20
526.8507356460514
 30
0.0
 10
748.1624200913553
 20
526.8477706538978
 30
0.0
  0
SPLINE
  5
1C9
330
1F
100
AcDbEntity
  8
0
  6
Continuous
 62
     7
370
    25
100
AcDbSpline
210
0.0
220
0.0
230
1.0
 70
     8
 71
     3
 72
    11
 73
     7
 74
     0
 42
0.00000001
 43
0.00000001
 40
0.0
 40
0.0
 40
0.0
 40
0.0
 40
0.0195561212296197
 40
0.168189199674488
 40
0.5898876540792014
 40
1.0
 40
1.0
 40
1.0
 40
1.0
 10
748.0528525125105
 20
526.8355065682921
 30
0.0
 10
748.054812042943
 20
526.8355197926751
 30
0.0
 10
748.0716646616864
 20
526.8356335268032
 30
0.0
 10
748.1235616392643
 20
526.836676915141
 30
0.0
 10
748.172737555148
 20
526.8405588506314
 30
0.0
 10
748.1658271615053
 20
526.8453891461814
 30
0.0
 10
748.1624200913553
 20
526.8477706538977
 30
0.0
  0
LINE
  5
1CA
330
1F
100
AcDbEntity
  8
0
  6
Continuous
 62
     7
370
    25
100
AcDbLine
 10
728.6413097434
 20
528.1079140942
 30
0.0
 11
730.1748741218
 21
530.2069903894
 31
0.0
  0
LINE
  5
1CB
330
1F
100
AcDbEntity
  8
0
  6
Continuous
 62
     7
370
    25
100
AcDbLine
 10
719.2556450786
 20
528.8606109406
 30
0.0
 11
719.2562339568
 21
528.8600449605
 31
0.0
  0
ARC
  5
1CC
330
1F
100
AcDbEntity
  8
0
  6
Continuous
 62
     7
370
    25
100
AcDbCircle
 10
723.3367573437
 20
520.8472732265
 30
0.0
 40
11.59155496206743
100
AcDbArc
 50
53.8485053452
 51
58.7394796353
  0
LWPOLYLINE
  5
1CD
330
1F
100
AcDbEntity
  8
0
  6
Continuous
 62
     7
370
    25
100
AcDbPolyline
 90
        4
 70
   128
 43
0.0
 10
748.1624200914
 20
526.8477706539
 10
748.1640289897
 20
526.8651990253
 10
748.1704680839
 20
526.9349124802
 10
748.1750119598
 20
526.9840706083
  0
ARC
  5
1CE
330
1F
100
AcDbEntity
  8
0
  6
Continuous
 62
     7
370
    25
100
AcDbCircle
 10
753.445037951
 20
558.0517170955
 30
0.0
 40
31.57783498432764
100
AcDbArc
 50
236.9141687812
 51
237.6960462086
  0
LINE
  5
1CF
330
1F
100
AcDbEntity
  8
0
  6
Continuous
 62
     7
370
    25
100
AcDbLine
 10
736.2068625658
 20
531.594110029
 30
0.0
 11
736.2452265276
 21
531.6529920513
 31
0.0
  0
ARC
  5
1D0
330
1F
100
AcDbEntity
  8
0
  6
Continuous
 62
     7
370
    25
100
AcDbCircle
 10
753.445037951
 20
558.0517170955
 30
0.0
 40
31.50755777528352
100
AcDbArc
 50
236.9141687812
 51
257.0281009503
  0
LINE
  5
1D1
330
1F
100
AcDbEntity
  8
0
  6
Continuous
 62
     7
370
    25
100
AcDbLine
 10
748.1750119598
 20
526.9840706083
 30
0.0
 11
746.3724374129
 21
527.3482235062
 31
0.0
  0
LINE
  5
1D2
330
1F
100
AcDbEntity
  8
0
  6
Continuous
 62
     7
370
    25
100
AcDbLine
 10
748.6290789203
 20
516.5468262261
 30
0.0
 11
748.5556660451
 21
516.5338269951
 31
0.0
  0
SPLINE
  5
1D3
330
1F
100
AcDbEntity
  8
0
  6
Continuous
 62
     7
370
    25
100
AcDbSpline
210
0.0
220
0.0
230
1.0
 70
     8
 71
     3
 72
    10
 73
     6
 74
     0
 42
0.00000001
 43
0.00000001
 40
0.0
 40
0.0
 40
0.0
 40
0.0
 40
0.0490769085761578
 40
0.5995805843665328
 40
1.0
 40
1.0
 40
1.0
 40
1.0
 10
730.1748741217789
 20
530.2069903893762
 30
0.0
 10
730.1943413884517
 20
530.193067058776
 30
0.0
 10
730.4321761556843
 20
530.0229634613847
 30
0.0
 10
730.8862742124264
 20
529.8052969422398
 30
0.0
 10
731.3501227931636
 20
529.7631392922177
 30
0.0
 10
731.545442456043
 20
529.7453873396796
 30
0.0
  0
ARC
  5
1D4
330
1F
100
AcDbEntity
  8
0
  6
Continuous
 62
     7
370
    25
100
AcDbCircle
 10
748.2458807183
 20
527.3408331957
 30
0.0
 40
0.5000763405483494
100
AcDbArc
 50
260.3926185362
 51
268.9234682322
  0
SPLINE
  5
1D5
330
1F
100
AcDbEntity
  8
0
  6
Continuous
 62
     7
370
    25
100
AcDbSpline
210
0.0
220
0.0
230
1.0
 70
     8
 71
     3
 72
     9
 73
     5
 74
     0
 42
0.00000001
 43
0.00000001
 40
0.0
 40
0.0
 40
0.0
 40
0.0
 40
0.8458911907782042
 40
1.0
 40
1.0
 40
1.0
 40
1.0
 10
748.1750119598315
 20
526.9840706082613
 30
0.0
 10
748.1959776076468
 20
526.9810169530188
 30
0.0
 10
748.2207628850485
 20
526.9774069671533
 30
0.0
 10
748.2453820087327
 20
526.9765751186887
 30
0.0
 10
748.2491760325678
 20
526.9764469235124
 30
0.0
  0
LINE
  5
1D6
330
1F
100
AcDbEntity
  8
0
  6
Continuous
 62
     7
370
    25
100
AcDbLine
 10
766.2714828945
 20
526.5659533058
 30
0.0
 11
766.2710242652
 21
526.5659617032
 31
0.0
  0
LINE
  5
1D7
330
1F
100
AcDbEntity
  8
0
  6
Continuous
 62
     7
370
    25
100
AcDbLine
 10
736.9541729984
 20
511.0658763357
 30
0.0
 11
735.1529415704
 21
510.0026383902
 31
0.0
  0
LINE
  5
1D8
330
1F
100
AcDbEntity
  8
0
  6
Continuous
 62
     7
370
    25
100
AcDbLine
 10
734.3457840792
 20
511.8321952869
 30
0.0
 11
735.1529415704
 21
510.0026383902
 31
0.0
  0
LINE
  5
1D9
330
1F
100
AcDbEntity
  8
0
  6
Continuous
 62
     7
370
    25
100
AcDbLine
 10
731.3784338341
 20
511.2446691965
 30
0.0
 11
731.3293369944
 21
509.2455766138
 31
0.0
  0
LINE
  5
1DA
330
1F
100
AcDbEntity
  8
0
  6
Continuous
 62
     7
370
    25
100
AcDbLine
 10
731.3293369944
 20
509.2455766138
 30
0.0
 11
729.8798041267
 21
509.4012020275
 31
0.0
  0
ARC
  5
1DB
330
1F
100
AcDbEntity
  8
0
  6
Continuous
 62
     7
370
    25
100
AcDbCircle
 10
731.3322177029
 20
524.1123762905
 30
0.0
 40
6.929946387144438
100
AcDbArc
 50
56.9141687812
 51
104.94417913
  0
LINE
  5
1DC
330
1F
100
AcDbEntity
  8
0
  6
Continuous
 62
     7
370
    25
100
AcDbLine
 10
729.5451379484
 20
530.8079347347
 30
0.0
 11
729.0294607776
 21
532.7399954764
 31
0.0
  0
ARC
  5
1DD
330
1F
100
AcDbEntity
  8
0
  6
Continuous
 62
     7
370
    25
100
AcDbCircle
 10
731.3322177029
 20
524.1123762905
 30
0.0
 40
8.929641777457185
100
AcDbArc
 50
56.9141687812
 51
104.94417913
  0
LINE
  5
1DE
330
1F
100
AcDbEntity
  8
0
  6
Continuous
 62
     7
370
    25
100
AcDbLine
 10
735.1152392841
 20
529.9186577722
 30
0.0
 11
736.2068625658
 21
531.594110029
 31
0.0
  0
ARC
  5
1DF
330
1F
100
AcDbEntity
  8
0
  6
Continuous
 62
     7
370
    25
100
AcDbCircle
 10
753.445037951
 20
558.0517170955
 30
0.0
 40
33.57753037464056
100
AcDbArc
 50
236.9141687812
 51
237.6960462086
  0
ARC
  5
1E0
330
1F
100
AcDbEntity
  8
0
  6
Continuous
 62
     7
370
    25
100
AcDbCircle
 10
741.4358359514
 20
486.257677131
 30
0.0
 40
46.1098053732337
100
AcDbArc
 50
104.94417913
 51
105.1927615195
  0
ARC
  5
1E1
330
1F
100
AcDbEntity
  8
0
  6
Continuous
 62
     7
370
    25
100
AcDbCircle
 10
731.5485789814
 20
518.1725265534
 30
0.0
 40
6.9299463871443
100
AcDbArc
 50
268.5931235267
 51
293.8059444816
  0
ARC
  5
1E2
330
1F
100
AcDbEntity
  8
0
  6
Continuous
 62
     7
370
    25
100
AcDbCircle
 10
731.5485789814
 20
518.1725265534
 30
0.0
 40
8.929641777457096
100
AcDbArc
 50
268.5931235267
 51
293.8059444816
  0
ARC
  5
1E3
330
1F
100
AcDbEntity
  8
0
  6
Continuous
 62
     7
370
    25
100
AcDbCircle
 10
731.5485789814
 20
518.1725265534
 30
0.0
 40
8.999918986501234
100
AcDbArc
 50
259.2280172662
 51
307.2580276151
  0
ARC
  5
1E4
330
1F
100
AcDbEntity
  8
0
  6
Continuous
 62
     7
370
    25
100
AcDbCircle
 10
731.3322177029
 20
524.1123762905
 30
0.0
 40
8.99991898650134
100
AcDbArc
 50
56.9141687812
 51
104.94417913
  0
CIRCLE
  5
1E5
330
1F
100
AcDbEntity
  8
0
  6
Continuous
 62
     7
370
    25
100
AcDbCircle
 10
723.3367573437
 20
520.8472732265
 30
0.0
 40
4.452105871057278
  0
CIRCLE
  5
1E6
330
1F
100
AcDbEntity
  8
0
  6
Continuous
 62
     7
370
    25
100
AcDbCircle
 10
723.3367573437
 20
520.8472732265
 30
0.0
 40
5.074569253689003
  0
CIRCLE
  5
1E7
330
1F
100
AcDbEntity
  8
0
  6
Continuous
 62
     7
370
    25
100
AcDbCircle
 10
723.3367573437
 20
520.8472732265
 30
0.0
 40
5.328914336627538
  0
CIRCLE
  5
1E8
330
1F
100
AcDbEntity
  8
0
  6
Continuous
 62
     7
370
    25
100
AcDbCircle
 10
723.3367573437
 20
520.8472732265
 30
0.0
 40
5.92512777116144
  0
CIRCLE
  5
1E9
330
1F
100
AcDbEntity
  8
0
  6
Continuous
 62
     7
370
    25
100
AcDbCircle
 10
723.3367573437
 20
520.8472732265
 30
0.0
 40
7.150000000000077
  0
CIRCLE
  5
1EA
330
1F
100
AcDbEntity
  8
0
  6
Continuous
 62
     7
370
    25
100
AcDbCircle
 10
520.1367573437
 20
520.8472732265
 30
0.0
 40
5.32891433662763
  0
CIRCLE
  5
1EB
330
1F
100
AcDbEntity
  8
0
  6
Continuous
 62
     7
370
    25
100
AcDbCircle
 10
520.1367573437
 20
520.8472732265
 30
0.0
 40
5.925127771161422
  0
CIRCLE
  5
1EC
330
1F
100
AcDbEntity
  8
0
  6
Continuous
 62
     7
370
    25
100
AcDbCircle
 10
520.1367573437
 20
520.8472732265
 30
0.0
 40
5.074569253689093
  0
CIRCLE
  5
1ED
330
1F
100
AcDbEntity
  8
0
  6
Continuous
 62
     7
370
    25
100
AcDbCircle
 10
520.1367573437
 20
520.8472732265
 30
0.0
 40
4.452105871057183
  0
CIRCLE
  5
1EE
330
1F
100
AcDbEntity
  8
0
  6
Continuous
 62
     7
370
    25
100
AcDbCircle
 10
520.1367573437
 20
520.8472732265
 30
0.0
 40
7.149999999999996
  0
ARC
  5
1EF
330
1F
100
AcDbEntity
  8
0
  6
Continuous
 62
     7
370
    25
100
AcDbCircle
 10
723.3367573437
 20
520.8472732265
 30
0.0
 40
10.30000000000009
100
AcDbArc
 50
114.8169591247
 51
129.3552372715
  0
SPLINE
  5
1F0
330
1F
100
AcDbEntity
  8
0
  6
Continuous
 62
     7
370
    25
100
AcDbSpline
210
0.0
220
0.0
230
1.0
 70
    24
 71
     3
 72
    10
 73
     6
 74
     0
 42
0.00000001
 43
0.00000001
 40
0.0
 40
0.0
 40
0.0
 40
0.0
 40
0.0791383085943467
 40
0.6981637903358762
 40
1.0
 40
1.0
 40
1.0
 40
1.0
 10
719.013633521359
 20
530.1961020524769
 30
0.0
 10
719.0887972744633
 20
530.1988399206781
 30
0.0
 10
719.7518972534143
 20
530.2229935887898
 30
0.0
 10
720.7277927042954
 20
530.2585409505454
 30
0.0
 10
721.6592625314415
 20
530.2924700921151
 30
0.0
 10
721.964575831654
 20
530.3035912448182
 30
0.0
  0
SPLINE
  5
1F1
330
1F
100
AcDbEntity
  8
0
  6
Continuous
 62
     7
370
    25
100
AcDbSpline
210
0.0
220
0.0
230
1.0
 70
    24
 71
     3
 72
    10
 73
     6
 74
     0
 42
0.00000001
 43
0.00000001
 40
0.0
 40
0.0
 40
0.0
 40
0.0
 40
0.3585866167689884
 40
0.9272944673422983
 40
1.0
 40
1.0
 40
1.0
 40
1.0
 10
722.9236552970442
 20
511.3259255778528
 30
0.0
 10
722.5285996195945
 20
511.3115355250379
 30
0.0
 10
721.5069972316079
 20
511.2743232707706
 30
0.0
 10
720.4434851059791
 20
511.2355844384221
 30
0.0
 10
719.780417171197
 20
511.2114319375315
 30
0.0
 10
719.7052570503655
 20
511.2086942016374
 30
0.0
  0
ARC
  5
1F2
330
1F
100
AcDbEntity
  8
0
  6
Continuous
 62
     7
370
    25
100
AcDbCircle
 10
723.3367573437
 20
520.8472732265
 30
0.0
 40
10.29999999999997
100
AcDbArc
 50
234.8169591247
 51
249.3552372715
  0
SPLINE
  5
1F3
330
1F
100
AcDbEntity
  8
0
  6
Continuous
 62
     7
370
    25
100
AcDbSpline
210
0.0
220
0.0
230
1.0
 70
    24
 71
     3
 72
    11
 73
     7
 74
     0
 42
0.00000001
 43
0.00000001
 40
0.0
 40
0.0
 40
0.0
 40
0.0
 40
0.2431641197380902
 40
0.4936284730588952
 40
0.7421706076863304
 40
0.9999999999999999
 40
0.9999999999999999
 40
0.9999999999999999
 40
0.9999999999999999
 10
717.4019959960053
 20
512.4289237597128
 30
0.0
 10
717.0686628096598
 20
512.9605889094674
 30
0.0
 10
716.3919891623602
 20
514.0398807734757
 30
0.0
 10
715.3185660169972
 20
515.7519865604411
 30
0.0
 10
714.2224947570903
 20
517.5002160029675
 30
0.0
 10
713.5275819408587
 20
518.6085992712491
 30
0.0
 10
713.1737529050865
 20
519.1729552219834
 30
0.0
  0
ARC
  5
1F4
330
1F
100
AcDbEntity
  8
0
  6
Continuous
 62
     7
370
    25
100
AcDbCircle
 10
723.3367573437
 20
520.8472732265
 30
0.0
 40
10.30000000000005
100
AcDbArc
 50
174.8169591247
 51
189.3552372715
  0
SPLINE
  5
1F5
330
1F
100
AcDbEntity
  8
0
  6
Continuous
 62
     7
370
    25
100
AcDbSpline
210
0.0
220
0.0
230
1.0
 70
    24
 71
     3
 72
    11
 73
     7
 74
     0
 42
0.00000001
 43
0.00000001
 40
0.0
 40
0.0
 40
0.0
 40
0.0
 40
0.2431641197380905
 40
0.4936284730588947
 40
0.7421706076863298
 40
1.0
 40
1.0
 40
1.0
 40
1.0
 10
713.0788721736484
 20
521.7777525856444
 30
0.0
 10
713.3726411064702
 20
522.3322601678213
 30
0.0
 10
713.9689984551494
 20
523.4579226684584
 30
0.0
 10
714.915013987946
 20
525.2435872748356
 30
0.0
 10
715.8809894668644
 20
527.0669275515363
 30
0.0
 10
716.4934211262101
 20
528.222931337949
 30
0.0
 10
716.8052531984371
 20
528.8115342468915
 30
0.0
  0
ARC
  5
1F6
330
1F
100
AcDbEntity
  8
0
  6
Continuous
 62
     7
370
    25
100
AcDbCircle
 10
520.1367573437
 20
520.8472732265
 30
0.0
 40
10.30000000000007
100
AcDbArc
 50
292.2848993156
 51
306.8231774624
  0
SPLINE
  5
1F7
330
1F
100
AcDbEntity
  8
0
  6
Continuous
 62
     7
370
    25
100
AcDbSpline
210
0.0
220
0.0
230
1.0
 70
    24
 71
     3
 72
    10
 73
     6
 74
     0
 42
0.00000001
 43
0.00000001
 40
0.0
 40
0.0
 40
0.0
 40
0.0
 40
0.0780388366313415
 40
0.6884641704337369
 40
1.0
 40
1.0
 40
1.0
 40
1.0
 10
524.0426440457461
 20
511.3165833737118
 30
0.0
 10
523.9674333562676
 20
511.3171687878188
 30
0.0
 10
523.3039193012827
 20
511.3223333527321
 30
0.0
 10
522.313441879888
 20
511.3300428878953
 30
0.0
 10
521.3670197960472
 20
511.337409511482
 30
0.0
 10
521.0472184847512
 20
511.3398987347609
 30
0.0
  0
SPLINE
  5
1F8
330
1F
100
AcDbEntity
  8
0
  6
Continuous
 62
     7
370
    25
100
AcDbSpline
210
0.0
220
0.0
230
1.0
 70
    24
 71
     3
 72
    10
 73
     6
 74
     0
 42
0.00000001
 43
0.00000001
 40
0.0
 40
0.0
 40
0.0
 40
0.0
 40
0.3585866167690234
 40
0.9272944673422969
 40
1.0
 40
1.0
 40
1.0
 40
1.0
 10
520.9700939395004
 20
530.3410745972479
 30
0.0
 10
521.3653996369645
 20
530.337997673828
 30
0.0
 10
522.3876485693708
 20
530.3300408401641
 30
0.0
 10
523.4518337629544
 20
530.3217575890848
 30
0.0
 10
524.1153213354334
 20
530.316593230302
 30
0.0
 10
524.1905290230651
 20
530.3160078395604
 30
0.0
  0
ARC
  5
1F9
330
1F
100
AcDbEntity
  8
0
  6
Continuous
 62
     7
370
    25
100
AcDbCircle
 10
520.1367573437
 20
520.8472732265
 30
0.0
 40
10.30000000000009
100
AcDbArc
 50
52.2848993156
 51
66.8231774624
  0
SPLINE
  5
1FA
330
1F
100
AcDbEntity
  8
0
  6
Continuous
 62
     7
370
    25
100
AcDbSpline
210
0.0
220
0.0
230
1.0
 70
    24
 71
     3
 72
    11
 73
     7
 74
     0
 42
0.00000001
 43
0.00000001
 40
0.0
 40
0.0
 40
0.0
 40
0.0
 40
0.2431641197380913
 40
0.4936284730588941
 40
0.7421706076863306
 40
0.9999999999999999
 40
0.9999999999999999
 40
0.9999999999999999
 40
0.9999999999999999
 10
526.4376335208453
 20
528.995215261224
 30
0.0
 10
526.7471531458516
 20
528.4493430725947
 30
0.0
 10
527.3754847436143
 20
527.341210609431
 30
0.0
 10
528.3722217714163
 20
525.5833543092264
 30
0.0
 10
529.3899889162541
 20
523.7884090651035
 30
0.0
 10
530.0352566636699
 20
522.6504078235776
 30
0.0
 10
530.3638078999545
 20
522.0709712775946
 30
0.0
  0
ARC
  5
1FB
330
1F
100
AcDbEntity
  8
0
  6
Continuous
 62
     7
370
    25
100
AcDbCircle
 10
520.1367573437
 20
520.8472732265
 30
0.0
 40
10.30000000000001
100
AcDbArc
 50
352.2848993156
 51
6.8231774624
  0
SPLINE
  5
1FC
330
1F
100
AcDbEntity
  8
0
  6
Continuous
 62
     7
370
    25
100
AcDbSpline
210
0.0
220
0.0
230
1.0
 70
    24
 71
     3
 72
    11
 73
     7
 74
     0
 42
0.00000001
 43
0.00000001
 40
0.0
 40
0.0
 40
0.0
 40
0.0
 40
0.2431641197380927
 40
0.4936284730588957
 40
0.7421706076863285
 40
1.0
 40
1.0
 40
1.0
 40
1.0
 10
530.3435202228754
 20
519.4645254083904
 30
0.0
 10
530.0255408528063
 20
518.9235374558505
 30
0.0
 10
529.3800357878296
 20
517.8253200986059
 30
0.0
 10
528.3560560895509
 20
516.0831923615342
 30
0.0
 10
527.3104714821574
 20
514.3043075369061
 30
0.0
 10
526.6475673711655
 20
513.1764886546384
 30
0.0
 10
526.3100362206054
 20
512.6022366645796
 30
0.0
  0
ARC
  5
1FD
330
1F
100
AcDbEntity
  8
0
  6
Continuous
 62
     7
370
    25
100
AcDbCircle
 10
723.3367573437
 20
520.8472732265
 30
0.0
 40
14.87500000000009
100
AcDbArc
 50
55.4698452403
 51
212.0860981981
  0
ARC
  5
1FE
330
1F
100
AcDbEntity
  8
0
  6
Continuous
 62
     7
370
    25
100
AcDbCircle
 10
723.3367573437
 20
520.8472732265
 30
0.0
 40
14.87500000000009
100
AcDbArc
 50
212.0860981981
 51
308.7017937564
  0
ARC
  5
1FF
330
1F
100
AcDbEntity
  8
0
  6
Continuous
 62
     7
370
    25
100
AcDbCircle
 10
723.3367573437
 20
520.8472732265
 30
0.0
 40
10.57500000000005
100
AcDbArc
 50
83.7369999588
 51
212.0860981981
  0
ARC
  5
200
330
1F
100
AcDbEntity
  8
0
  6
Continuous
 62
     7
370
    25
100
AcDbCircle
 10
723.3367573437
 20
520.8472732265
 30
0.0
 40
10.57500000000004
100
AcDbArc
 50
212.0860981981
 51
280.4351964374
  0
SPLINE
  5
201
330
1F
100
AcDbEntity
  8
0
  6
Continuous
 62
     7
370
    25
100
AcDbSpline
210
0.0
220
0.0
230
1.0
 70
     8
 71
     3
 72
     9
 73
     5
 74
     0
 42
0.00000001
 43
0.00000001
 40
0.0
 40
0.0
 40
0.0
 40
0.0
 40
0.5850553834533985
 40
1.0
 40
1.0
 40
1.0
 40
1.0
 10
733.9742605514245
 20
534.4720126921635
 30
0.0
 10
733.7005870238473
 20
534.8488469072911
 30
0.0
 10
733.2328133133284
 20
535.492946980182
 30
0.0
 10
732.544001813481
 20
535.9463326996902
 30
0.0
 10
732.2581831898038
 20
536.1344626632193
 30
0.0
  0
LINE
  5
202
330
1F
100
AcDbEntity
  8
0
  6
Continuous
 62
     7
370
    25
100
AcDbLine
 10
735.5505101668
 20
531.9579006201
 30
0.0
 11
733.9742605514
 21
534.4720126922
 31
0.0
  0
SPLINE
  5
203
330
1F
100
AcDbEntity
  8
0
  6
Continuous
 62
     7
370
    25
100
AcDbSpline
210
0.0
220
0.0
230
1.0
 70
    24
 71
     3
 72
     9
 73
     5
 74
     0
 42
0.00000001
 43
0.00000001
 40
0.0
 40
0.0
 40
0.0
 40
0.0
 40
0.9002702388322932
 40
1.0
 40
1.0
 40
1.0
 40
1.0
 10
734.9373274926257
 20
508.0325640132928
 30
0.0
 10
735.353179019187
 20
508.8175102713029
 30
0.0
 10
735.8150975727766
 20
509.6894109786152
 30
0.0
 10
736.2976763206059
 20
510.6003091191999
 30
0.0
 10
736.3458037838716
 20
510.6911527732086
 30
0.0
  0
SPLINE
  5
204
330
1F
100
AcDbEntity
  8
0
  6
Continuous
 62
     7
370
    25
100
AcDbSpline
210
0.0
220
0.0
230
1.0
 70
     8
 71
     3
 72
     9
 73
     5
 74
     0
 42
0.00000001
 43
0.00000001
 40
0.0
 40
0.0
 40
0.0
 40
0.0
 40
0.5841917497409201
 40
1.0
 40
1.0
 40
1.0
 40
1.0
 10
733.3467481711931
 20
506.2496678190197
 30
0.0
 10
733.7236175183936
 20
506.5528631745735
 30
0.0
 10
734.3687299277481
 20
507.0718628963057
 30
0.0
 10
734.7703362644633
 20
507.7504160243944
 30
0.0
 10
734.9373274926257
 20
508.0325640132928
 30
0.0
  0
ARC
  5
205
330
1F
100
AcDbEntity
  8
0
  6
Continuous
 62
     7
370
    25
100
AcDbCircle
 10
723.3367573437
 20
520.8472732265
 30
0.0
 40
17.7
100
AcDbArc
 50
299.7326617707
 51
304.4395346255
  0
SPLINE
  5
206
330
1F
100
AcDbEntity
  8
0
  6
Continuous
 62
     7
370
    25
100
AcDbSpline
210
0.0
220
0.0
230
1.0
 70
     8
 71
     3
 72
     9
 73
     5
 74
     0
 42
0.00000001
 43
0.00000001
 40
0.0
 40
0.0
 40
0.0
 40
0.0
 40
0.5850553834536283
 40
1.0
 40
1.0
 40
1.0
 40
1.0
 10
729.8173762370328
 20
504.8225554830224
 30
0.0
 10
730.280561004137
 20
504.8711466026838
 30
0.0
 10
731.0722548850988
 20
504.9542004827705
 30
0.0
 10
731.8093041858292
 20
505.3240358803029
 30
0.0
 10
732.1151388252966
 20
505.4774970875171
 30
0.0
  0
SPLINE
  5
207
330
1F
100
AcDbEntity
  8
0
  6
Continuous
 62
     7
370
    25
100
AcDbSpline
210
0.0
220
0.0
230
1.0
 70
    24
 71
     3
 72
    11
 73
     7
 74
     0
 42
0.00000001
 43
0.00000001
 40
0.0
 40
0.0
 40
0.0
 40
0.0
 40
0.2328716322111486
 40
0.4710265024313271
 40
0.7311421212560322
 40
1.0
 40
1.0
 40
1.0
 40
1.0
 10
718.0391786973837
 20
504.3935301725797
 30
0.0
 10
718.9324427290989
 20
504.4260676535673
 30
0.0
 10
720.7392365777589
 20
504.491880804452
 30
0.0
 10
723.6649690187513
 20
504.5984517177469
 30
0.0
 10
726.7500219708106
 20
504.7108259410551
 30
0.0
 10
728.7837212745217
 20
504.784904209159
 30
0.0
 10
729.8173762370328
 20
504.8225554830224
 30
0.0
  0
SPLINE
  5
208
330
1F
100
AcDbEntity
  8
0
  6
Continuous
 62
     7
370
    25
100
AcDbSpline
210
0.0
220
0.0
230
1.0
 70
     8
 71
     3
 72
     9
 73
     5
 74
     0
 42
0.00000001
 43
0.00000001
 40
0.0
 40
0.0
 40
0.0
 40
0.0
 40
0.5841917497409349
 40
1.0
 40
1.0
 40
1.0
 40
1.0
 10
715.6998556401162
 20
504.8795641745381
 30
0.0
 10
716.1508651939355
 20
504.7047834237317
 30
0.0
 10
716.9228883421898
 20
504.4055995498002
 30
0.0
 10
717.7113357572896
 20
504.3970748239284
 30
0.0
 10
718.0391786973837
 20
504.3935301725797
 30
0.0
  0
ARC
  5
209
330
1F
100
AcDbEntity
  8
0
  6
Continuous
 62
     7
370
    25
100
AcDbCircle
 10
723.3367573437
 20
520.8472732265
 30
0.0
 40
17.69999999999998
100
AcDbArc
 50
239.7326617707
 51
244.4395346255
  0
SPLINE
  5
20A
330
1F
100
AcDbEntity
  8
0
  6
Continuous
 62
     7
370
    25
100
AcDbSpline
210
0.0
220
0.0
230
1.0
 70
     8
 71
     3
 72
     9
 73
     5
 74
     0
 42
0.00000001
 43
0.00000001
 40
0.0
 40
0.0
 40
0.0
 40
0.0
 40
0.5850553834536116
 40
1.0
 40
1.0
 40
1.0
 40
1.0
 10
712.6992541360082
 20
507.222533760926
 30
0.0
 10
712.9729276635853
 20
506.8456995457986
 30
0.0
 10
713.4407013741042
 20
506.2015994729083
 30
0.0
 10
714.1295128739511
 20
505.7482137534003
 30
0.0
 10
714.4153314976279
 20
505.5600837898715
 30
0.0
  0
SPLINE
  5
20B
330
1F
100
AcDbEntity
  8
0
  6
Continuous
 62
     7
370
    25
100
AcDbSpline
210
0.0
220
0.0
230
1.0
 70
    24
 71
     3
 72
    11
 73
     7
 74
     0
 42
0.00000001
 43
0.00000001
 40
0.0
 40
0.0
 40
0.0
 40
0.0
 40
0.2556279644380993
 40
0.5185037642963889
 40
0.7560467972580123
 40
1.0
 40
1.0
 40
1.0
 40
1.0
 10
706.4386085484738
 20
517.2082393858324
 30
0.0
 10
706.960551461101
 20
516.3757424483153
 30
0.0
 10
708.0192359659043
 20
514.6871447363371
 30
0.0
 10
709.6342868254011
 20
512.1111448291873
 30
0.0
 10
711.2190647979735
 20
509.5834300602101
 30
0.0
 10
712.2014979719786
 20
508.0164529274859
 30
0.0
 10
712.6992541360082
 20
507.222533760926
 30
0.0
  0
SPLINE
  5
20C
330
1F
100
AcDbEntity
  8
0
  6
Continuous
 62
     7
370
    25
100
AcDbSpline
210
0.0
220
0.0
230
1.0
 70
     8
 71
     3
 72
     9
 73
     5
 74
     0
 42
0.00000001
 43
0.00000001
 40
0.0
 40
0.0
 40
0.0
 40
0.0
 40
0.5841917497409345
 40
1.0
 40
1.0
 40
1.0
 40
1.0
 10
705.6898648126389
 20
519.4771695820637
 30
0.0
 10
705.7640050192578
 20
518.9991934757037
 30
0.0
 10
705.8909157581576
 20
518.1810098800399
 30
0.0
 10
706.2777568365423
 20
517.4939320260794
 30
0.0
 10
706.4386085484738
 20
517.2082393858324
 30
0.0
  0
ARC
  5
20D
330
1F
100
AcDbEntity
  8
0
  6
Continuous
 62
     7
370
    25
100
AcDbCircle
 10
723.3367573437
 20
520.8472732265
 30
0.0
 40
17.70000000000016
100
AcDbArc
 50
179.7326617707
 51
184.4395346255
  0
SPLINE
  5
20E
330
1F
100
AcDbEntity
  8
0
  6
Continuous
 62
     7
370
    25
100
AcDbSpline
210
0.0
220
0.0
230
1.0
 70
     8
 71
     3
 72
     9
 73
     5
 74
     0
 42
0.00000001
 43
0.00000001
 40
0.0
 40
0.0
 40
0.0
 40
0.0
 40
0.5850553834536373
 40
1.0
 40
1.0
 40
1.0
 40
1.0
 10
706.2186352426911
 20
523.2472515044491
 30
0.0
 10
706.0291240031643
 20
522.8218261696602
 30
0.0
 10
705.7052038327214
 20
522.0946722166832
 30
0.0
 10
705.6569660318378
 20
521.271451099643
 30
0.0
 10
705.6369500160471
 20
520.9298599288998
 30
0.0
  0
SPLINE
  5
20F
330
1F
100
AcDbEntity
  8
0
  6
Continuous
 62
     7
370
    25
100
AcDbSpline
210
0.0
220
0.0
230
1.0
 70
    24
 71
     3
 72
    11
 73
     7
 74
     0
 42
0.00000001
 43
0.00000001
 40
0.0
 40
0.0
 40
0.0
 40
0.0
 40
0.2328716322111483
 40
0.4710265024313222
 40
0.7311421212560308
 40
1.0
 40
1.0
 40
1.0
 40
1.0
 10
711.736187194806
 20
533.6619824397981
 30
0.0
 10
711.3177334640587
 20
532.8721243555518
 30
0.0
 10
710.4713324002979
 20
531.2744884077684
 30
0.0
 10
709.1007592980199
 20
528.6874443325453
 30
0.0
 10
707.6555517541054
 20
525.9595229923876
 30
0.0
 10
706.7028557642963
 20
524.1612485976633
 30
0.0
 10
706.2186352426911
 20
523.2472515044491
 30
0.0
  0
SPLINE
  5
210
330
1F
100
AcDbEntity
  8
0
  6
Continuous
 62
     7
370
    25
100
AcDbSpline
210
0.0
220
0.0
230
1.0
 70
     8
 71
     3
 72
     9
 73
     5
 74
     0
 42
0.00000001
 43
0.00000001
 40
0.0
 40
0.0
 40
0.0
 40
0.0
 40
0.5841917497409155
 40
1.0
 40
1.0
 40
1.0
 40
1.0
 10
713.3267665162388
 20
535.4448786340711
 30
0.0
 10
712.9498971690382
 20
535.1416832785173
 30
0.0
 10
712.3047847596836
 20
534.6226835567851
 30
0.0
 10
711.9031784229686
 20
533.9441304286963
 30
0.0
 10
711.736187194806
 20
533.661982439798
 30
0.0
  0
ARC
  5
211
330
1F
100
AcDbEntity
  8
0
  6
Continuous
 62
     7
370
    25
100
AcDbCircle
 10
723.3367573437
 20
520.8472732265
 30
0.0
 40
17.70000000000015
100
AcDbArc
 50
119.7326617707
 51
124.4395346255
  0
SPLINE
  5
212
330
1F
100
AcDbEntity
  8
0
  6
Continuous
 62
     7
370
    25
100
AcDbSpline
210
0.0
220
0.0
230
1.0
 70
     8
 71
     3
 72
     9
 73
     5
 74
     0
 42
0.00000001
 43
0.00000001
 40
0.0
 40
0.0
 40
0.0
 40
0.0
 40
0.5850553834536146
 40
1.0
 40
1.0
 40
1.0
 40
1.0
 10
716.8561384503989
 20
536.8719909700684
 30
0.0
 10
716.3929536832949
 20
536.8233998504071
 30
0.0
 10
715.6012598023331
 20
536.7403459703203
 30
0.0
 10
714.8642105016025
 20
536.3705105727879
 30
0.0
 10
714.5583758621352
 20
536.2170493655735
 30
0.0
  0
SPLINE
  5
213
330
1F
100
AcDbEntity
  8
0
  6
Continuous
 62
     7
370
    25
100
AcDbSpline
210
0.0
220
0.0
230
1.0
 70
    24
 71
     3
 72
    11
 73
     7
 74
     0
 42
0.00000001
 43
0.00000001
 40
0.0
 40
0.0
 40
0.0
 40
0.0
 40
0.2328716322111485
 40
0.4710265024313261
 40
0.7311421212560327
 40
0.9999999999999999
 40
0.9999999999999999
 40
0.9999999999999999
 40
0.9999999999999999
 10
728.6343359900482
 20
537.3010162805111
 30
0.0
 10
727.7410719583328
 20
537.2684787995236
 30
0.0
 10
725.9342781096728
 20
537.2026656486388
 30
0.0
 10
723.0085456686804
 20
537.096094735344
 30
0.0
 10
719.9234927166211
 20
536.9837205120356
 30
0.0
 10
717.8897934129103
 20
536.9096422439318
 30
0.0
 10
716.8561384503989
 20
536.8719909700684
 30
0.0
  0
SPLINE
  5
214
330
1F
100
AcDbEntity
  8
0
  6
Continuous
 62
     7
370
    25
100
AcDbSpline
210
0.0
220
0.0
230
1.0
 70
     8
 71
     3
 72
     9
 73
     5
 74
     0
 42
0.00000001
 43
0.00000001
 40
0.0
 40
0.0
 40
0.0
 40
0.0
 40
0.584191749740925
 40
1.0
 40
1.0
 40
1.0
 40
1.0
 10
730.9736590473156
 20
536.8149822785527
 30
0.0
 10
730.5226494934964
 20
536.9897630293591
 30
0.0
 10
729.7506263452419
 20
537.2889469032907
 30
0.0
 10
728.9621789301422
 20
537.2974716291624
 30
0.0
 10
728.6343359900482
 20
537.3010162805111
 30
0.0
  0
ARC
  5
215
330
1F
100
AcDbEntity
  8
0
  6
Continuous
 62
     7
370
    25
100
AcDbCircle
 10
723.3367573437
 20
520.8472732265
 30
0.0
 40
17.70000000000007
100
AcDbArc
 50
59.7326617707
 51
64.4395346255
  0
ARC
  5
216
330
1F
100
AcDbEntity
  8
0
  6
Continuous
 62
     7
370
    25
100
AcDbCircle
 10
723.3367573437
 20
520.8472732265
 30
0.0
 40
16.19999999999999
100
AcDbArc
 50
46.011174364
 51
318.1603264621
  0
ARC
  5
217
330
1F
100
AcDbEntity
  8
0
  6
Continuous
 62
     7
370
    25
100
AcDbCircle
 10
520.1367573437
 20
520.8472732265
 30
0.0
 40
14.87500000000001
100
AcDbArc
 50
232.9377854308
 51
29.554038389
  0
ARC
  5
218
330
1F
100
AcDbEntity
  8
0
  6
Continuous
 62
     7
370
    25
100
AcDbCircle
 10
520.1367573437
 20
520.8472732265
 30
0.0
 40
14.87499999999997
100
AcDbArc
 50
29.554038389
 51
126.1697339484
  0
ARC
  5
219
330
1F
100
AcDbEntity
  8
0
  6
Continuous
 62
     7
370
    25
100
AcDbCircle
 10
520.1367573437
 20
520.8472732265
 30
0.0
 40
10.57500000000001
100
AcDbArc
 50
261.2049401497
 51
29.554038389
  0
ARC
  5
21A
330
1F
100
AcDbEntity
  8
0
  6
Continuous
 62
     7
370
    25
100
AcDbCircle
 10
520.1367573437
 20
520.8472732265
 30
0.0
 40
10.57499999999999
100
AcDbArc
 50
29.554038389
 51
97.9031366283
  0
SPLINE
  5
21B
330
1F
100
AcDbEntity
  8
0
  6
Continuous
 62
     7
370
    25
100
AcDbSpline
210
0.0
220
0.0
230
1.0
 70
     8
 71
     3
 72
     9
 73
     5
 74
     0
 42
0.00000001
 43
0.00000001
 40
0.0
 40
0.0
 40
0.0
 40
0.0
 40
0.5850553834534005
 40
1.0
 40
1.0
 40
1.0
 40
1.0
 10
508.9077208258527
 20
507.7057840080255
 30
0.0
 10
509.1644792228454
 20
507.3172272541773
 30
0.0
 10
509.6033409174039
 20
506.6530905504783
 30
0.0
 10
510.2714500472604
 20
506.1697169024808
 30
0.0
 10
510.54867833396
 20
505.9691436094637
 30
0.0
  0
LINE
  5
21C
330
1F
100
AcDbEntity
  8
0
  6
Continuous
 62
     7
370
    25
100
AcDbLine
 10
507.4440796108
 20
510.2870776284
 30
0.0
 11
508.9077208259
 21
507.705784008
 31
0.0
  0
SPLINE
  5
21D
330
1F
100
AcDbEntity
  8
0
  6
Continuous
 62
     7
370
    25
100
AcDbSpline
210
0.0
220
0.0
230
1.0
 70
    24
 71
     3
 72
     9
 73
     5
 74
     0
 42
0.00000001
 43
0.00000001
 40
0.0
 40
0.0
 40
0.0
 40
0.0
 40
0.9002702388322088
 40
1.0
 40
1.0
 40
1.0
 40
1.0
 10
509.1136466319939
 20
534.1619654962568
 30
0.0
 10
508.6635234512063
 20
533.3961572681573
 30
0.0
 10
508.1635367123674
 20
532.5455146554536
 30
0.0
 10
507.6411871066085
 20
531.6568254185765
 30
0.0
 10
507.5890933051801
 20
531.5681966532304
 30
0.0
  0
SPLINE
  5
21E
330
1F
100
AcDbEntity
  8
0
  6
Continuous
 62
     7
370
    25
100
AcDbSpline
210
0.0
220
0.0
230
1.0
 70
     8
 71
     3
 72
     9
 73
     5
 74
     0
 42
0.00000001
 43
0.00000001
 40
0.0
 40
0.0
 40
0.0
 40
0.0
 40
0.5841917497409255
 40
1.0
 40
1.0
 40
1.0
 40
1.0
 10
510.7814385001942
 20
535.8728517290871
 30
0.0
 10
510.3915424215326
 20
535.5866018795971
 30
0.0
 10
509.7241312866879
 20
535.0966089113347
 30
0.0
 10
509.2929396655187
 20
534.4364606074193
 30
0.0
 10
509.1136466319939
 20
534.1619654962568
 30
0.0
  0
ARC
  5
21F
330
1F
100
AcDbEntity
  8
0
  6
Continuous
 62
     7
370
    25
100
AcDbCircle
 10
520.1367573437
 20
520.8472732265
 30
0.0
 40
17.70000000000003
100
AcDbArc
 50
117.2006019616
 51
121.9074748164
  0
SPLINE
  5
220
330
1F
100
AcDbEntity
  8
0
  6
Continuous
 62
     7
370
    25
100
AcDbSpline
210
0.0
220
0.0
230
1.0
 70
     8
 71
     3
 72
     9
 73
     5
 74
     0
 42
0.00000001
 43
0.00000001
 40
0.0
 40
0.0
 40
0.0
 40
0.0
 40
0.585055383453626
 40
0.9999999999999999
 40
0.9999999999999999
 40
0.9999999999999999
 40
0.9999999999999999
 10
514.3704120958487
 20
537.1426487202981
 30
0.0
 10
513.9055328777079
 20
537.114567802791
 30
0.0
 10
513.1109427734402
 20
537.066570778405
 30
0.0
 10
512.3582743498267
 20
536.7296581234478
 30
0.0
 10
512.0459586394038
 20
536.5898580310271
 30
0.0
  0
SPLINE
  5
221
330
1F
100
AcDbEntity
  8
0
  6
Continuous
 62
     7
370
    25
100
AcDbSpline
210
0.0
220
0.0
230
1.0
 70
    24
 71
     3
 72
    11
 73
     7
 74
     0
 42
0.00000001
 43
0.00000001
 40
0.0
 40
0.0
 40
0.0
 40
0.0
 40
0.2328716322111486
 40
0.4710265024313258
 40
0.7311421212560312
 40
1.0
 40
1.0
 40
1.0
 40
1.0
 10
526.1560637369975
 20
537.0509132664808
 30
0.0
 10
525.2622343827245
 20
537.0578705263715
 30
0.0
 10
523.4542970632837
 20
537.0719428878771
 30
0.0
 10
520.5267130056494
 20
537.0947301940263
 30
0.0
 10
517.4397076073216
 20
537.1187583809924
 30
0.0
 10
515.4047212305268
 20
537.1345980141729
 30
0.0
 10
514.3704120958487
 20
537.1426487202981
 30
0.0
  0
SPLINE
  5
222
330
1F
100
AcDbEntity
  8
0
  6
Continuous
 62
     7
370
    25
100
AcDbSpline
210
0.0
220
0.0
230
1.0
 70
     8
 71
     3
 72
     9
 73
     5
 74
     0
 42
0.00000001
 43
0.00000001
 40
0.0
 40
0.0
 40
0.0
 40
0.0
 40
0.5841917497409282
 40
1.0
 40
1.0
 40
1.0
 40
1.0
 10
528.4716306117136
 20
536.4620062568094
 30
0.0
 10
528.0287829308951
 20
536.6565412410212
 30
0.0
 10
527.2707310052816
 20
536.9895397544342
 30
0.0
 10
526.4834299932412
 20
537.0328885003081
 30
0.0
 10
526.1560637369975
 20
537.0509132664808
 30
0.0
  0
ARC
  5
223
330
1F
100
AcDbEntity
  8
0
  6
Continuous
 62
     7
370
    25
100
AcDbCircle
 10
520.1367573437
 20
520.8472732265
 30
0.0
 40
17.70000000000008
100
AcDbArc
 50
57.2006019616
 51
61.9074748164
  0
SPLINE
  5
224
330
1F
100
AcDbEntity
  8
0
  6
Continuous
 62
     7
370
    25
100
AcDbSpline
210
0.0
220
0.0
230
1.0
 70
     8
 71
     3
 72
     9
 73
     5
 74
     0
 42
0.00000001
 43
0.00000001
 40
0.0
 40
0.0
 40
0.0
 40
0.0
 40
0.5850553834536052
 40
1.0
 40
1.0
 40
1.0
 40
1.0
 10
531.3657938615786
 20
533.9887624450665
 30
0.0
 10
531.1090354645856
 20
534.3773191989144
 30
0.0
 10
530.6701737700274
 20
535.0414559026127
 30
0.0
 10
530.0020646401713
 20
535.52482955061
 30
0.0
 10
529.724836353472
 20
535.7254028436269
 30
0.0
  0
SPLINE
  5
225
330
1F
100
AcDbEntity
  8
0
  6
Continuous
 62
     7
370
    25
100
AcDbSpline
210
0.0
220
0.0
230
1.0
 70
    24
 71
     3
 72
    11
 73
     7
 74
     0
 42
0.00000001
 43
0.00000001
 40
0.0
 40
0.0
 40
0.0
 40
0.0
 40
0.2556279644380977
 40
0.5185037642963871
 40
0.7560467972580112
 40
1.0
 40
1.0
 40
1.0
 40
1.0
 10
537.1791744487197
 20
523.7362209967692
 30
0.0
 10
536.6945195112313
 20
524.5909637338458
 30
0.0
 10
535.7114681849615
 20
526.3246837814681
 30
0.0
 10
534.2117977144692
 20
528.9695189900077
 30
0.0
 10
532.7402374141984
 20
531.5647787955616
 30
0.0
 10
531.8279899690951
 20
533.1736283456343
 30
0.0
 10
531.3657938615786
 20
533.9887624450664
 30
0.0
  0
SPLINE
  5
226
330
1F
100
AcDbEntity
  8
0
  6
Continuous
 62
     7
370
    25
100
AcDbSpline
210
0.0
220
0.0
230
1.0
 70
     8
 71
     3
 72
     9
 73
     5
 74
     0
 42
0.00000001
 43
0.00000001
 40
0.0
 40
0.0
 40
0.0
 40
0.0
 40
0.5841917497409308
 40
1.0
 40
1.0
 40
1.0
 40
1.0
 10
537.8269494552354
 20
521.4364277542676
 30
0.0
 10
537.7739978530784
 20
521.9172125879694
 30
0.0
 10
537.6833570623098
 20
522.7402040696447
 30
0.0
 10
537.3272476714386
 20
523.443701119434
 30
0.0
 10
537.1791744487197
 20
523.7362209967692
 30
0.0
  0
ARC
  5
227
330
1F
100
AcDbEntity
  8
0
  6
Continuous
 62
     7
370
    25
100
AcDbCircle
 10
520.1367573437
 20
520.8472732265
 30
0.0
 40
17.70000000000016
100
AcDbArc
 50
357.2006019616
 51
1.9074748164
  0
SPLINE
  5
228
330
1F
100
AcDbEntity
  8
0
  6
Continuous
 62
     7
370
    25
100
AcDbSpline
210
0.0
220
0.0
230
1.0
 70
     8
 71
     3
 72
     9
 73
     5
 74
     0
 42
0.00000001
 43
0.00000001
 40
0.0
 40
0.0
 40
0.0
 40
0.0
 40
0.585055383453633
 40
1.0
 40
1.0
 40
1.0
 40
1.0
 10
537.132139109446
 20
517.6933869513138
 30
0.0
 10
537.3402599305939
 20
518.1100246226686
 30
0.0
 10
537.6959883403031
 20
518.822158350753
 30
0.0
 10
537.7805476340606
 20
519.6424446537073
 30
0.0
 10
537.8156350577843
 20
519.982818039145
 30
0.0
  0
SPLINE
  5
229
330
1F
100
AcDbEntity
  8
0
  6
Continuous
 62
     7
370
    25
100
AcDbSpline
210
0.0
220
0.0
230
1.0
 70
    24
 71
     3
 72
    11
 73
     7
 74
     0
 42
0.00000001
 43
0.00000001
 40
0.0
 40
0.0
 40
0.0
 40
0.0
 40
0.2328716322111478
 40
0.4710265024313224
 40
0.731142121256032
 40
0.9999999999999999
 40
0.9999999999999999
 40
0.9999999999999999
 40
0.9999999999999999
 10
531.1598680554382
 20
507.5325809568337
 30
0.0
 10
531.6128078963808
 20
508.3031812543369
 30
0.0
 10
532.5289635786562
 20
509.8618647206699
 30
0.0
 10
534.0124899934824
 20
512.385833233221
 30
0.0
 10
535.5768017129658
 20
515.0472442363093
 30
0.0
 10
536.6080124260841
 20
516.8016743183788
 30
0.0
 10
537.132139109446
 20
517.6933869513138
 30
0.0
  0
SPLINE
  5
22A
330
1F
100
AcDbEntity
  8
0
  6
Continuous
 62
     7
370
    25
100
AcDbSpline
210
0.0
220
0.0
230
1.0
 70
     8
 71
     3
 72
     9
 73
     5
 74
     0
 42
0.00000001
 43
0.00000001
 40
0.0
 40
0.0
 40
0.0
 40
0.0
 40
0.5841917497409168
 40
0.9999999999999999
 40
0.9999999999999999
 40
0.9999999999999999
 40
0.9999999999999999
 10
529.4920761872379
 20
505.8216947240035
 30
0.0
 10
529.8819722658994
 20
506.1079445734935
 30
0.0
 10
530.5493834007442
 20
506.597937541756
 30
0.0
 10
530.9805750219134
 20
507.2580858456712
 30
0.0
 10
531.1598680554382
 20
507.5325809568337
 30
0.0
  0
ARC
  5
22B
330
1F
100
AcDbEntity
  8
0
  6
Continuous
 62
     7
370
    25
100
AcDbCircle
 10
520.1367573437
 20
520.8472732265
 30
0.0
 40
17.70000000000013
100
AcDbArc
 50
297.2006019616
 51
301.9074748164
  0
SPLINE
  5
22C
330
1F
100
AcDbEntity
  8
0
  6
Continuous
 62
     7
370
    25
100
AcDbSpline
210
0.0
220
0.0
230
1.0
 70
     8
 71
     3
 72
     9
 73
     5
 74
     0
 42
0.00000001
 43
0.00000001
 40
0.0
 40
0.0
 40
0.0
 40
0.0
 40
0.5850553834536156
 40
1.0
 40
1.0
 40
1.0
 40
1.0
 10
525.9031025915833
 20
504.5518977327925
 30
0.0
 10
526.3679818097241
 20
504.5799786502994
 30
0.0
 10
527.1625719139918
 20
504.6279756746857
 30
0.0
 10
527.9152403376053
 20
504.9648883296427
 30
0.0
 10
528.2275560480283
 20
505.1046884220635
 30
0.0
  0
SPLINE
  5
22D
330
1F
100
AcDbEntity
  8
0
  6
Continuous
 62
     7
370
    25
100
AcDbSpline
210
0.0
220
0.0
230
1.0
 70
    24
 71
     3
 72
    11
 73
     7
 74
     0
 42
0.00000001
 43
0.00000001
 40
0.0
 40
0.0
 40
0.0
 40
0.0
 40
0.2328716322111489
 40
0.4710265024313254
 40
0.7311421212560322
 40
1.0
 40
1.0
 40
1.0
 40
1.0
 10
514.1174509504347
 20
504.6436331866097
 30
0.0
 10
515.0112803047075
 20
504.6366759267189
 30
0.0
 10
516.8192176241485
 20
504.6226035652135
 30
0.0
 10
519.7468016817827
 20
504.5998162590643
 30
0.0
 10
522.8338070801104
 20
504.575788072098
 30
0.0
 10
524.8687934569053
 20
504.5599484389177
 30
0.0
 10
525.9031025915833
 20
504.5518977327925
 30
0.0
  0
SPLINE
  5
22E
330
1F
100
AcDbEntity
  8
0
  6
Continuous
 62
     7
370
    25
100
AcDbSpline
210
0.0
220
0.0
230
1.0
 70
     8
 71
     3
 72
     9
 73
     5
 74
     0
 42
0.00000001
 43
0.00000001
 40
0.0
 40
0.0
 40
0.0
 40
0.0
 40
0.584191749740928
 40
1.0
 40
1.0
 40
1.0
 40
1.0
 10
511.8018840757185
 20
505.2325401962811
 30
0.0
 10
512.244731756537
 20
505.0380052120693
 30
0.0
 10
513.0027836821505
 20
504.7050066986563
 30
0.0
 10
513.7900846941908
 20
504.6616579527825
 30
0.0
 10
514.1174509504347
 20
504.6436331866097
 30
0.0
  0
ARC
  5
22F
330
1F
100
AcDbEntity
  8
0
  6
Continuous
 62
     7
370
    25
100
AcDbCircle
 10
520.1367573437
 20
520.8472732265
 30
0.0
 40
17.70000000000009
100
AcDbArc
 50
237.2006019616
 51
241.9074748164
  0
ARC
  5
230
330
1F
100
AcDbEntity
  8
0
  6
Continuous
 62
     7
370
    25
100
AcDbCircle
 10
520.1367573437
 20
520.8472732265
 30
0.0
 40
16.19999999999995
100
AcDbArc
 50
223.4791145547
 51
135.6282666538
  0
LWPOLYLINE
  5
231
330
1F
100
AcDbEntity
  8
0
  6
Continuous
 62
     7
370
    25
100
AcDbPolyline
 90
        3
 70
   128
 43
0.0
 10
621.7367573437
 20
539.7564682671
 10
590.5352206864
 20
539.7564682671
 10
513.4367573443
 20
539.7564283508
  0
LINE
  5
232
330
1F
100
AcDbEntity
  8
0
  6
Continuous
 62
     7
370
    25
100
AcDbLine
 10
513.4367573443
 20
539.7564283508
 30
0.0
 11
513.4306332815
 21
542.7244653232
 31
0.0
  0
LWPOLYLINE
  5
233
330
1F
100
AcDbEntity
  8
0
  6
Continuous
 62
     7
370
    25
100
AcDbPolyline
 90
        3
 70
   128
 43
0.0
 10
513.4306332815
 20
542.7244653232
 10
590.5352206864
 20
542.7244982378
 10
621.7367573437
 20
542.7244982378
  0
LINE
  5
234
330
1F
100
AcDbEntity
  8
0
  6
Continuous
 62
     7
370
    25
100
AcDbLine
 10
621.7367573437
 20
542.7244982378
 30
0.0
 11
621.7367573437
 21
539.7564682671
 31
0.0
  0
LINE
  5
235
330
1F
100
AcDbEntity
  8
0
  6
Continuous
 62
     7
370
    25
100
AcDbLine
 10
513.4306332867
 20
498.9700811299
 30
0.0
 11
513.4367573488
 21
501.9381181023
 31
0.0
  0
LINE
  5
236
330
1F
100
AcDbEntity
  8
0
  6
Continuous
 62
     7
370
    25
100
AcDbLine
 10
730.0428814007
 20
498.9700811299
 30
0.0
 11
730.0367573386
 21
501.9381181023
 31
0.0
  0
LINE
  5
237
330
1F
100
AcDbEntity
  8
0
  6
Continuous
 62
     7
370
    25
100
AcDbLine
 10
730.0367573431
 20
539.7564283508
 30
0.0
 11
730.0428814059
 21
542.7244653232
 31
0.0
  0
LWPOLYLINE
  5
238
330
1F
100
AcDbEntity
  8
0
  6
Continuous
 62
     7
370
    25
100
AcDbPolyline
 90
        3
 70
   128
 43
0.0
 10
621.7367573437
 20
539.7564682671
 10
652.938294001
 20
539.7564682671
 10
730.0367573431
 20
539.7564283508
  0
LWPOLYLINE
  5
239
330
1F
100
AcDbEntity
  8
0
  6
Continuous
 62
     7
370
    25
100
AcDbPolyline
 90
        3
 70
   128
 43
0.0
 10
730.0367573386
 20
501.9381181023
 10
692.1352206828
 20
501.938078186
 10
621.7367573437
 20
501.938078186
  0
LWPOLYLINE
  5
23A
330
1F
100
AcDbEntity
  8
0
  6
Continuous
 62
     7
370
    25
100
AcDbPolyline
 90
        3
 70
   128
 43
0.0
 10
513.4367573488
 20
501.9381181023
 10
551.3382940046
 20
501.938078186
 10
621.7367573437
 20
501.938078186
  0
LWPOLYLINE
  5
23B
330
1F
100
AcDbEntity
  8
0
  6
Continuous
 62
     7
370
    25
100
AcDbPolyline
 90
        3
 70
   128
 43
0.0
 10
730.0428814059
 20
542.7244653232
 10
652.938294001
 20
542.7244982378
 10
621.7367573437
 20
542.7244982378
  0
LWPOLYLINE
  5
23C
330
1F
100
AcDbEntity
  8
0
  6
Continuous
 62
     7
370
    25
100
AcDbPolyline
 90
        3
 70
   128
 43
0.0
 10
621.7367573437
 20
498.9700482153
 10
692.1352206828
 20
498.9700482153
 10
730.0428814007
 20
498.9700811299
  0
LINE
  5
23D
330
1F
100
AcDbEntity
  8
0
  6
Continuous
 62
     7
370
    25
100
AcDbLine
 10
621.7367573437
 20
501.938078186
 30
0.0
 11
621.7367573437
 21
498.9700482153
 31
0.0
  0
LWPOLYLINE
  5
23E
330
1F
100
AcDbEntity
  8
0
  6
Continuous
 62
     7
370
    25
100
AcDbPolyline
 90
        3
 70
   128
 43
0.0
 10
621.7367573437
 20
498.9700482153
 10
551.3382940046
 20
498.9700482153
 10
513.4306332867
 20
498.9700811299
  0
LINE
  5
23F
330
1F
100
AcDbEntity
  8
0
  6
Continuous
 62
     7
370
    25
100
AcDbLine
 10
621.7367573437
 20
546.2472732265
 30
0.0
 11
621.7367573437
 21
542.7244982378
 31
0.0
  0
LINE
  5
240
330
1F
100
AcDbEntity
  8
0
  6
Continuous
 62
     7
370
    25
100
AcDbLine
 10
621.7367573437
 20
546.2472732265
 30
0.0
 11
729.6367573437
 21
546.2472732265
 31
0.0
  0
SPLINE
  5
241
330
1F
100
AcDbEntity
  8
0
  6
Continuous
 62
     7
370
    25
100
AcDbSpline
210
0.0
220
0.0
230
1.0
 70
     8
 71
     3
 72
    18
 73
    14
 74
     0
 42
0.00000001
 43
0.00000001
 40
0.0
 40
0.0
 40
0.0
 40
0.0
 40
0.0984812529247603
 40
0.1961013505380572
 40
0.2945697938155687
 40
0.3930572837559362
 40
0.4906773813692318
 40
0.5891392496215093
 40
0.6876267395609401
 40
0.7852468371742362
 40
0.8837087054274191
 40
0.9821961953668725
 40
1.0
 40
1.0
 40
1.0
 40
1.0
 10
729.636757343716
 20
546.2472732265454
 30
0.0
 10
730.7485033808663
 20
546.2065661282178
 30
0.0
 10
732.9622739500433
 20
546.125507888995
 30
0.0
 10
736.2310756326884
 20
545.4515726310528
 30
0.0
 10
739.3841074451271
 20
544.3802648075903
 30
0.0
 10
742.3756559041168
 20
542.9109146208906
 30
0.0
 10
745.146672449023
 20
541.0597644501818
 30
0.0
 10
747.6478304454807
 20
538.85754098116
 30
0.0
 10
749.847723987879
 20
536.3564242763388
 30
0.0
 10
751.7075547221198
 20
533.5870683251185
 30
0.0
 10
753.1443495459793
 20
530.588923864294
 30
0.0
 10
754.0132778844786
 20
528.3082550630178
 30
0.0
 10
754.2576544121918
 20
527.0188953459241
 30
0.0
 10
754.2950676336399
 20
526.8214987257443
 30
0.0
  0
SPLINE
  5
242
330
1F
100
AcDbEntity
  8
0
  6
Continuous
 62
     7
370
    25
100
AcDbSpline
210
0.0
220
0.0
230
1.0
 70
     8
 71
     3
 72
    18
 73
    14
 74
     0
 42
0.00000001
 43
0.00000001
 40
0.0
 40
0.0
 40
0.0
 40
0.0
 40
0.0809000604675305
 40
0.1730392080386182
 40
0.2652023320013501
 40
0.3565537631643957
 40
0.4486929107360769
 40
0.5408560346993411
 40
0.6322074658623866
 40
0.7243466134335763
 40
0.8165035857937702
 40
0.9078550169568168
 40
1.0
 40
1.0
 40
1.0
 40
1.0
 10
754.7481084542148
 20
517.1506377362107
 30
0.0
 10
754.5828785699049
 20
516.1881694906351
 30
0.0
 10
754.2294641452424
 20
514.1295215487888
 30
0.0
 10
753.1615009291548
 20
511.1009066305076
 30
0.0
 10
751.7025713396919
 20
508.1081287718926
 30
0.0
 10
749.8486878213295
 20
505.3373032149124
 30
0.0
 10
747.6470823646451
 20
502.8366723037086
 30
0.0
 10
745.1462413007857
 20
500.6344805075772
 30
0.0
 10
742.3751735194853
 20
498.7832670554714
 30
0.0
 10
739.3837120408015
 20
497.3141097992266
 30
0.0
 10
736.2307522184041
 20
496.2430490481798
 30
0.0
 10
732.9619781478834
 20
495.5690578710029
 30
0.0
 10
730.7483553027758
 20
495.4879849777933
 30
0.0
 10
729.636757343716
 20
495.4472732265453
 30
0.0
  0
LINE
  5
243
330
1F
100
AcDbEntity
  8
0
  6
Continuous
 62
     7
370
    25
100
AcDbLine
 10
729.6367573437
 20
495.4472732265
 30
0.0
 11
621.7367573437
 21
495.4472732265
 31
0.0
  0
LINE
  5
244
330
1F
100
AcDbEntity
  8
0
  6
Continuous
 62
     7
370
    25
100
AcDbLine
 10
621.7367573437
 20
498.9700482153
 30
0.0
 11
621.7367573437
 21
495.4472732265
 31
0.0
  0
LINE
  5
245
330
1F
100
AcDbEntity
  8
0
  6
Continuous
 62
     7
370
    25
100
AcDbLine
 10
513.8367573437
 20
495.4472732265
 30
0.0
 11
621.7367573437
 21
495.4472732265
 31
0.0
  0
ARC
  5
246
330
1F
100
AcDbEntity
  8
0
  6
Continuous
 62
     7
370
    25
100
AcDbCircle
 10
513.8367573437
 20
520.8472732265
 30
0.0
 40
25.40000000000009
100
AcDbArc
 50
90.0
 51
168.4597416978
  0
ARC
  5
247
330
1F
100
AcDbEntity
  8
0
  6
Continuous
 62
     7
370
    25
100
AcDbCircle
 10
513.8367573437
 20
520.8472732265
 30
0.0
 40
25.40000000000003
100
AcDbArc
 50
190.4202938905
 51
270.0
  0
LINE
  5
248
330
1F
100
AcDbEntity
  8
0
  6
Continuous
 62
     7
370
    25
100
AcDbLine
 10
621.7367573437
 20
546.2472732265
 30
0.0
 11
513.8367573437
 21
546.2472732265
 31
0.0
  0
ELLIPSE
  5
249
330
1F
100
AcDbEntity
  8
0
  6
Continuous
 62
     8
370
    25
100
AcDbEllipse
 10
464.651361209
 20
517.9398155122
 30
0.0
 11
1.499308835236264
 21
-0.09454524749719442
 31
0.0
210
0.0
220
0.0
230
1.0
 40
0.0174284859
 41
3.125102257568799
 42
3.637788799607841
  0
ELLIPSE
  5
24A
330
1F
100
AcDbEntity
  8
0
  6
Continuous
 62
     8
370
    25
100
AcDbEllipse
 10
778.6395339336
 20
526.2031481353
 30
0.0
 11
1.502021854528721
 21
-0.02821587780010759
 31
0.0
210
0.0
220
0.0
230
1.0
 40
0.0174284859
 41
6.266694911158248
 42
6.779381453197647
  0
SPLINE
  5
24B
330
1F
100
AcDbEntity
  8
0
  6
Continuous
 62
     8
370
    25
100
AcDbSpline
210
0.0
220
0.0
230
1.0
 70
     8
 71
     3
 72
    15
 73
    11
 74
     0
 42
0.00000001
 43
0.00000001
 40
0.0
 40
0.0
 40
0.0
 40
0.0
 40
0.1324546049825737
 40
0.2649146153392691
 40
0.3973785913440432
 40
0.529851363495149
 40
0.6623328692905561
 40
0.7948183914806626
 40
0.9273651405410637
 40
1.0
 40
1.0
 40
1.0
 40
1.0
 10
513.4367573443358
 20
539.7564283507689
 30
0.0
 10
512.3746886841191
 20
539.7011321385876
 30
0.0
 10
510.2505080214518
 20
539.5905374576274
 30
0.0
 10
507.1540319924139
 20
538.758606195559
 30
0.0
 10
504.2398747229384
 20
537.4472401507309
 30
0.0
 10
501.5842272519074
 20
535.663435441456
 30
0.0
 10
499.2652656053693
 20
533.4564678061313
 30
0.0
 10
497.3657923348673
 20
530.8900770988048
 30
0.0
 10
496.0692458457759
 20
528.4877953935402
 30
0.0
 10
495.6152539787942
 20
526.9053993662636
 30
0.0
 10
495.4545395965856
 20
526.3452267763367
 30
0.0
  0
SPLINE
  5
24C
330
1F
100
AcDbEntity
  8
0
  6
Continuous
 62
     8
370
    25
100
AcDbSpline
210
0.0
220
0.0
230
1.0
 70
     8
 71
     3
 72
    16
 73
    12
 74
     0
 42
0.00000001
 43
0.00000001
 40
0.0
 40
0.0
 40
0.0
 40
0.0
 40
0.0099085901320864
 40
0.139980735029541
 40
0.2700815551690939
 40
0.4001762789673582
 40
0.5304622973427976
 40
0.6607478636624662
 40
0.7910997668127874
 40
0.9214594016058587
 40
1.0
 40
1.0
 40
1.0
 40
1.0
 10
495.2866386025393
 20
515.7553939916836
 30
0.0
 10
495.3024425901409
 20
515.6760992273364
 30
0.0
 10
495.5257088441064
 20
514.5558854280633
 30
0.0
 10
496.4377831896967
 20
512.5168921912632
 30
0.0
 10
498.039434404707
 20
509.7639815468403
 30
0.0
 10
500.1262737969665
 20
507.329611957953
 30
0.0
 10
502.5867157160315
 20
505.2837695989591
 30
0.0
 10
505.3553053377019
 20
503.6676099489452
 30
0.0
 10
508.3597240134386
 20
502.5587864649289
 30
0.0
 10
511.0912647694169
 20
502.0145182143201
 30
0.0
 10
512.7958727893758
 20
501.9589937395052
 30
0.0
 10
513.4367573488252
 20
501.9381181023125
 30
0.0
  0
SPLINE
  5
24D
330
1F
100
AcDbEntity
  8
0
  6
Continuous
 62
     8
370
    25
100
AcDbSpline
210
0.0
220
0.0
230
1.0
 70
     8
 71
     3
 72
    16
 73
    12
 74
     0
 42
0.00000001
 43
0.00000001
 40
0.0
 40
0.0
 40
0.0
 40
0.0
 40
0.0756660802730546
 40
0.2011976739877408
 40
0.3267226985721325
 40
0.4521760318491243
 40
0.5776298607132443
 40
0.7029154608558739
 40
0.8282062834958203
 40
0.9534982047552086
 40
0.9999999999999999
 40
0.9999999999999999
 40
0.9999999999999999
 40
0.9999999999999999
 10
513.4306332867111
 20
498.9700811299245
 30
0.0
 10
512.6887736961178
 20
498.994004424012
 30
0.0
 10
510.7161536857477
 20
499.0576169582832
 30
0.0
 10
507.5552412220603
 20
499.6866671382156
 30
0.0
 10
504.0787517113469
 20
500.9687523935092
 30
0.0
 10
500.8754434355687
 20
502.8378554420528
 30
0.0
 10
498.0267954741275
 20
505.2039824175736
 30
0.0
 10
495.6170126010437
 20
508.0215235553306
 30
0.0
 10
493.7429250016625
 20
511.2017389787953
 30
0.0
 10
492.596652403401
 20
513.9115566199407
 30
0.0
 10
492.2908018665735
 20
515.5693587064195
 30
0.0
 10
492.2080130467698
 20
516.018099060552
 30
0.0
  0
SPLINE
  5
24E
330
1F
100
AcDbEntity
  8
0
  6
Continuous
 62
     8
370
    25
100
AcDbSpline
210
0.0
220
0.0
230
1.0
 70
     8
 71
     3
 72
    15
 73
    11
 74
     0
 42
0.00000001
 43
0.00000001
 40
0.0
 40
0.0
 40
0.0
 40
0.0
 40
0.1095660154922811
 40
0.236862445531052
 40
0.3640807757852707
 40
0.4912957078657326
 40
0.6184998787324811
 40
0.7456966607553831
 40
0.8728505721578628
 40
1.0
 40
1.0
 40
1.0
 40
1.0
 10
492.2740336557511
 20
526.1100850272991
 30
0.0
 10
492.5589967033337
 20
527.1310638774854
 30
0.0
 10
493.1750366682182
 20
529.3382404933737
 30
0.0
 10
494.8247798873242
 20
532.4726077234207
 30
0.0
 10
497.0334743951827
 20
535.4385981827179
 30
0.0
 10
499.714891033471
 20
537.9929737818194
 30
0.0
 10
502.7893773123643
 20
540.0560541095371
 30
0.0
 10
506.1616228047567
 20
541.5724054304518
 30
0.0
 10
509.7445304282959
 20
542.5337681028043
 30
0.0
 10
512.2019467724762
 20
542.6609003301853
 30
0.0
 10
513.4306332815113
 20
542.7244653231571
 30
0.0
  0
SPLINE
  5
24F
330
1F
100
AcDbEntity
  8
0
  6
Continuous
 62
     8
370
    25
100
AcDbSpline
210
0.0
220
0.0
230
1.0
 70
     8
 71
     3
 72
    16
 73
    12
 74
     0
 42
0.00000001
 43
0.00000001
 40
0.0
 40
0.0
 40
0.0
 40
0.0
 40
0.0736091701666396
 40
0.1957283074298457
 40
0.3178410541382878
 40
0.4398840583990327
 40
0.5619275447748436
 40
0.6838073755662454
 40
0.8056922868863619
 40
0.9275782669610012
 40
1.0
 40
1.0
 40
1.0
 40
1.0
 10
730.042881400721
 20
498.9700811299245
 30
0.0
 10
730.7847414032549
 20
498.9940043192286
 30
0.0
 10
732.7573625089836
 20
499.0576165748785
 30
0.0
 10
735.9182625622856
 20
499.6866699115828
 30
0.0
 10
739.3948031750383
 20
500.9687421682885
 30
0.0
 10
742.5979214506073
 20
502.8378935463014
 30
0.0
 10
745.4472779411071
 20
505.2038402965819
 30
0.0
 10
747.854419968362
 20
508.0220531740059
 30
0.0
 10
749.7383609911392
 20
511.1997622280044
 30
0.0
 10
750.960651715053
 20
514.1725531416615
 30
0.0
 10
751.3029041091698
 20
516.1034055065202
 30
0.0
 10
751.4304672981009
 20
516.8230664621495
 30
0.0
  0
SPLINE
  5
250
330
1F
100
AcDbEntity
  8
0
  6
Continuous
 62
     8
370
    25
100
AcDbSpline
210
0.0
220
0.0
230
1.0
 70
     8
 71
     3
 72
    15
 73
    11
 74
     0
 42
0.00000001
 43
0.00000001
 40
0.0
 40
0.0
 40
0.0
 40
0.0
 40
0.083099513626706
 40
0.2141795944040141
 40
0.3451792540252497
 40
0.4761754144683042
 40
0.6071604938404876
 40
0.738137964749119
 40
0.8690712907874959
 40
0.9999999999999999
 40
0.9999999999999999
 40
0.9999999999999999
 40
0.9999999999999999
 10
750.9484849001692
 20
526.9075440676947
 30
0.0
 10
750.7349418004685
 20
527.6582032243789
 30
0.0
 10
750.1845586214873
 20
529.5929422703435
 30
0.0
 10
748.643388826492
 20
532.4706431575258
 30
0.0
 10
746.4414723291841
 20
535.4391244350201
 30
0.0
 10
743.7582399896958
 20
537.9928327909008
 30
0.0
 10
740.6842401331241
 20
540.0560918715965
 30
0.0
 10
737.3118644914796
 20
541.5723953645942
 30
0.0
 10
733.7289911056915
 20
542.5337706188117
 30
0.0
 10
731.2715701971142
 20
542.6609011688446
 30
0.0
 10
730.0428814059208
 20
542.7244653231571
 30
0.0
  0
SPLINE
  5
251
330
1F
100
AcDbEntity
  8
0
  6
Continuous
 62
     8
370
    25
100
AcDbSpline
210
0.0
220
0.0
230
1.0
 70
     8
 71
     3
 72
    15
 73
    11
 74
     0
 42
0.00000001
 43
0.00000001
 40
0.0
 40
0.0
 40
0.0
 40
0.0
 40
0.1367240813320411
 40
0.2734537422723669
 40
0.4101874966875118
 40
0.5469303307796298
 40
0.6836821800320266
 40
0.8204381751416067
 40
0.9572573706781929
 40
1.0
 40
1.0
 40
1.0
 40
1.0
 10
730.0367573430963
 20
539.7564283507689
 30
0.0
 10
731.0988291893786
 20
539.7011333092141
 30
0.0
 10
733.2230162243071
 20
539.5905409695546
 30
0.0
 10
736.3194444594133
 20
538.7585921470061
 30
0.0
 10
739.2337833566306
 20
537.4472928359706
 30
0.0
 10
741.8887520509667
 20
535.6632387300857
 30
0.0
 10
744.2102473813961
 20
533.4572020226764
 30
0.0
 10
746.1002628939008
 20
530.8873363392618
 30
0.0
 10
747.3041246097896
 20
528.7172144838212
 30
0.0
 10
747.6995747695229
 20
527.379523175648
 30
0.0
 10
747.7937071365004
 20
527.0611011292174
 30
0.0
  0
SPLINE
  5
252
330
1F
100
AcDbEntity
  8
0
  6
Continuous
 62
     8
370
    25
100
AcDbSpline
210
0.0
220
0.0
230
1.0
 70
     8
 71
     3
 72
    16
 73
    12
 74
     0
 42
0.00000001
 43
0.00000001
 40
0.0
 40
0.0
 40
0.0
 40
0.0
 40
0.0386369743893385
 40
0.164934960130844
 40
0.2912607890767538
 40
0.4175806985721497
 40
0.5440863520621513
 40
0.6705915666131851
 40
0.7971611931726336
 40
0.9237383270343318
 40
0.9999999999999999
 40
0.9999999999999999
 40
0.9999999999999999
 40
0.9999999999999999
 10
748.3336337125737
 20
516.4718625517736
 30
0.0
 10
748.2738958512156
 20
516.152477427776
 30
0.0
 10
748.0188846362556
 20
514.7890742750836
 30
0.0
 10
747.0470478582287
 20
512.5140150412384
 30
0.0
 10
745.4310480965161
 20
509.7647524709048
 30
0.0
 10
743.3480546789716
 20
507.3294050547157
 30
0.0
 10
740.8865807731497
 20
505.2838250751965
 30
0.0
 10
738.1182678989231
 20
503.6675950629921
 30
0.0
 10
735.1137747938734
 20
502.5587905024008
 30
0.0
 10
732.3822521122058
 20
502.0145176564538
 30
0.0
 10
730.6776424975989
 20
501.9589935870732
 30
0.0
 10
730.036757338607
 20
501.9381181023124
 30
0.0
  0
ENDSEC
  0
SECTION
  2
OBJECTS
  0
DICTIONARY
  5
C
330
0
100
AcDbDictionary
281
     1
  3
ACAD_GROUP
350
D
  3
ACAD_LAYOUT
350
1A
  3
ACAD_MLINESTYLE
350
17
  3
ACAD_PLOTSETTINGS
350
19
  3
ACAD_PLOTSTYLENAME
350
E
  3
ACAD_SCALELIST
350
47
  3
DWGPROPS
350
253
  0
DICTIONARY
  5
D
102
{ACAD_REACTORS
330
C
102
}
330
C
100
AcDbDictionary
281
     1
  0
DICTIONARY
  5
1A
102
{ACAD_REACTORS
330
C
102
}
330
C
100
AcDbDictionary
281
     1
  3
Layout1
350
1E
  3
Layout2
350
26
  3
Model
350
22
  0
DICTIONARY
  5
17
102
{ACAD_REACTORS
330
C
102
}
330
C
100
AcDbDictionary
281
     1
  3
Standard
350
18
  0
DICTIONARY
  5
19
102
{ACAD_REACTORS
330
C
102
}
330
C
100
AcDbDictionary
281
     1
  0
ACDBDICTIONARYWDFLT
  5
E
102
{ACAD_REACTORS
330
C
102
}
330
C
100
AcDbDictionary
281
     1
  3
Normal
350
F
100
AcDbDictionaryWithDefault
340
F
  0
DICTIONARY
  5
47
102
{ACAD_REACTORS
330
C
102
}
330
C
100
AcDbDictionary
281
     1
  3
A0
350
48
  3
A1
350
49
  3
A2
350
4A
  3
A3
350
4B
  3
A4
350
4C
  3
A5
350
4D
  3
A6
350
4E
  3
A7
350
4F
  3
A8
350
50
  3
A9
350
51
  3
B0
350
52
  3
B1
350
53
  3
B2
350
54
  3
B3
350
55
  3
B4
350
56
  3
B5
350
57
  3
B6
350
58
  3
B7
350
59
  3
B8
350
5A
  3
B9
350
5B
  3
C0
350
5C
  3
C1
350
5D
  3
C2
350
5E
  3
C3
350
5F
  3
C4
350
60
  3
C5
350
61
  3
C6
350
62
  3
C7
350
63
  3
C8
350
64
  3
C9
350
65
  3
D0
350
66
  3
D1
350
67
  3
D2
350
68
  0
XRECORD
  5
253
102
{ACAD_REACTORS
330
C
102
}
330
C
100
AcDbXrecord
280
     1
  1
DWGPROPS COOKIE
  2

  3

  4

  6

  7

  8
designer5
  9

300
=
301
=
302
=
303
=
304
=
305
=
306
=
307
=
308
=
309
=
 40
0.0
 41
2460383.279372327
 42
2460383.279385336
  1

 90
        0
  0
LAYOUT
  5
1E
102
{ACAD_REACTORS
330
1A
102
}
330
1A
100
AcDbPlotSettings
  1

  2
none_device
  4

  6

 40
0.0
 41
0.0
 42
0.0
 43
0.0
 44
0.0
 45
0.0
 46
0.0
 47
0.0
 48
0.0
 49
0.0
140
0.0
141
0.0
142
1.0
143
1.0
 70
   688
 72
     1
 73
     0
 74
     5
  7

 75
    16
147
1.0
148
0.0
149
0.0
100
AcDbLayout
  1
Layout1
 70
     1
 71
     1
 10
0.0
 20
0.0
 11
420.0
 21
297.0
 12
0.0
 22
0.0
 32
0.0
 14
1.0000000000E+20
 24
1.0000000000E+20
 34
1.0000000000E+20
 15
-1.0000000000E+20
 25
-1.0000000000E+20
 35
-1.0000000000E+20
146
0.0
 13
0.0
 23
0.0
 33
0.0
 16
1.0
 26
0.0
 36
0.0
 17
0.0
 27
1.0
 37
0.0
 76
     0
330
1B
  0
LAYOUT
  5
26
102
{ACAD_REACTORS
330
1A
102
}
330
1A
100
AcDbPlotSettings
  1

  2
none_device
  4

  6

 40
0.0
 41
0.0
 42
0.0
 43
0.0
 44
0.0
 45
0.0
 46
0.0
 47
0.0
 48
0.0
 49
0.0
140
0.0
141
0.0
142
1.0
143
1.0
 70
   688
 72
     1
 73
     0
 74
     5
  7

 75
    16
147
1.0
148
0.0
149
0.0
100
AcDbLayout
  1
Layout2
 70
     1
 71
     2
 10
0.0
 20
0.0
 11
0.0
 21
0.0
 12
0.0
 22
0.0
 32
0.0
 14
0.0
 24
0.0
 34
0.0
 15
0.0
 25
0.0
 35
0.0
146
0.0
 13
0.0
 23
0.0
 33
0.0
 16
1.0
 26
0.0
 36
0.0
 17
0.0
 27
1.0
 37
0.0
 76
     0
330
23
  0
LAYOUT
  5
22
102
{ACAD_REACTORS
330
1A
102
}
330
1A
100
AcDbPlotSettings
  1

  2
none_device
  4
Letter_(8.50_x_11.00_Inches)
  6

 40
6.35
 41
6.35
 42
6.35000508
 43
6.35000508
 44
215.9
 45
279.4
 46
0.0
 47
0.0
 48
0.0
 49
0.0
140
0.0
141
0.0
142
1.0
143
1.0
 70
  1712
 72
     1
 73
     0
 74
     0
  7

 75
     0
147
1.0
148
0.0
149
0.0
100
AcDbLayout
  1
Model
 70
     1
 71
     0
 10
0.0
 20
0.0
 11
1189.0
 21
841.0
 12
0.0
 22
0.0
 32
0.0
 14
0.0
 24
0.0
 34
0.0
 15
1189.0
 25
841.0
 35
0.0
146
0.0
 13
0.0
 23
0.0
 33
0.0
 16
1.0
 26
0.0
 36
0.0
 17
0.0
 27
1.0
 37
0.0
 76
     0
330
1F
331
29
  0
MLINESTYLE
  5
18
102
{ACAD_REACTORS
330
17
102
}
330
17
100
AcDbMlineStyle
  2
Standard
 70
     0
  3

 62
   256
 51
90.0
 52
90.0
 71
     2
 49
0.5
 62
   256
  6
BYLAYER
 49
-0.5
 62
   256
  6
BYLAYER
  0
ACDBPLACEHOLDER
  5
F
102
{ACAD_REACTORS
330
E
102
}
330
E
  0
SCALE
  5
48
102
{ACAD_REACTORS
330
47
102
}
330
47
100
AcDbScale
 70
     0
300
1:1
140
1.0
141
1.0
290
     1
  0
SCALE
  5
49
102
{ACAD_REACTORS
330
47
102
}
330
47
100
AcDbScale
 70
     0
300
1:2
140
1.0
141
2.0
290
     0
  0
SCALE
  5
4A
102
{ACAD_REACTORS
330
47
102
}
330
47
100
AcDbScale
 70
     0
300
1:4
140
1.0
141
4.0
290
     0
  0
SCALE
  5
4B
102
{ACAD_REACTORS
330
47
102
}
330
47
100
AcDbScale
 70
     0
300
1:5
140
1.0
141
5.0
290
     0
  0
SCALE
  5
4C
102
{ACAD_REACTORS
330
47
102
}
330
47
100
AcDbScale
 70
     0
300
1:8
140
1.0
141
8.0
290
     0
  0
SCALE
  5
4D
102
{ACAD_REACTORS
330
47
102
}
330
47
100
AcDbScale
 70
     0
300
1:10
140
1.0
141
10.0
290
     0
  0
SCALE
  5
4E
102
{ACAD_REACTORS
330
47
102
}
330
47
100
AcDbScale
 70
     0
300
1:16
140
1.0
141
16.0
290
     0
  0
SCALE
  5
4F
102
{ACAD_REACTORS
330
47
102
}
330
47
100
AcDbScale
 70
     0
300
1:20
140
1.0
141
20.0
290
     0
  0
SCALE
  5
50
102
{ACAD_REACTORS
330
47
102
}
330
47
100
AcDbScale
 70
     0
300
1:30
140
1.0
141
30.0
290
     0
  0
SCALE
  5
51
102
{ACAD_REACTORS
330
47
102
}
330
47
100
AcDbScale
 70
     0
300
1:40
140
1.0
141
40.0
290
     0
  0
SCALE
  5
52
102
{ACAD_REACTORS
330
47
102
}
330
47
100
AcDbScale
 70
     0
300
1:50
140
1.0
141
50.0
290
     0
  0
SCALE
  5
53
102
{ACAD_REACTORS
330
47
102
}
330
47
100
AcDbScale
 70
     0
300
1:100
140
1.0
141
100.0
290
     0
  0
SCALE
  5
54
102
{ACAD_REACTORS
330
47
102
}
330
47
100
AcDbScale
 70
     0
300
2:1
140
2.0
141
1.0
290
     0
  0
SCALE
  5
55
102
{ACAD_REACTORS
330
47
102
}
330
47
100
AcDbScale
 70
     0
300
4:1
140
4.0
141
1.0
290
     0
  0
SCALE
  5
56
102
{ACAD_REACTORS
330
47
102
}
330
47
100
AcDbScale
 70
     0
300
8:1
140
8.0
141
1.0
290
     0
  0
SCALE
  5
57
102
{ACAD_REACTORS
330
47
102
}
330
47
100
AcDbScale
 70
     0
300
10:1
140
10.0
141
1.0
290
     0
  0
SCALE
  5
58
102
{ACAD_REACTORS
330
47
102
}
330
47
100
AcDbScale
 70
     0
300
100:1
140
100.0
141
1.0
290
     0
  0
SCALE
  5
59
102
{ACAD_REACTORS
330
47
102
}
330
47
100
AcDbScale
 70
     0
300
1/128" = 1'-0"
140
0.0078125
141
12.0
290
     0
  0
SCALE
  5
5A
102
{ACAD_REACTORS
330
47
102
}
330
47
100
AcDbScale
 70
     0
300
1/64" = 1'-0"
140
0.015625
141
12.0
290
     0
  0
SCALE
  5
5B
102
{ACAD_REACTORS
330
47
102
}
330
47
100
AcDbScale
 70
     0
300
1/32" = 1'-0"
140
0.03125
141
12.0
290
     0
  0
SCALE
  5
5C
102
{ACAD_REACTORS
330
47
102
}
330
47
100
AcDbScale
 70
     0
300
1/16" = 1'-0"
140
0.0625
141
12.0
290
     0
  0
SCALE
  5
5D
102
{ACAD_REACTORS
330
47
102
}
330
47
100
AcDbScale
 70
     0
300
3/32" = 1'-0"
140
0.09375
141
12.0
290
     0
  0
SCALE
  5
5E
102
{ACAD_REACTORS
330
47
102
}
330
47
100
AcDbScale
 70
     0
300
1/8" = 1'-0"
140
0.125
141
12.0
290
     0
  0
SCALE
  5
5F
102
{ACAD_REACTORS
330
47
102
}
330
47
100
AcDbScale
 70
     0
300
3/16" = 1'-0"
140
0.1875
141
12.0
290
     0
  0
SCALE
  5
60
102
{ACAD_REACTORS
330
47
102
}
330
47
100
AcDbScale
 70
     0
300
1/4" = 1'-0"
140
0.25
141
12.0
290
     0
  0
SCALE
  5
61
102
{ACAD_REACTORS
330
47
102
}
330
47
100
AcDbScale
 70
     0
300
3/8" = 1'-0"
140
0.375
141
12.0
290
     0
  0
SCALE
  5
62
102
{ACAD_REACTORS
330
47
102
}
330
47
100
AcDbScale
 70
     0
300
1/2" = 1'-0"
140
0.5
141
12.0
290
     0
  0
SCALE
  5
63
102
{ACAD_REACTORS
330
47
102
}
330
47
100
AcDbScale
 70
     0
300
3/4" = 1'-0"
140
0.75
141
12.0
290
     0
  0
SCALE
  5
64
102
{ACAD_REACTORS
330
47
102
}
330
47
100
AcDbScale
 70
     0
300
1" = 1'-0"
140
1.0
141
12.0
290
     0
  0
SCALE
  5
65
102
{ACAD_REACTORS
330
47
102
}
330
47
100
AcDbScale
 70
     0
300
1-1/2" = 1'-0"
140
1.5
141
12.0
290
     0
  0
SCALE
  5
66
102
{ACAD_REACTORS
330
47
102
}
330
47
100
AcDbScale
 70
     0
300
3" = 1'-0"
140
3.0
141
12.0
290
     0
  0
SCALE
  5
67
102
{ACAD_REACTORS
330
47
102
}
330
47
100
AcDbScale
 70
     0
300
6" = 1'-0"
140
6.0
141
12.0
290
     0
  0
SCALE
  5
68
102
{ACAD_REACTORS
330
47
102
}
330
47
100
AcDbScale
 70
     0
300
1'-0" = 1'-0"
140
12.0
141
12.0
290
     0
  0
ENDSEC
  0
EOF
